  0
SECTION
  2
HEADER
  9
$ACADVER
  1
AC1015
  9
$ACADMAINTVER
 70
    20
  9
$DWGCODEPAGE
  3
ANSI_936
  9
$INSBASE
 10
0.0
 20
0.0
 30
0.0
  9
$EXTMIN
 10
-17448.76737250822
 20
-3912.488433910857
 30
-29997.0
  9
$EXTMAX
 10
10568.95343237292
 20
7673.351481318515
 30
29997.00000000425
  9
$LIMMIN
 10
0.0
 20
0.0
  9
$LIMMAX
 10
12.0
 20
9.0
  9
$ORTHOMODE
 70
     0
  9
$REGENMODE
 70
     1
  9
$FILLMODE
 70
     1
  9
$QTEXTMODE
 70
     0
  9
$MIRRTEXT
 70
     0
  9
$LTSCALE
 40
1.0
  9
$ATTMODE
 70
     1
  9
$TEXTSIZE
 40
0.2
  9
$TRACEWID
 40
0.05
  9
$TEXTSTYLE
  7
Standard
  9
$CLAYER
  8
经纬网
  9
$CELTYPE
  6
ByLayer
  9
$CECOLOR
 62
   256
  9
$CELTSCALE
 40
1.0
  9
$DISPSILH
 70
     0
  9
$DIMSCALE
 40
1.0
  9
$DIMASZ
 40
0.18
  9
$DIMEXO
 40
0.0625
  9
$DIMDLI
 40
0.38
  9
$DIMRND
 40
0.0
  9
$DIMDLE
 40
0.0
  9
$DIMEXE
 40
0.18
  9
$DIMTP
 40
0.0
  9
$DIMTM
 40
0.0
  9
$DIMTXT
 40
0.18
  9
$DIMCEN
 40
0.09
  9
$DIMTSZ
 40
0.0
  9
$DIMTOL
 70
     0
  9
$DIMLIM
 70
     0
  9
$DIMTIH
 70
     1
  9
$DIMTOH
 70
     1
  9
$DIMSE1
 70
     0
  9
$DIMSE2
 70
     0
  9
$DIMTAD
 70
     0
  9
$DIMZIN
 70
     0
  9
$DIMBLK
  1

  9
$DIMASO
 70
     1
  9
$DIMSHO
 70
     1
  9
$DIMPOST
  1

  9
$DIMAPOST
  1

  9
$DIMALT
 70
     0
  9
$DIMALTD
 70
     2
  9
$DIMALTF
 40
25.4
  9
$DIMLFAC
 40
1.0
  9
$DIMTOFL
 70
     0
  9
$DIMTVP
 40
0.0
  9
$DIMTIX
 70
     0
  9
$DIMSOXD
 70
     0
  9
$DIMSAH
 70
     0
  9
$DIMBLK1
  1

  9
$DIMBLK2
  1

  9
$DIMSTYLE
  2
Standard
  9
$DIMCLRD
 70
     0
  9
$DIMCLRE
 70
     0
  9
$DIMCLRT
 70
     0
  9
$DIMTFAC
 40
1.0
  9
$DIMGAP
 40
0.09
  9
$DIMJUST
 70
     0
  9
$DIMSD1
 70
     0
  9
$DIMSD2
 70
     0
  9
$DIMTOLJ
 70
     1
  9
$DIMTZIN
 70
     0
  9
$DIMALTZ
 70
     0
  9
$DIMALTTZ
 70
     0
  9
$DIMUPT
 70
     0
  9
$DIMDEC
 70
     4
  9
$DIMTDEC
 70
     4
  9
$DIMALTU
 70
     2
  9
$DIMALTTD
 70
     2
  9
$DIMTXSTY
  7
Standard
  9
$DIMAUNIT
 70
     0
  9
$DIMADEC
 70
     0
  9
$DIMALTRND
 40
0.0
  9
$DIMAZIN
 70
     0
  9
$DIMDSEP
 70
    46
  9
$DIMATFIT
 70
     3
  9
$DIMFRAC
 70
     0
  9
$DIMLDRBLK
  1

  9
$DIMLUNIT
 70
     2
  9
$DIMLWD
 70
    -2
  9
$DIMLWE
 70
    -2
  9
$DIMTMOVE
 70
     0
  9
$LUNITS
 70
     2
  9
$LUPREC
 70
     4
  9
$SKETCHINC
 40
0.1
  9
$FILLETRAD
 40
0.0
  9
$AUNITS
 70
     0
  9
$AUPREC
 70
     0
  9
$MENU
  1
.
  9
$ELEVATION
 40
0.0
  9
$PELEVATION
 40
0.0
  9
$THICKNESS
 40
0.0
  9
$LIMCHECK
 70
     0
  9
$CHAMFERA
 40
0.0
  9
$CHAMFERB
 40
0.0
  9
$CHAMFERC
 40
0.0
  9
$CHAMFERD
 40
0.0
  9
$SKPOLY
 70
     0
  9
$TDCREATE
 40
2460581.446505660
  9
$TDUCREATE
 40
2460581.113172326
  9
$TDUPDATE
 40
2460581.474996516
  9
$TDUUPDATE
 40
2460581.141663183
  9
$TDINDWG
 40
0.028491192
  9
$TDUSRTIMER
 40
0.028491111
  9
$USRTIMER
 70
     1
  9
$ANGBASE
 50
0.0
  9
$ANGDIR
 70
     0
  9
$PDMODE
 70
     0
  9
$PDSIZE
 40
0.0
  9
$PLINEWID
 40
0.0
  9
$SPLFRAME
 70
     0
  9
$SPLINETYPE
 70
     6
  9
$SPLINESEGS
 70
     8
  9
$HANDSEED
  5
7CEC
  9
$SURFTAB1
 70
     6
  9
$SURFTAB2
 70
     6
  9
$SURFTYPE
 70
     6
  9
$SURFU
 70
     6
  9
$SURFV
 70
     6
  9
$UCSBASE
  2

  9
$UCSNAME
  2

  9
$UCSORG
 10
0.0
 20
0.0
 30
0.0
  9
$UCSXDIR
 10
1.0
 20
0.0
 30
0.0
  9
$UCSYDIR
 10
0.0
 20
1.0
 30
0.0
  9
$UCSORTHOREF
  2

  9
$UCSORTHOVIEW
 70
     0
  9
$UCSORGTOP
 10
0.0
 20
0.0
 30
0.0
  9
$UCSORGBOTTOM
 10
0.0
 20
0.0
 30
0.0
  9
$UCSORGLEFT
 10
0.0
 20
0.0
 30
0.0
  9
$UCSORGRIGHT
 10
0.0
 20
0.0
 30
0.0
  9
$UCSORGFRONT
 10
0.0
 20
0.0
 30
0.0
  9
$UCSORGBACK
 10
0.0
 20
0.0
 30
0.0
  9
$PUCSBASE
  2

  9
$PUCSNAME
  2

  9
$PUCSORG
 10
0.0
 20
0.0
 30
0.0
  9
$PUCSXDIR
 10
1.0
 20
0.0
 30
0.0
  9
$PUCSYDIR
 10
0.0
 20
1.0
 30
0.0
  9
$PUCSORTHOREF
  2

  9
$PUCSORTHOVIEW
 70
     0
  9
$PUCSORGTOP
 10
0.0
 20
0.0
 30
0.0
  9
$PUCSORGBOTTOM
 10
0.0
 20
0.0
 30
0.0
  9
$PUCSORGLEFT
 10
0.0
 20
0.0
 30
0.0
  9
$PUCSORGRIGHT
 10
0.0
 20
0.0
 30
0.0
  9
$PUCSORGFRONT
 10
0.0
 20
0.0
 30
0.0
  9
$PUCSORGBACK
 10
0.0
 20
0.0
 30
0.0
  9
$USERI1
 70
     0
  9
$USERI2
 70
     0
  9
$USERI3
 70
     0
  9
$USERI4
 70
     0
  9
$USERI5
 70
     0
  9
$USERR1
 40
0.0
  9
$USERR2
 40
0.0
  9
$USERR3
 40
0.0
  9
$USERR4
 40
0.0
  9
$USERR5
 40
0.0
  9
$WORLDVIEW
 70
     1
  9
$SHADEDGE
 70
     3
  9
$SHADEDIF
 70
    70
  9
$TILEMODE
 70
     1
  9
$MAXACTVP
 70
    64
  9
$PINSBASE
 10
0.0
 20
0.0
 30
0.0
  9
$PLIMCHECK
 70
     0
  9
$PEXTMIN
 10
0.0
 20
0.0
 30
0.0
  9
$PEXTMAX
 10
0.0
 20
0.0
 30
0.0
  9
$PLIMMIN
 10
0.0
 20
0.0
  9
$PLIMMAX
 10
12.0
 20
9.0
  9
$UNITMODE
 70
     0
  9
$VISRETAIN
 70
     1
  9
$PLINEGEN
 70
     0
  9
$PSLTSCALE
 70
     1
  9
$TREEDEPTH
 70
  3020
  9
$CMLSTYLE
  2
Standard
  9
$CMLJUST
 70
     0
  9
$CMLSCALE
 40
1.0
  9
$PROXYGRAPHICS
 70
     1
  9
$MEASUREMENT
 70
     0
  9
$CELWEIGHT
370
    -1
  9
$ENDCAPS
280
     0
  9
$JOINSTYLE
280
     0
  9
$LWDISPLAY
290
     0
  9
$INSUNITS
 70
     1
  9
$HYPERLINKBASE
  1

  9
$STYLESHEET
  1

  9
$XEDIT
290
     1
  9
$CEPSNTYPE
380
     0
  9
$PSTYLEMODE
290
     1
  9
$FINGERPRINTGUID
  2
{603D9DD0-CF08-4AB5-8AB4-9AD0D77F5A0A}
  9
$VERSIONGUID
  2
{BE4626F4-5795-4495-8555-BEF36844AC15}
  9
$EXTNAMES
290
     1
  9
$PSVPSCALE
 40
0.0
  9
$OLESTARTUP
290
     0
  0
ENDSEC
  0
SECTION
  2
CLASSES
  0
CLASS
  1
ACDBDICTIONARYWDFLT
  2
AcDbDictionaryWithDefault
  3
ObjectDBX Classes
 90
        0
280
     0
281
     0
  0
CLASS
  1
ACDBPLACEHOLDER
  2
AcDbPlaceHolder
  3
ObjectDBX Classes
 90
    32768
280
     0
281
     0
  0
CLASS
  1
LAYOUT
  2
AcDbLayout
  3
ObjectDBX Classes
 90
    32768
280
     0
281
     0
  0
CLASS
  1
DICTIONARYVAR
  2
AcDbDictionaryVar
  3
ObjectDBX Classes
 90
        0
280
     0
281
     0
  0
CLASS
  1
TABLESTYLE
  2
AcDbTableStyle
  3
ObjectDBX Classes
 90
     4095
280
     0
281
     0
  0
CLASS
  1
WIPEOUTVARIABLES
  2
AcDbWipeoutVariables
  3
"WipeOut|Product Desc:     WipeOut Dbx Application|Company:          Autodesk, Inc.|WEB Address:      www.autodesk.com"
 90
    32768
280
     0
281
     0
  0
CLASS
  1
SCALE
  2
AcDbScale
  3
ObjectDBX Classes
 90
     1153
280
     0
281
     0
  0
CLASS
  1
MLEADERSTYLE
  2
AcDbMLeaderStyle
  3
ACDB_MLEADERSTYLE_CLASS
 90
     4095
280
     0
281
     0
  0
CLASS
  1
CELLSTYLEMAP
  2
AcDbCellStyleMap
  3
ObjectDBX Classes
 90
     1152
280
     0
281
     0
  0
CLASS
  1
MATERIAL
  2
AcDbMaterial
  3
ObjectDBX Classes
 90
     1153
280
     0
281
     0
  0
CLASS
  1
VISUALSTYLE
  2
AcDbVisualStyle
  3
ObjectDBX Classes
 90
     4095
280
     0
281
     0
  0
CLASS
  1
ACDBSECTIONVIEWSTYLE
  2
AcDbSectionViewStyle
  3
ObjectDBX Classes
 90
     1025
280
     0
281
     0
  0
CLASS
  1
ACDBDETAILVIEWSTYLE
  2
AcDbDetailViewStyle
  3
ObjectDBX Classes
 90
     1025
280
     0
281
     0
  0
CLASS
  1
SORTENTSTABLE
  2
AcDbSortentsTable
  3
ObjectDBX Classes
 90
        0
280
     0
281
     0
  0
CLASS
  1
ACDBPLACEHOLDER
  2
AcDbPlaceHolder
  3
ObjectDBX Classes
 90
        0
280
     0
281
     0
  0
CLASS
  1
LAYOUT
  2
AcDbLayout
  3
ObjectDBX Classes
 90
        0
280
     0
281
     0
  0
ENDSEC
  0
SECTION
  2
TABLES
  0
TABLE
  2
VPORT
  5
8
102
{ACAD_XDICTIONARY
360
7CAA
102
}
330
0
100
AcDbSymbolTable
 70
     1
  0
VPORT
  5
185
330
8
100
AcDbSymbolTableRecord
100
AcDbViewportTableRecord
  2
*Active
 70
     0
 10
0.0
 20
0.0
 11
1.0
 21
1.0
 12
-1316.109033012987
 22
3584.889555512667
 13
0.0
 23
0.0
 14
0.5
 24
0.5
 15
0.5
 25
0.5
 16
0.0
 26
0.0
 36
1.0
 17
0.0
 27
0.0
 37
0.0
 40
7922.859481992185
 41
2.109430604982206
 42
50.0
 43
0.0
 44
0.0
 50
0.0
 51
0.0
 71
    16
 72
  1000
 73
     1
 74
     3
 75
     0
 76
     0
 77
     0
 78
     0
281
     0
 65
     1
110
0.0
120
0.0
130
0.0
111
1.0
121
0.0
131
0.0
112
0.0
122
1.0
132
0.0
 79
     0
146
0.0
1001
ACAD_NAV_VCDISPLAY
1070
     3
  0
ENDTAB
  0
TABLE
  2
LTYPE
  5
5
330
0
100
AcDbSymbolTable
 70
    10
  0
LTYPE
  5
14
330
5
100
AcDbSymbolTableRecord
100
AcDbLinetypeTableRecord
  2
ByBlock
 70
     0
  3

 72
    65
 73
     0
 40
0.0
  0
LTYPE
  5
15
330
5
100
AcDbSymbolTableRecord
100
AcDbLinetypeTableRecord
  2
ByLayer
 70
     0
  3

 72
    65
 73
     0
 40
0.0
  0
LTYPE
  5
16
330
5
100
AcDbSymbolTableRecord
100
AcDbLinetypeTableRecord
  2
Continuous
 70
     0
  3
Solid line
 72
    65
 73
     0
 40
0.0
  0
LTYPE
  5
19D
330
5
100
AcDbSymbolTableRecord
100
AcDbLinetypeTableRecord
  2
PHANTOM2
 70
     0
  3
Phantom (.5x) ___ _ _ ___ _ _ ___ _ _ ___ _ _
 72
    65
 73
     6
 40
1.25
 49
0.625
 74
     0
 49
-0.125
 74
     0
 49
0.125
 74
     0
 49
-0.125
 74
     0
 49
0.125
 74
     0
 49
-0.125
 74
     0
  0
LTYPE
  5
21C
330
5
100
AcDbSymbolTableRecord
100
AcDbLinetypeTableRecord
  2
DASH
 70
     0
  3
__ __ __ __ __ __ __ __ __ __ __ __ __ __ __ __
 72
    65
 73
     2
 40
0.35
 49
0.25
 74
     0
 49
-0.1
 74
     0
  0
LTYPE
  5
21B
330
5
100
AcDbSymbolTableRecord
100
AcDbLinetypeTableRecord
  2
CENTER
 70
     0
  3
Center ____ _ ____ _ ____ _ ____ _ ____ _ ____
 72
    65
 73
     4
 40
50.8
 49
31.75
 74
     0
 49
-6.349999999999997
 74
     0
 49
6.349999999999997
 74
     0
 49
-6.349999999999997
 74
     0
  0
LTYPE
  5
21F
330
5
100
AcDbSymbolTableRecord
100
AcDbLinetypeTableRecord
  2
井田边界
 70
     0
  3

 72
    65
 73
     3
 40
500.0
 49
400.0
 74
     0
 49
-50.0
 74
     2
 75
     0
340
11
 46
60.0
 50
0.0
 44
-20.0
 45
-30.0
  9
+
 49
-50.0
 74
     0
  0
LTYPE
  5
221
330
5
100
AcDbSymbolTableRecord
100
AcDbLinetypeTableRecord
  2
MZBJX
 70
     0
  3
-------O--------
 72
    65
 73
     2
 40
33.0
 49
30.0
 74
     4
 75
   140
340
222
 46
1.5
 50
0.0
 44
0.0
 45
0.0
 49
-3.0
 74
     0
  0
LTYPE
  5
223
330
5
100
AcDbSymbolTableRecord
100
AcDbLinetypeTableRecord
  2
0a26剥蚀边界
 70
     0
  3
----*-----
 72
    65
 73
     3
 40
45.0
 49
40.0
 74
     0
 49
-2.5
 74
     4
 75
   148
340
222
 46
1.0
 50
0.0
 44
0.0
 45
0.0
 49
-2.5
 74
     0
  0
LTYPE
  5
214
330
5
100
AcDbSymbolTableRecord
100
AcDbLinetypeTableRecord
  2
采区边界线
 70
     0
  3
采区边界线
 72
    65
 73
     5
 40
45.0
 49
20.0
 74
     0
 49
-1.0
 74
     0
 49
3.0
 74
     0
 49
-1.0
 74
     0
 49
20.0
 74
     0
  0
LTYPE
  5
1F8
330
5
100
AcDbSymbolTableRecord
100
AcDbLinetypeTableRecord
  2
0a1井田边界
 70
     0
  3

 72
    65
 73
     3
 40
49.0
 49
40.0
 74
     0
 49
-2.0
 74
     4
 75
   147
340
222
 46
5.0
 50
0.0
 44
0.0
 45
0.0
 49
-7.0
 74
     0
  0
LTYPE
  5
21D
330
5
100
AcDbSymbolTableRecord
100
AcDbLinetypeTableRecord
  2
井田边界线
 70
     0
  3
井田边界线
 72
    65
 73
     4
 40
49.0
 49
20.0
 74
     0
 49
-4.5
 74
     4
 75
     1
340
222
 46
1.0
 50
0.0
 44
0.0
 45
0.0
 49
-4.5
 74
     0
 49
20.0
 74
     0
  0
ENDTAB
  0
TABLE
  2
LAYER
  5
2
102
{ACAD_XDICTIONARY
360
124
102
}
330
0
100
AcDbSymbolTable
 70
    32
  0
LAYER
  5
10
102
{ACAD_XDICTIONARY
360
7CA1
102
}
330
2
100
AcDbSymbolTableRecord
100
AcDbLayerTableRecord
  2
0
 70
     0
 62
     7
  6
Continuous
370
    -3
390
F
  0
LAYER
  5
205
102
{ACAD_XDICTIONARY
360
7CA3
102
}
330
2
100
AcDbSymbolTableRecord
100
AcDbLayerTableRecord
  2
图例及图签
 70
     0
 62
     7
  6
Continuous
370
    -3
390
F
1001
AcAecLayerStandard
1000

1000

  0
LAYER
  5
21A
102
{ACAD_XDICTIONARY
360
7CA5
102
}
330
2
100
AcDbSymbolTableRecord
100
AcDbLayerTableRecord
  2
1000经纬网
 70
     0
 62
     7
  6
Continuous
370
    -3
390
F
1001
AcAecLayerStandard
1000

1000

  0
LAYER
  5
1D7
102
{ACAD_XDICTIONARY
360
1D8
102
}
330
2
100
AcDbSymbolTableRecord
100
AcDbLayerTableRecord
  2
经纬网
 70
     0
 62
     7
  6
Continuous
370
    -3
390
F
  0
LAYER
  5
211
102
{ACAD_XDICTIONARY
360
212
102
}
330
2
100
AcDbSymbolTableRecord
100
AcDbLayerTableRecord
  2
盘区边界
 70
     0
 62
     7
  6
采区边界线
370
    50
390
F
1001
AcAecLayerStandard
1000

1000

  0
LAYER
  5
1F5
102
{ACAD_XDICTIONARY
360
1F6
102
}
330
2
100
AcDbSymbolTableRecord
100
AcDbLayerTableRecord
  2
井田边界
 70
     0
 62
     7
  6
0a1井田边界
370
   100
390
F
1001
AcAecLayerStandard
1000

1000

  0
ENDTAB
  0
TABLE
  2
STYLE
  5
3
330
0
100
AcDbSymbolTable
 70
     9
  0
STYLE
  5
11
330
3
100
AcDbSymbolTableRecord
100
AcDbTextStyleTableRecord
  2
Standard
 70
     0
 40
0.0
 41
1.0
 50
0.0
 71
     0
 42
0.2
  3

  4

1001
ACAD
1000
SimSun
1071
    34306
  0
STYLE
  5
1B8
330
3
100
AcDbSymbolTableRecord
100
AcDbTextStyleTableRecord
  2
Annotative
 70
     0
 40
0.0
 41
1.0
 50
0.0
 71
     0
 42
0.2
  3

  4

1001
AcadAnnotative
1000
AnnotativeData
1002
{
1070
     1
1070
     1
1002
}
1001
ACAD
1000
SimSun
1071
    34306
  0
STYLE
  5
230
330
3
100
AcDbSymbolTableRecord
100
AcDbTextStyleTableRecord
  2
宋体
 70
     0
 40
0.0
 41
0.618
 50
0.0
 71
     0
 42
3.5
  3

  4

1001
ACAD
1000
SimSun
1071
    34306
  0
STYLE
  5
22E
330
3
100
AcDbSymbolTableRecord
100
AcDbTextStyleTableRecord
  2
HZ
 70
     0
 40
0.0
 41
1.0
 50
0.0
 71
     0
 42
3.799999999999998
  3

  4

1001
ACAD
1000
SimSun
1071
    34306
  0
STYLE
  5
222
330
3
100
AcDbSymbolTableRecord
100
AcDbTextStyleTableRecord
  2

 70
     1
 40
0.0
 41
1.0
 50
0.0
 71
     0
 42
2.5
  3
wur14.shx
  4

  0
STYLE
  5
22F
330
3
100
AcDbSymbolTableRecord
100
AcDbTextStyleTableRecord
  2
样式 3
 70
     0
 40
10.0
 41
1.0
 50
0.0
 71
     0
 42
10.0
  3

  4

1001
ACAD
1000
SimSun
1071
    34306
  0
STYLE
  5
233
330
3
100
AcDbSymbolTableRecord
100
AcDbTextStyleTableRecord
  2
楷体GB2312
 70
     0
 40
30.0
 41
1.0
 50
0.0
 71
     0
 42
3.799999999999997
  3
simkai.ttf
  4

1001
ACAD
1000
KaiTi
1071
    34353
  0
STYLE
  5
231
330
3
100
AcDbSymbolTableRecord
100
AcDbTextStyleTableRecord
  2
黑体
 70
     0
 40
7.0
 41
1.0
 50
0.0
 71
     0
 42
7.0
  3

  4

1001
ACAD
1000
SimSun
1071
    34306
  0
STYLE
  5
232
330
3
100
AcDbSymbolTableRecord
100
AcDbTextStyleTableRecord
  2
经纬网
 70
     0
 40
0.0
 41
1.0
 50
0.0
 71
     0
 42
3.5
  3

  4

1001
ACAD
1000
SimSun
1071
    34306
  0
ENDTAB
  0
TABLE
  2
VIEW
  5
6
330
0
100
AcDbSymbolTable
 70
     0
  0
ENDTAB
  0
TABLE
  2
UCS
  5
7
330
0
100
AcDbSymbolTable
 70
     0
  0
ENDTAB
  0
TABLE
  2
APPID
  5
9
330
0
100
AcDbSymbolTable
 70
    17
  0
APPID
  5
12
330
9
100
AcDbSymbolTableRecord
100
AcDbRegAppTableRecord
  2
ACAD
 70
     0
  0
APPID
  5
14C
330
9
100
AcDbSymbolTableRecord
100
AcDbRegAppTableRecord
  2
ACAD_NAV_VCDISPLAY
 70
     0
  0
APPID
  5
154
330
9
100
AcDbSymbolTableRecord
100
AcDbRegAppTableRecord
  2
ACAD_PSEXT
 70
     0
  0
APPID
  5
1B9
330
9
100
AcDbSymbolTableRecord
100
AcDbRegAppTableRecord
  2
AcadAnnoPO
 70
     0
  0
APPID
  5
1BA
330
9
100
AcDbSymbolTableRecord
100
AcDbRegAppTableRecord
  2
AcadAnnotative
 70
     0
  0
APPID
  5
1BD
330
9
100
AcDbSymbolTableRecord
100
AcDbRegAppTableRecord
  2
ACAD_DSTYLE_DIMJAG
 70
     0
  0
APPID
  5
1BE
330
9
100
AcDbSymbolTableRecord
100
AcDbRegAppTableRecord
  2
ACAD_DSTYLE_DIMBREAK
 70
     0
  0
APPID
  5
1BF
330
9
100
AcDbSymbolTableRecord
100
AcDbRegAppTableRecord
  2
ACAD_DSTYLE_DIMTALN
 70
     0
  0
APPID
  5
227
330
9
100
AcDbSymbolTableRecord
100
AcDbRegAppTableRecord
  2
AcLayerTools
 70
     0
  0
APPID
  5
229
330
9
100
AcDbSymbolTableRecord
100
AcDbRegAppTableRecord
  2
ACET-TEXTMASK
 70
     0
  0
APPID
  5
226
330
9
100
AcDbSymbolTableRecord
100
AcDbRegAppTableRecord
  2
AcDbBlockRepETag
 70
     0
  0
APPID
  5
1D3
330
9
100
AcDbSymbolTableRecord
100
AcDbRegAppTableRecord
  2
AcAecLayerStandard
 70
     0
  0
APPID
  5
228
330
9
100
AcDbSymbolTableRecord
100
AcDbRegAppTableRecord
  2
AcDbDynamicBlockGUID
 70
     0
  0
APPID
  5
22D
330
9
100
AcDbSymbolTableRecord
100
AcDbRegAppTableRecord
  2
HATCHBACKGROUNDCOLOR
 70
     0
  0
APPID
  5
22C
330
9
100
AcDbSymbolTableRecord
100
AcDbRegAppTableRecord
  2
ZWMCAD_GENSCA_13_
 70
     0
  0
APPID
  5
22B
330
9
100
AcDbSymbolTableRecord
100
AcDbRegAppTableRecord
  2
ZWMCAD_GENSTANDARDFRAME_13_
 70
     0
  0
APPID
  5
7CB0
330
9
100
AcDbSymbolTableRecord
100
AcDbRegAppTableRecord
  2
ACAD_MLEADERVER
 70
     0
  0
ENDTAB
  0
TABLE
  2
DIMSTYLE
  5
A
330
0
100
AcDbSymbolTable
 70
     3
100
AcDbDimStyleTable
 71
     2
340
27
340
1C0
  0
DIMSTYLE
105
27
330
A
100
AcDbSymbolTableRecord
100
AcDbDimStyleTableRecord
  2
Standard
 70
     0
340
11
  0
DIMSTYLE
105
1C0
330
A
100
AcDbSymbolTableRecord
100
AcDbDimStyleTableRecord
  2
Annotative
 70
     0
340
11
1001
ACAD_DSTYLE_DIMBREAK
1070
   391
1040
0.125
1001
AcadAnnotative
1000
AnnotativeData
1002
{
1070
     1
1070
     1
1002
}
1001
ACAD_DSTYLE_DIMJAG
1070
   388
1040
1.5
1001
ACAD_DSTYLE_DIMTALN
1070
   392
1070
     0
  0
ENDTAB
  0
TABLE
  2
BLOCK_RECORD
  5
1
330
0
100
AcDbSymbolTable
 70
    24
  0
BLOCK_RECORD
  5
1F
330
1
100
AcDbSymbolTableRecord
100
AcDbBlockTableRecord
  2
*Model_Space
340
22
  0
BLOCK_RECORD
  5
192
330
1
100
AcDbSymbolTableRecord
100
AcDbBlockTableRecord
  2
*Paper_Space
340
193
  0
BLOCK_RECORD
  5
197
330
1
100
AcDbSymbolTableRecord
100
AcDbBlockTableRecord
  2
*Paper_Space0
340
198
  0
BLOCK_RECORD
  5
939
102
{ACAD_XDICTIONARY
360
93A
102
}
330
1
100
AcDbSymbolTableRecord
100
AcDbBlockTableRecord
  2
42煤调节风窗
340
0
102
{BLKREFS
331
937
331
952
331
D1B
331
D1D
331
21F2
331
23C9
331
23E0
331
265F
331
267C
331
2CB2
331
2CDF
331
2D51
331
2D53
331
7583
331
7589
331
75A8
331
75AA
331
75AC
331
765C
331
76B8
331
7755
331
7772
331
7A4A
331
7A4C
331
7A4E
331
7A9B
331
7B1F
331
7C8E
331
7C90
331
46D2
331
46D4
331
4A9D
331
4A9F
331
4F39
331
5096
331
5225
331
5234
331
531A
331
542F
331
55D4
331
55D8
331
56A5
331
57FB
331
5820
331
5858
331
585A
331
5F32
331
38A8
331
38AE
331
38CD
331
38CF
331
38D1
331
3992
331
39EE
331
3A8B
331
3AA8
331
3DA3
331
3DA5
331
3DA7
331
3DF4
331
3E78
331
3FE7
331
3FE9
331
11C6
331
1323
331
14B2
331
14C1
331
15A7
331
16C6
331
1876
331
187A
331
1947
331
1A9D
331
1AC2
331
1AFA
331
1AFC
331
6109
331
6120
331
639F
331
63BC
331
69C8
331
69F5
331
6A67
331
6A69
102
}
1001
AcDbDynamicBlockGUID
1000
{95BCDAEE-A67C-48C2-BCCA-465C99D4E6A9}
1001
AcDbBlockRepETag
1070
     1
1071
        4
  0
BLOCK_RECORD
  5
D25
102
{ACAD_XDICTIONARY
360
D26
102
}
330
1
100
AcDbSymbolTableRecord
100
AcDbBlockTableRecord
  2
A$C68FC7CD3
340
0
102
{BLKREFS
331
D23
331
27CD
331
293B
331
293D
331
297A
331
297C
331
2B8E
331
2B90
331
2DC5
331
2DC7
331
2E46
331
2E48
331
7585
331
7587
331
78B7
331
78B9
331
4AA5
331
5229
331
522B
331
52A9
331
55D0
331
55D2
331
5634
331
5636
331
57ED
331
57EF
331
57F4
331
57F6
331
57FE
331
5803
331
5805
331
5809
331
580B
331
580E
331
5810
331
5814
331
5816
331
581C
331
581E
331
5825
331
5827
331
38AA
331
38AC
331
3BFB
331
3BFD
331
14B6
331
14B8
331
1536
331
1872
331
1874
331
18D6
331
18D8
331
1A8F
331
1A91
331
1A96
331
1A98
331
1AA0
331
1AA5
331
1AA7
331
1AAB
331
1AAD
331
1AB0
331
1AB2
331
1AB6
331
1AB8
331
1ABE
331
1AC0
331
1AC7
331
1AC9
331
650D
331
6673
331
6675
331
66AC
331
66AE
331
68C0
331
68C2
331
6ADB
331
6ADD
331
6B5C
331
6B5E
102
}
1001
AcDbDynamicBlockGUID
1000
{D4265212-5AD8-4C0C-88EC-4E18315C7771}
1001
AcDbBlockRepETag
1070
     1
1071
        6
  0
BLOCK_RECORD
  5
F33
102
{ACAD_XDICTIONARY
360
F34
102
}
330
1
100
AcDbSymbolTableRecord
100
AcDbBlockTableRecord
  2
42煤回风方向1
340
0
102
{BLKREFS
331
F31
331
2119
331
2126
331
21F0
331
21FB
331
21FE
331
220F
331
229E
331
23B2
331
23B4
331
23C7
331
23CB
331
2677
331
26B8
331
26DF
331
271E
331
2753
331
2757
331
2794
331
279F
331
2C78
331
2C9A
331
2CE7
331
2CF6
331
2D05
331
2D49
331
2F47
331
7598
331
7686
331
768A
331
76F4
331
771F
331
773A
331
7753
331
775D
331
775F
331
7A9D
331
7A9F
331
7B11
331
4CAC
331
504A
331
5AB3
331
5AE6
331
5B6B
331
5B78
331
5E6D
331
5E7A
331
5F30
331
5F3B
331
5F3E
331
5F4F
331
5FDE
331
38BD
331
39BC
331
39C0
331
3A2A
331
3A55
331
3A70
331
3A89
331
3A93
331
3A95
331
3DF6
331
3DF8
331
3E6A
331
12D7
331
1D55
331
1D8C
331
1E17
331
1E24
331
60F2
331
60F4
331
6107
331
610B
331
63B7
331
63F8
331
641F
331
645E
331
6493
331
6497
331
64D4
331
64DF
331
698E
331
69B0
331
69FD
331
6A0C
331
6A1B
331
6A5F
331
6C22
102
}
1001
AcDbDynamicBlockGUID
1000
{D1CA7B01-0814-4D33-A0D7-0390D35B0E2C}
1001
AcDbBlockRepETag
1070
     1
1071
        4
  0
BLOCK_RECORD
  5
15AD
102
{ACAD_XDICTIONARY
360
15AE
102
}
330
1
100
AcDbSymbolTableRecord
100
AcDbBlockTableRecord
  2
A$C13D54782
340
0
102
{BLKREFS
331
26FA
331
26FC
331
28DE
331
28E0
331
2928
331
292A
331
758B
331
758D
331
765E
331
7660
331
531E
331
5320
331
38B0
331
38B2
331
3994
331
3996
331
15AB
331
15B7
331
643A
331
643C
331
6616
331
6618
331
6660
331
6662
102
}
1001
AcDbDynamicBlockGUID
1000
{4E5F42A7-80BE-476D-9B4A-97F6C5ADDB7C}
1001
AcDbBlockRepETag
1070
     1
1071
        5
  0
BLOCK_RECORD
  5
17D3
102
{ACAD_XDICTIONARY
360
17D4
102
}
330
1
100
AcDbSymbolTableRecord
100
AcDbBlockTableRecord
  2
$AUDIT_BAD_BLOCK_RECORD19
340
0
102
{BLKREFS
331
2F81
331
2F82
331
2F83
331
2F84
331
2F85
331
2F86
331
2F93
331
2F94
331
7783
331
7784
331
778A
331
778B
331
553B
331
3AB9
331
3ABA
331
3AC0
331
3AC1
331
17D2
331
6C5C
331
6C5D
331
6C5E
331
6C5F
331
6C60
331
6C61
331
6C6E
331
6C6F
102
}
1001
AcDbDynamicBlockGUID
1000
{66F11CA3-4322-4E41-A9C8-320E4C8FC679}
1001
AcDbBlockRepETag
1070
     1
1071
        8
  0
BLOCK_RECORD
  5
1D59
330
1
100
AcDbSymbolTableRecord
100
AcDbBlockTableRecord
  2
42上煤临时密闭
340
0
102
{BLKREFS
331
2296
331
229A
331
23DD
331
23E2
331
23E5
331
23E7
331
23E9
331
23F0
331
23FB
331
23FF
331
2401
331
2403
331
2405
331
2408
331
240A
331
240C
331
240E
331
2410
331
2412
331
2417
331
2419
331
241B
331
241D
331
2420
331
2422
331
2424
331
2426
331
2428
331
242A
331
242D
331
2430
331
2432
331
2434
331
2436
331
2438
331
243A
331
243C
331
243E
331
2440
331
2442
331
2444
331
2446
331
2448
331
244A
331
244C
331
244F
331
2451
331
2453
331
2455
331
2458
331
245B
331
245D
331
245F
331
2461
331
2463
331
2465
331
2468
331
246A
331
246C
331
246E
331
2470
331
2472
331
2474
331
2476
331
2478
331
247A
331
247C
331
247E
331
2480
331
2482
331
2484
331
2486
331
2488
331
248A
331
248C
331
248E
331
2490
331
2492
331
2494
331
2496
331
2498
331
249C
331
249E
331
24A0
331
24A2
331
24A4
331
24A6
331
24A8
331
24AA
331
24AC
331
24AE
331
24B0
331
24B3
331
24B5
331
24B7
331
24B9
331
24BB
331
24BD
331
24BF
331
24C1
331
24C3
331
24C5
331
24C7
331
24CA
331
24CC
331
24CE
331
24D0
331
24D2
331
24D4
331
24D6
331
24D8
331
24DA
331
24DC
331
24DE
331
24E0
331
24E2
331
24E4
331
24E6
331
24E8
331
24EA
331
24EC
331
24EE
331
24F0
331
24F2
331
24F4
331
24F6
331
24F8
331
24FA
331
24FC
331
24FE
331
2500
331
2502
331
2504
331
2506
331
2508
331
250A
331
250C
331
250E
331
2510
331
2512
331
2514
331
2516
331
2518
331
251A
331
251C
331
251E
331
2520
331
2522
331
2524
331
2526
331
2528
331
252A
331
252C
331
252E
331
2530
331
2532
331
2534
331
2536
331
2538
331
253A
331
253C
331
253E
331
2540
331
2542
331
2544
331
2546
331
2548
331
254A
331
254C
331
254E
331
2550
331
2552
331
2554
331
2556
331
2559
331
255B
331
255D
331
255F
331
2561
331
2563
331
2565
331
2567
331
2569
331
256B
331
256D
331
256F
331
2571
331
2573
331
2575
331
2577
331
2579
331
257B
331
257D
331
257F
331
2581
331
2584
331
2586
331
2588
331
258A
331
258C
331
258E
331
2590
331
2592
331
2594
331
2596
331
2598
331
259B
331
259D
331
259F
331
25A1
331
25A3
331
25A5
331
25A7
331
25A9
331
25AB
331
25AD
331
25B0
331
25B3
331
25B6
331
25B8
331
25BB
331
25BD
331
25BF
331
25C2
331
25C4
331
25C7
331
25C9
331
25CC
331
25CE
331
25D1
331
25D4
331
25D8
331
25DC
331
25DE
331
25E0
331
25E2
331
25E4
331
25E6
331
25E9
331
25ED
331
25F1
331
25F3
331
25F5
331
25F7
331
25FB
331
25FD
331
25FF
331
2601
331
2603
331
2607
331
2609
331
260B
331
260D
331
2611
331
2615
331
2617
331
2619
331
261B
331
261D
331
261F
331
2621
331
2623
331
2626
331
263A
331
263F
331
2646
331
264C
331
2654
331
2658
331
265C
331
26D6
331
2799
331
27C1
331
27D6
331
27DF
331
27E6
331
2E1E
331
2E20
331
7698
331
769A
331
769C
331
769E
331
76A0
331
76A2
331
76A4
331
76A6
331
7A73
331
7A75
331
7A77
331
7A79
331
7A7B
331
7A7D
331
7A7F
331
7A81
331
7B1A
331
7B1C
331
5AB5
331
5AB7
331
5ABA
331
5ABC
331
5B15
331
5B3C
331
5FD6
331
5FDA
331
39CE
331
39D0
331
39D2
331
39D4
331
39D6
331
39D8
331
39DA
331
39DC
331
3DCC
331
3DCE
331
3DD0
331
3DD2
331
3DD4
331
3DD6
331
3DD8
331
3DDA
331
3E73
331
3E75
331
1D57
331
1D5D
331
1D60
331
1D62
331
1DC1
331
1DE8
331
611D
331
6122
331
6125
331
6127
331
6129
331
6130
331
613B
331
613F
331
6141
331
6143
331
6145
331
6148
331
614A
331
614C
331
614E
331
6150
331
6152
331
6157
331
6159
331
615B
331
615D
331
6160
331
6162
331
6164
331
6166
331
6168
331
616A
331
616D
331
6170
331
6172
331
6174
331
6176
331
6178
331
617A
331
617C
331
617E
331
6180
331
6182
331
6184
331
6186
331
6188
331
618A
331
618C
331
618F
331
6191
331
6193
331
6195
331
6198
331
619B
331
619D
331
619F
331
61A1
331
61A3
331
61A5
331
61A8
331
61AA
331
61AC
331
61AE
331
61B0
331
61B2
331
61B4
331
61B6
331
61B8
331
61BA
331
61BC
331
61BE
331
61C0
331
61C2
331
61C4
331
61C6
331
61C8
331
61CA
331
61CC
331
61CE
331
61D0
331
61D2
331
61D4
331
61D6
331
61D8
331
61DC
331
61DE
331
61E0
331
61E2
331
61E4
331
61E6
331
61E8
331
61EA
331
61EC
331
61EE
331
61F0
331
61F3
331
61F5
331
61F7
331
61F9
331
61FB
331
61FD
331
61FF
331
6201
331
6203
331
6205
331
6207
331
620A
331
620C
331
620E
331
6210
331
6212
331
6214
331
6216
331
6218
331
621A
331
621C
331
621E
331
6220
331
6222
331
6224
331
6226
331
6228
331
622A
331
622C
331
622E
331
6230
331
6232
331
6234
331
6236
331
6238
331
623A
331
623C
331
623E
331
6240
331
6242
331
6244
331
6246
331
6248
331
624A
331
624C
331
624E
331
6250
331
6252
331
6254
331
6256
331
6258
331
625A
331
625C
331
625E
331
6260
331
6262
331
6264
331
6266
331
6268
331
626A
331
626C
331
626E
331
6270
331
6272
331
6274
331
6276
331
6278
331
627A
331
627C
331
627E
331
6280
331
6282
331
6284
331
6286
331
6288
331
628A
331
628C
331
628E
331
6290
331
6292
331
6294
331
6296
331
6299
331
629B
331
629D
331
629F
331
62A1
331
62A3
331
62A5
331
62A7
331
62A9
331
62AB
331
62AD
331
62AF
331
62B1
331
62B3
331
62B5
331
62B7
331
62B9
331
62BB
331
62BD
331
62BF
331
62C1
331
62C4
331
62C6
331
62C8
331
62CA
331
62CC
331
62CE
331
62D0
331
62D2
331
62D4
331
62D6
331
62D8
331
62DB
331
62DD
331
62DF
331
62E1
331
62E3
331
62E5
331
62E7
331
62E9
331
62EB
331
62ED
331
62F0
331
62F3
331
62F6
331
62F8
331
62FB
331
62FD
331
62FF
331
6302
331
6304
331
6307
331
6309
331
630C
331
630E
331
6311
331
6314
331
6318
331
631C
331
631E
331
6320
331
6322
331
6324
331
6326
331
6329
331
632D
331
6331
331
6333
331
6335
331
6337
331
633B
331
633D
331
633F
331
6341
331
6343
331
6347
331
6349
331
634B
331
634D
331
6351
331
6355
331
6357
331
6359
331
635B
331
635D
331
635F
331
6361
331
6363
331
6366
331
637A
331
637F
331
6386
331
638C
331
6394
331
6398
331
639C
331
6416
331
64D9
331
6501
331
6516
331
651F
331
6526
331
6B34
331
6B36
102
}
1001
AcDbDynamicBlockGUID
1000
{3B46BFE2-49EE-4D54-911C-6E39B2D2CE87}
  0
BLOCK_RECORD
  5
1DB5
330
1
100
AcDbSymbolTableRecord
100
AcDbBlockTableRecord
  2
zw$D007
340
0
102
{BLKREFS
331
227E
331
2286
331
228E
331
23AC
331
2629
331
263D
331
2641
331
2643
331
2648
331
265A
331
267A
331
2819
331
28B3
331
28B5
331
28DC
331
28E2
331
293F
331
2941
331
2943
331
2945
331
2984
331
2986
331
2C48
331
2C4A
331
2CB7
331
2CB9
331
2CDB
331
2CDD
331
2D57
331
2D59
331
2DF2
331
2DF4
331
2E3F
331
2E41
331
758F
331
7591
331
75A4
331
75A6
331
768D
331
768F
331
7691
331
7693
331
7C8A
331
7C8C
331
5B0D
331
5FBE
331
5FC6
331
5FCE
331
38B4
331
38B6
331
38C9
331
38CB
331
39C3
331
39C5
331
39C7
331
39C9
331
3FE3
331
3FE5
331
1DB3
331
60EC
331
6369
331
637D
331
6381
331
6383
331
6388
331
639A
331
63BA
331
6559
331
65F3
331
65F5
331
6614
331
661A
331
6677
331
6679
331
667B
331
667D
331
66B6
331
66B8
331
695E
331
6960
331
69CD
331
69CF
331
69F1
331
69F3
331
6A6D
331
6A6F
331
6B08
331
6B0A
331
6B55
331
6B57
102
}
  0
BLOCK_RECORD
  5
2149
330
1
100
AcDbSymbolTableRecord
100
AcDbBlockTableRecord
  2
42煤进风
340
0
102
{BLKREFS
331
2147
331
2152
331
2161
331
2163
331
2167
331
2169
331
216D
331
216F
331
2171
331
219D
331
219F
331
21A1
331
21A3
331
21A5
331
21A7
331
21A9
331
21AB
331
21AD
331
21B1
331
21B3
331
21B5
331
21B7
331
21B9
331
21BB
331
21BD
331
21BF
331
21C1
331
21C3
331
21C5
331
21C7
331
21C9
331
2211
331
23B9
331
25EB
331
2705
331
272E
331
2731
331
27F5
331
287A
331
290A
331
290C
331
2947
331
2949
331
294D
331
294F
331
2B69
331
2D47
331
2D4B
331
2D4D
331
2D4F
331
2D65
331
2D6D
331
2DA3
331
2E09
331
2E25
331
2E27
331
2F6B
331
2F79
331
2F7B
331
2F7D
331
2F7F
331
2F87
331
2FB9
331
75A0
331
7662
331
7664
331
7666
331
7668
331
766A
331
766C
331
766E
331
7688
331
76EB
331
774A
331
7785
331
7A55
331
7BE3
331
7BE5
331
7C92
331
7C94
331
5E9B
331
5E9D
331
5EA1
331
5EA3
331
5EA7
331
5EA9
331
5EAD
331
5EAF
331
5EB1
331
5EDD
331
5EDF
331
5EE1
331
5EE3
331
5EE5
331
5EE7
331
5EE9
331
5EEB
331
5EED
331
5EF1
331
5EF3
331
5EF5
331
5EF7
331
5EF9
331
5EFB
331
5EFD
331
5EFF
331
5F01
331
5F03
331
5F05
331
5F07
331
5F09
331
5F51
331
38C5
331
3998
331
399A
331
399C
331
399E
331
39A0
331
39A2
331
39A4
331
39BE
331
3A21
331
3A80
331
3ABB
331
3DAE
331
3F3C
331
3F3E
331
3FEB
331
3FED
331
60F9
331
632B
331
6445
331
646E
331
6471
331
6535
331
65BA
331
6642
331
6644
331
667F
331
6681
331
6685
331
6687
331
689B
331
6A5D
331
6A61
331
6A63
331
6A65
331
6A7B
331
6A83
331
6AB9
331
6B1F
331
6B3B
331
6B3D
331
6C46
331
6C54
331
6C56
331
6C58
331
6C5A
331
6C62
331
6C94
102
}
  0
BLOCK_RECORD
  5
2156
330
1
100
AcDbSymbolTableRecord
100
AcDbBlockTableRecord
  2
42煤回风
340
0
102
{BLKREFS
331
2154
331
2165
331
216B
331
294B
331
5E9F
331
5EA5
331
5EAB
331
6683
102
}
  0
BLOCK_RECORD
  5
3923
102
{ACAD_XDICTIONARY
360
3924
102
}
330
1
100
AcDbSymbolTableRecord
100
AcDbBlockTableRecord
  2
A$C12A72C33
340
0
102
{BLKREFS
331
75FD
331
78AC
331
3922
331
3BE9
102
}
1001
AcDbDynamicBlockGUID
1000
{7B3EC870-A1BE-48EC-96F6-02C252519883}
1001
AcDbBlockRepETag
1070
     1
1071
        7
  0
BLOCK_RECORD
  5
396A
330
1
100
AcDbSymbolTableRecord
100
AcDbBlockTableRecord
  2
659496584165
340
0
310
2800000020000000200000000100080000000000000400004600360043004600000000000000000000000000000080000080000000808000800000008000800080800000C0C0C000C0DCC000F0CAA6000020400000206000002080000020A0000020C0000020E00000400000004020000040400000406000004080000040A0
310
000040C0000040E00000600000006020000060400000606000006080000060A0000060C0000060E00000800000008020000080400000806000008080000080A0000080C0000080E00000A0000000A0200000A0400000A0600000A0800000A0A00000A0C00000A0E00000C0000000C0200000C0400000C0600000C0800000C0
310
A00000C0C00000C0E00000E0000000E0200000E0400000E0600000E0800000E0A00000E0C00000E0E00040000000400020004000400040006000400080004000A0004000C0004000E00040200000402020004020400040206000402080004020A0004020C0004020E000404000004040200040404000404060004040800040
310
40A0004040C0004040E00040600000406020004060400040606000406080004060A0004060C0004060E00040800000408020004080400040806000408080004080A0004080C0004080E00040A0000040A0200040A0400040A0600040A0800040A0A00040A0C00040A0E00040C0000040C0200040C0400040C0600040C08000
310
40C0A00040C0C00040C0E00040E0000040E0200040E0400040E0600040E0800040E0A00040E0C00040E0E00080000000800020008000400080006000800080008000A0008000C0008000E00080200000802020008020400080206000802080008020A0008020C0008020E00080400000804020008040400080406000804080
310
008040A0008040C0008040E00080600000806020008060400080606000806080008060A0008060C0008060E00080800000808020008080400080806000808080008080A0008080C0008080E00080A0000080A0200080A0400080A0600080A0800080A0A00080A0C00080A0E00080C0000080C0200080C0400080C0600080C0
310
800080C0A00080C0C00080C0E00080E0000080E0200080E0400080E0600080E0800080E0A00080E0C00080E0E000C0000000C0002000C0004000C0006000C0008000C000A000C000C000C000E000C0200000C0202000C0204000C0206000C0208000C020A000C020C000C020E000C0400000C0402000C0404000C0406000C0
310
408000C040A000C040C000C040E000C0600000C0602000C0604000C0606000C0608000C060A000C060C000C060E000C0800000C0802000C0804000C0806000C0808000C080A000C080C000C080E000C0A00000C0A02000C0A04000C0A06000C0A08000C0A0A000C0A0C000C0A0E000C0C00000C0C02000C0C04000C0C06000
310
C0C08000C0C0A000F0FBFF00A4A0A000808080000000FF0000FF000000FFFF00FF000000FF00FF00FFFF0000FFFFFF0000000000000000000000000000000000000000000000000000000000000000000000000000000000000000000000000000000000000000000000000000000000000000000040606060606060601000
310
0000000000000000000000000000000000000000000040F0F0FEFEFEB8F0600000000000000000000000000000000000000000000000000000FEFEB80000000000000000000000000000000000000000000000000000000000F0FEB80000000000000000000000000000000000000000000000000000000000F0FEB8000000
310
0000000000000000000000000000000000000000000000000000F0FEB80000000000000000000000000000000000000000000000000000000000F0FEB80000000000000000000000000000000000000000000000000000000000F0FEB80000000000000000000000000000000000000000000000000000000000F0FEB80000
310
000000000000000000000000000000000000000000000000000000F0FEB80000000000000000000000000000000000000000000000000000000000F0FEB80000000000000040B80000000000000000000000000000000000000000F0FEB80000000000000040B80000000000000000000000000000000000000000F0FEB800
310
00000000000090B80000000000000000000000000000000000000000F0FEB800000000000000F0B80000000000000000000000000000000000000000F0FEFE606060606006FEFEB80000000000000000000000000000000000000000F0FEFEF0F0F0F0F0F0FEFEB80000000000000000000000000000000000000000F0FEB8
310
00000000000000F0B80000000000000000000000000000000000000000F0FEB80000000000000040B80000000000000000000000000000000000000000F0FEB80000000000000040B80000000000000000000000000000000000000000F0FEB80000000000000040600000000000000000000000000000000000000000F0FE
310
B80000000000000000000000000000000000000000000000000000000000F0FEB80000000000000000000000000000000000000000000000000000000000F0FEB8000000000000000000000040B810000000000000000000000000000000F0FEB80000000000000000000000F0B800000000000000000000000000000000F0
310
FEB80000000000000000000090FE7000000000000000000000000000000000F0FEB800000000000000000090FEFE1000000000000000000000000000000040FEFEFE1000000000000050F0FEFEB8000000000000000000000000000040FEFEFEFEFEFEFEFEFEFEFEFEFEFEFEFE700000000000000000000000000000000000
310
0000000000000000000000000000000000000000000000000000000000000000000000000000000000000000000000000000000000000000
102
{BLKREFS
331
7637
331
7639
331
763B
331
763D
331
763F
331
7641
331
7643
331
7645
331
7647
331
7649
331
764B
331
7658
331
765A
331
76D7
331
76E4
331
76E6
331
7700
331
7AB2
331
7AB4
331
7AB6
331
7ABE
331
7AC4
331
7AD5
331
7AD7
331
7AD9
331
7AE1
331
7AE7
331
7AF8
331
7AFA
331
7AFC
331
7B04
331
7B27
331
7B30
331
7B36
331
7B3F
331
7B45
331
7B4E
331
7B54
331
7B5D
331
7B63
331
7B6C
331
7B72
331
7B7B
331
7B81
331
7B8A
331
7B90
331
7B99
331
7B9F
331
7BA8
331
7BAE
331
7BB7
331
7BC3
331
7BC5
331
7BCE
331
7BD4
331
7BDD
331
7BF0
331
7C01
331
7C03
331
7C05
331
7C0D
331
7C13
331
7C24
331
7C26
331
7C28
331
7C30
331
7C36
331
7C47
331
7C49
331
7C4B
331
7C53
331
7C59
331
7C69
331
7C6B
331
7C6D
331
7C75
331
7C80
331
7C86
331
3968
331
396F
331
3971
331
3973
331
3975
331
3977
331
3979
331
397B
331
397D
331
397F
331
3981
331
398E
331
3990
331
3A0D
331
3A1A
331
3A1C
331
3A36
331
3E0B
331
3E0D
331
3E0F
331
3E17
331
3E1D
331
3E2E
331
3E30
331
3E32
331
3E3A
331
3E40
331
3E51
331
3E53
331
3E55
331
3E5D
331
3E80
331
3E89
331
3E8F
331
3E98
331
3E9E
331
3EA7
331
3EAD
331
3EB6
331
3EBC
331
3EC5
331
3ECB
331
3ED4
331
3EDA
331
3EE3
331
3EE9
331
3EF2
331
3EF8
331
3F01
331
3F07
331
3F10
331
3F1C
331
3F1E
331
3F27
331
3F2D
331
3F36
331
3F49
331
3F5A
331
3F5C
331
3F5E
331
3F66
331
3F6C
331
3F7D
331
3F7F
331
3F81
331
3F89
331
3F8F
331
3FA0
331
3FA2
331
3FA4
331
3FAC
331
3FB2
331
3FC2
331
3FC4
331
3FC6
331
3FCE
331
3FD9
331
3FDF
102
}
  0
BLOCK_RECORD
  5
3B7F
102
{ACAD_XDICTIONARY
360
3B80
102
}
330
1
100
AcDbSymbolTableRecord
100
AcDbBlockTableRecord
  2
A$C0F3E0099
340
0
102
{BLKREFS
331
7847
331
78C5
331
78C7
331
78C9
331
78CB
331
78CD
331
78CF
331
78D1
331
78D5
331
7923
331
793D
331
793F
331
7947
331
7966
331
796A
331
7979
331
797B
331
7987
331
7996
331
79AB
331
79AF
331
79B1
331
79B8
331
79D7
331
79F8
331
7A04
331
7A26
331
7A31
331
7A47
331
3B7D
331
3C09
331
3C0B
331
3C0D
331
3C0F
331
3C11
331
3C13
331
3C15
331
3C20
331
3C75
331
3C8F
331
3C91
331
3C99
331
3CB8
331
3CC3
331
3CD2
331
3CD4
331
3CE0
331
3CEF
331
3D04
331
3D08
331
3D0A
331
3D11
331
3D30
331
3D51
331
3D5D
331
3D7F
331
3D8A
331
3DA0
102
}
  0
BLOCK_RECORD
  5
3BEF
330
1
100
AcDbSymbolTableRecord
100
AcDbBlockTableRecord
  2
临时双向风门42
340
0
310
2800000020000000200000000100080000000000000400005030C82200000000000000000000000000000000000080000080000000808000800000008000800080800000C0C0C000C0DCC000F0CAA6000020400000206000002080000020A0000020C0000020E00000400000004020000040400000406000004080000040A0
310
000040C0000040E00000600000006020000060400000606000006080000060A0000060C0000060E00000800000008020000080400000806000008080000080A0000080C0000080E00000A0000000A0200000A0400000A0600000A0800000A0A00000A0C00000A0E00000C0000000C0200000C0400000C0600000C0800000C0
310
A00000C0C00000C0E00000E0000000E0200000E0400000E0600000E0800000E0A00000E0C00000E0E00040000000400020004000400040006000400080004000A0004000C0004000E00040200000402020004020400040206000402080004020A0004020C0004020E000404000004040200040404000404060004040800040
310
40A0004040C0004040E00040600000406020004060400040606000406080004060A0004060C0004060E00040800000408020004080400040806000408080004080A0004080C0004080E00040A0000040A0200040A0400040A0600040A0800040A0A00040A0C00040A0E00040C0000040C0200040C0400040C0600040C08000
310
40C0A00040C0C00040C0E00040E0000040E0200040E0400040E0600040E0800040E0A00040E0C00040E0E00080000000800020008000400080006000800080008000A0008000C0008000E00080200000802020008020400080206000802080008020A0008020C0008020E00080400000804020008040400080406000804080
310
008040A0008040C0008040E00080600000806020008060400080606000806080008060A0008060C0008060E00080800000808020008080400080806000808080008080A0008080C0008080E00080A0000080A0200080A0400080A0600080A0800080A0A00080A0C00080A0E00080C0000080C0200080C0400080C0600080C0
310
800080C0A00080C0C00080C0E00080E0000080E0200080E0400080E0600080E0800080E0A00080E0C00080E0E000C0000000C0002000C0004000C0006000C0008000C000A000C000C000C000E000C0200000C0202000C0204000C0206000C0208000C020A000C020C000C020E000C0400000C0402000C0404000C0406000C0
310
408000C040A000C040C000C040E000C0600000C0602000C0604000C0606000C0608000C060A000C060C000C060E000C0800000C0802000C0804000C0806000C0808000C080A000C080C000C080E000C0A00000C0A02000C0A04000C0A06000C0A08000C0A0A000C0A0C000C0A0E000C0C00000C0C02000C0C04000C0C06000
310
C0C08000C0C0A000F0FBFF00A4A0A000808080000000FF0000FF000000FFFF00FF000000FF00FF00FFFF0000FFFFFF000000000000000000000000000000000000000000000000000000000000000000000000000000000000000000FEFEFEFEFEFEFEFEFE0000000000000000000000000000000000000000FEFEFE000000
310
000000000000FEFEFE000000000000000000000000000000FEFE000000000000000000000000000000FEFE000000000000000000000000FE00000000000000000000000000000000000000FE00000000000000000000FE000000000000000000000000000000000000000000FE0000000000000000FE000000000000000000
310
0000000000000000000000000000FEFE0000000000FE00000000000000000000000000000000000000000000000000FE00000000FE000000000000000000000000000000000000000000000000000000FE000000FEFEFEFEFEFEFEFEFEFEFEFEFEFEFEFEFEFEFEFEFEFEFEFEFEFEFEFEFE0000000000000000000000000000
310
00000000000000000000000000000000000000000000000000000000000000000000000000000000000000000000000000000000000000000000000000000000000000000000000000000000000000000000000000000000000000000000000000000000000000000000000000000000000000000000000000000000000000
310
00000000000000000000000000000000000000000000000000000000000000000000000000000000000000000000000000000000000000000000000000000000000000000000000000000000000000000000000000000000000000000000000000000000000000000000000000000000000000000000000000000000000000
310
00000000000000000000000000000000000000000000000000000000000000000000000000000000000000000000000000000000000000000000000000000000000000000000000000000000000000000000000000000000FEFEFEFEFEFEFEFEFEFEFEFEFEFEFEFEFEFEFEFEFEFEFEFEFEFEFEFE000000FE00000000000000
310
0000000000000000000000000000000000000000FE00000000FE00000000000000000000000000000000000000000000000000FE0000000000FE00000000000000000000000000000000000000000000000000FE000000000000FEFE000000000000000000000000000000000000000000FEFE000000000000000000FE0000
310
0000000000000000000000000000000000FE000000000000000000000000FEFE000000000000000000000000000000FEFE000000000000000000000000000000FEFE0000000000000000000000FEFE00000000000000000000000000000000000000FEFEFEFEFEFEFEFEFEFEFE000000000000000000000000000000000000
310
0000000000000000000000000000000000000000000000000000000000000000000000000000000000000000000000000000000000000000
102
{BLKREFS
331
78B1
331
3BEE
102
}
1001
AcDbDynamicBlockGUID
1000
{9933A305-A354-4197-B92A-3C4B7C38CCA1}
  0
BLOCK_RECORD
  5
3C19
102
{ACAD_XDICTIONARY
360
3C1A
102
}
330
1
100
AcDbSymbolTableRecord
100
AcDbBlockTableRecord
  2
A$C428B26A6
340
0
102
{BLKREFS
331
78D3
331
3C17
102
}
  0
BLOCK_RECORD
  5
3C24
102
{ACAD_XDICTIONARY
360
3C25
102
}
330
1
100
AcDbSymbolTableRecord
100
AcDbBlockTableRecord
  2
A$C154754DE
340
0
102
{BLKREFS
331
78D7
331
3C22
102
}
  0
BLOCK_RECORD
  5
3CBC
102
{ACAD_XDICTIONARY
360
3CBD
102
}
330
1
100
AcDbSymbolTableRecord
100
AcDbBlockTableRecord
  2
A$C644366BB
340
0
102
{BLKREFS
331
7968
331
3CBA
102
}
  0
BLOCK_RECORD
  5
28BA
330
1
100
AcDbSymbolTableRecord
100
AcDbBlockTableRecord
  2
永久双向风门42
340
0
310
280000002000000020000000010008000000000000040000F0300C8F7319DB4E000000000000000000000000000080000080000000808000800000008000800080800000C0C0C000C0DCC000F0CAA6000020400000206000002080000020A0000020C0000020E00000400000004020000040400000406000004080000040A0
310
000040C0000040E00000600000006020000060400000606000006080000060A0000060C0000060E00000800000008020000080400000806000008080000080A0000080C0000080E00000A0000000A0200000A0400000A0600000A0800000A0A00000A0C00000A0E00000C0000000C0200000C0400000C0600000C0800000C0
310
A00000C0C00000C0E00000E0000000E0200000E0400000E0600000E0800000E0A00000E0C00000E0E00040000000400020004000400040006000400080004000A0004000C0004000E00040200000402020004020400040206000402080004020A0004020C0004020E000404000004040200040404000404060004040800040
310
40A0004040C0004040E00040600000406020004060400040606000406080004060A0004060C0004060E00040800000408020004080400040806000408080004080A0004080C0004080E00040A0000040A0200040A0400040A0600040A0800040A0A00040A0C00040A0E00040C0000040C0200040C0400040C0600040C08000
310
40C0A00040C0C00040C0E00040E0000040E0200040E0400040E0600040E0800040E0A00040E0C00040E0E00080000000800020008000400080006000800080008000A0008000C0008000E00080200000802020008020400080206000802080008020A0008020C0008020E00080400000804020008040400080406000804080
310
008040A0008040C0008040E00080600000806020008060400080606000806080008060A0008060C0008060E00080800000808020008080400080806000808080008080A0008080C0008080E00080A0000080A0200080A0400080A0600080A0800080A0A00080A0C00080A0E00080C0000080C0200080C0400080C0600080C0
310
800080C0A00080C0C00080C0E00080E0000080E0200080E0400080E0600080E0800080E0A00080E0C00080E0E000C0000000C0002000C0004000C0006000C0008000C000A000C000C000C000E000C0200000C0202000C0204000C0206000C0208000C020A000C020C000C020E000C0400000C0402000C0404000C0406000C0
310
408000C040A000C040C000C040E000C0600000C0602000C0604000C0606000C0608000C060A000C060C000C060E000C0800000C0802000C0804000C0806000C0808000C080A000C080C000C080E000C0A00000C0A02000C0A04000C0A06000C0A08000C0A0A000C0A0C000C0A0E000C0C00000C0C02000C0C04000C0C06000
310
C0C08000C0C0A000F0FBFF00A4A0A000808080000000FF0000FF000000FFFF00FF000000FF00FF00FFFF0000FFFFFF000000000000000000000000000000000000000000000000000000000000000000000000000000000000000000FEFEFEFEFEFEFEFEFE0000000000000000000000000000000000000000FEFEFE000000
310
000000000000FEFEFE000000000000000000000000000000FEFE000000000000000000000000000000FEFE000000000000000000000000FE00000000000000000000000000000000000000FE00000000000000000000FE000000000000000000000000000000000000000000FE0000000000000000FE000000000000000000
310
0000000000000000000000000000FEFE0000000000FE00000000000000000000000000000000000000000000000000FE00000000FE000000000000000000000000000000000000000000000000000000FE000000FEFEFEFEFEFEFEFEFEFEFEFEFEFEFEFEFEFEFEFEFEFEFEFEFEFEFEFEFE0000000000000000000000000000
310
00000000000000000000000000000000000000000000000000000000000000000000000000000000000000000000000000000000000000000000000000000000000000000000000000000000000000000000000000000000000000000000000000000000000000000000000000000000000000000000000000000000000000
310
0000000000000000000000000000000000000000000000FEFEFEFEFEFEFEFEFEFEFEFEFEFEFEFEFEFEFEFEFEFEFEFEFEFEFEFE00000000000000000000000000000000000000000000000000000000000000000000000000000000000000000000000000000000000000000000000000000000000000000000000000000000
310
00000000000000000000000000000000000000000000000000000000000000000000000000000000000000000000000000000000000000000000000000000000000000000000000000000000000000000000000000000000FEFEFEFEFEFEFEFEFEFEFEFEFEFEFEFEFEFEFEFEFEFEFEFEFEFEFEFE000000FE00000000000000
310
0000000000000000000000000000000000000000FE00000000FE00000000000000000000000000000000000000000000000000FE0000000000FE00000000000000000000000000000000000000000000000000FE000000000000FEFE000000000000000000000000000000000000000000FEFE000000000000000000FE0000
310
0000000000000000000000000000000000FE000000000000000000000000FEFE000000000000000000000000000000FEFE000000000000000000000000000000FEFE0000000000000000000000FEFE00000000000000000000000000000000000000FEFEFEFEFEFEFEFEFEFEFE000000000000000000000000000000000000
310
0000000000000000000000000000000000000000000000000000000000000000000000000000000000000000000000000000000000000000
102
{BLKREFS
331
28B8
331
28C2
331
2D17
331
2D19
331
78B2
331
3BF6
331
65F8
331
65FA
331
6A2D
331
6A2F
102
}
1001
AcDbDynamicBlockGUID
1000
{058168D7-6E07-48B5-908A-E4A278EA21D3}
  0
BLOCK_RECORD
  5
295B
330
1
100
AcDbSymbolTableRecord
100
AcDbBlockTableRecord
  2
zw$2F93
340
0
102
{BLKREFS
331
2959
331
2962
331
6691
331
6694
102
}
  0
BLOCK_RECORD
  5
2B93
102
{ACAD_XDICTIONARY
360
2B94
102
}
330
1
100
AcDbSymbolTableRecord
100
AcDbBlockTableRecord
  2
W对旋式轴流通风机
340
0
102
{BLKREFS
331
2B92
331
78AD
331
3BEA
331
68C4
102
}
1001
AcDbDynamicBlockGUID
1000
{04DF98E7-FD9B-4BE2-B299-11C088D2B98F}
1001
AcDbBlockRepETag
1070
     1
1071
       16
  0
BLOCK_RECORD
  5
2C1E
330
1
100
AcDbSymbolTableRecord
100
AcDbBlockTableRecord
  2
zw$78B2
340
0
102
{BLKREFS
331
2C1D
331
693A
102
}
1001
AcDbDynamicBlockGUID
1000
{3203A4E1-2083-43D1-B992-E8084843D9DE}
  0
BLOCK_RECORD
  5
2E91
330
1
100
AcDbSymbolTableRecord
100
AcDbBlockTableRecord
  2
W指北针
340
0
102
{BLKREFS
331
2E90
331
6BA6
102
}
  0
ENDTAB
  0
ENDSEC
  0
SECTION
  2
BLOCKS
  0
BLOCK
  5
20
330
1F
100
AcDbEntity
  8
0
100
AcDbBlockBegin
  2
*Model_Space
 70
     0
 10
0.0
 20
0.0
 30
0.0
  3
*Model_Space
  1

  0
ENDBLK
  5
21
330
1F
100
AcDbEntity
  8
0
100
AcDbBlockEnd
  0
BLOCK
  5
194
330
192
100
AcDbEntity
 67
     1
  8
0
100
AcDbBlockBegin
  2
*Paper_Space
 70
     0
 10
0.0
 20
0.0
 30
0.0
  3
*Paper_Space
  1

  0
ENDBLK
  5
195
330
192
100
AcDbEntity
 67
     1
  8
0
100
AcDbBlockEnd
  0
BLOCK
  5
199
330
197
100
AcDbEntity
  8
0
100
AcDbBlockBegin
  2
*Paper_Space0
 70
     0
 10
0.0
 20
0.0
 30
0.0
  3
*Paper_Space0
  1

  0
ENDBLK
  5
19A
330
197
100
AcDbEntity
  8
0
100
AcDbBlockEnd
  0
BLOCK
  5
93C
330
939
100
AcDbEntity
  8
0
 62
     0
100
AcDbBlockBegin
  2
42煤调节风窗
 70
     0
 10
0.0
 20
0.0
 30
0.0
  3
42煤调节风窗
  1

  0
LINE
  5
93D
330
939
100
AcDbEntity
  8
0
 62
     4
 48
1.000000000000000E+16
100
AcDbLine
 10
0.673949420275676
 20
2.925254292509634
 30
0.0
 11
0.6721442033413041
 21
13.72811469586304
 31
0.0
  0
LINE
  5
93E
330
939
100
AcDbEntity
  8
0
 62
     4
 48
1.000000000000000E+16
100
AcDbLine
 10
4.729884382173622
 20
2.92525429251691
 30
0.0
 11
4.72807916523925
 21
13.72811469587032
 31
0.0
  0
LINE
  5
93F
330
939
100
AcDbEntity
  8
0
 62
     4
 48
1.000000000000000E+16
100
AcDbLine
 10
0.6735745680198307
 20
5.168462024965265
 30
0.0
 11
4.729509529917777
 21
5.168462025372718
 31
0.0
  0
LINE
  5
940
330
939
100
AcDbEntity
  8
0
 62
     4
 48
1.000000000000000E+16
100
AcDbLine
 10
4.729400621912645
 20
5.820194212763453
 30
0.0
 11
3.688555347163855
 21
6.553193584470136
 31
0.0
  0
LINE
  5
941
330
939
100
AcDbEntity
  8
0
 62
     4
 48
1.000000000000000E+16
100
AcDbLine
 10
3.688555347163855
 20
6.553193584470136
 30
0.0
 11
0.673949420279314
 21
6.553193584470136
 31
0.0
  0
LINE
  5
942
330
939
100
AcDbEntity
  8
0
 62
     4
 48
1.000000000000000E+16
100
AcDbLine
 10
0.673949420279314
 20
6.553193584470136
 30
0.0
 11
1.717083672214357
 21
5.818582235457142
 31
0.0
  0
LINE
  5
943
330
939
100
AcDbEntity
  8
0
 62
     4
 48
1.000000000000000E+16
100
AcDbLine
 10
1.717083672214357
 20
5.818582235457142
 30
0.0
 11
4.729400621912645
 21
5.820194212647038
 31
0.0
  0
LINE
  5
944
330
939
100
AcDbEntity
  8
0
 62
     4
 48
1.000000000000000E+16
100
AcDbLine
 10
4.730006870373472
 20
7.247391935568884
 30
0.0
 11
3.689161595624682
 21
7.980391307275567
 31
0.0
  0
LINE
  5
945
330
939
100
AcDbEntity
  8
0
 62
     4
 48
1.000000000000000E+16
100
AcDbLine
 10
3.689161595624682
 20
7.980391307275567
 30
0.0
 11
0.6745556687401404
 21
7.980391307275567
 31
0.0
  0
LINE
  5
946
330
939
100
AcDbEntity
  8
0
 62
     4
 48
1.000000000000000E+16
100
AcDbLine
 10
0.6745556687401404
 20
7.980391307275567
 30
0.0
 11
1.717689920675184
 21
7.245779958262573
 31
0.0
  0
LINE
  5
947
330
939
100
AcDbEntity
  8
0
 62
     4
 48
1.000000000000000E+16
100
AcDbLine
 10
1.717689920675184
 20
7.245779958262573
 30
0.0
 11
4.730006870373472
 21
7.247391935452469
 31
0.0
  0
LINE
  5
948
330
939
100
AcDbEntity
  8
0
 62
     4
 48
1.000000000000000E+16
100
AcDbLine
 10
4.728923721830142
 20
8.674081152763392
 30
0.0
 11
3.688078447081352
 21
9.407080524470075
 31
0.0
  0
LINE
  5
949
330
939
100
AcDbEntity
  8
0
 62
     4
 48
1.000000000000000E+16
100
AcDbLine
 10
3.688078447081352
 20
9.407080524470075
 30
0.0
 11
0.6734725201968104
 21
9.407080524470075
 31
0.0
  0
LINE
  5
94A
330
939
100
AcDbEntity
  8
0
 62
     4
 48
1.000000000000000E+16
100
AcDbLine
 10
0.6734725201968104
 20
9.407080524470075
 30
0.0
 11
1.716606772131854
 21
8.672469175457081
 31
0.0
  0
LINE
  5
94B
330
939
100
AcDbEntity
  8
0
 62
     4
 48
1.000000000000000E+16
100
AcDbLine
 10
1.716606772131854
 20
8.672469175457081
 30
0.0
 11
4.728923721830142
 21
8.674081152646976
 31
0.0
  0
LINE
  5
94C
330
939
100
AcDbEntity
  8
0
 62
     4
 48
1.000000000000000E+16
100
AcDbLine
 10
4.735155235424826
 20
10.10178738120885
 30
0.0
 11
3.694309960676037
 21
10.83478675291553
 31
0.0
  0
LINE
  5
94D
330
939
100
AcDbEntity
  8
0
 62
     4
 48
1.000000000000000E+16
100
AcDbLine
 10
3.694309960676037
 20
10.83478675291553
 30
0.0
 11
0.6797040337914951
 21
10.83478675291553
 31
0.0
  0
LINE
  5
94E
330
939
100
AcDbEntity
  8
0
 62
     4
 48
1.000000000000000E+16
100
AcDbLine
 10
0.6797040337914951
 20
10.83478675291553
 30
0.0
 11
1.722838285726538
 21
10.10017540390254
 31
0.0
  0
LINE
  5
94F
330
939
100
AcDbEntity
  8
0
 62
     4
 48
1.000000000000000E+16
100
AcDbLine
 10
1.722838285726538
 20
10.10017540390254
 30
0.0
 11
4.735155235424826
 21
10.10178738109243
 31
0.0
  0
LINE
  5
950
330
939
100
AcDbEntity
  8
0
 62
     4
 48
1.000000000000000E+16
100
AcDbLine
 10
0.6724839304170019
 20
11.69510464365157
 30
0.0
 11
4.728418892314948
 21
11.69510464405903
 31
0.0
  0
ENDBLK
  5
951
330
939
100
AcDbEntity
  8
0
 62
     0
100
AcDbBlockEnd
  0
BLOCK
  5
D28
330
D25
100
AcDbEntity
  8
0
 62
     0
100
AcDbBlockBegin
  2
A$C68FC7CD3
 70
     0
 10
0.0
 20
0.0
 30
0.0
  3
A$C68FC7CD3
  1

  0
ENDBLK
  5
D2B
330
D25
100
AcDbEntity
  8
0
 62
     0
100
AcDbBlockEnd
  0
BLOCK
  5
F36
330
F33
100
AcDbEntity
  8
0
 62
     0
100
AcDbBlockBegin
  2
42煤回风方向1
 70
     0
 10
0.0
 20
0.0
 30
0.0
  3
42煤回风方向1
  1

  0
ENDBLK
  5
F3A
330
F33
100
AcDbEntity
  8
0
 62
     0
100
AcDbBlockEnd
  0
BLOCK
  5
15B0
330
15AD
100
AcDbEntity
  8
0
 62
     0
100
AcDbBlockBegin
  2
A$C13D54782
 70
     0
 10
0.0
 20
0.0
 30
0.0
  3
A$C13D54782
  1

  0
ENDBLK
  5
15B6
330
15AD
100
AcDbEntity
  8
0
 62
     0
100
AcDbBlockEnd
  0
BLOCK
  5
17D6
330
17D3
100
AcDbEntity
  8
0
 62
     0
100
AcDbBlockBegin
  2
$AUDIT_BAD_BLOCK_RECORD19
 70
     0
 10
0.0
 20
0.0
 30
0.0
  3
$AUDIT_BAD_BLOCK_RECORD19
  1

  0
LINE
  5
17DA
330
17D3
100
AcDbEntity
  8
0
  6
DASH
 62
     3
 48
1.000000000000000E+16
100
AcDbLine
 10
7.213923501135343
 20
8.687352235520627
 30
0.0
 11
2.854517343323879
 21
3.126345498831129
 31
0.0
1001
AcDbBlockRepETag
1070
     1
1071
        5
1005
17DA
  0
LINE
  5
17DB
330
17D3
100
AcDbEntity
  8
0
  6
DASH
 62
     3
 48
1.000000000000000E+16
100
AcDbLine
 10
2.854517343323879
 20
3.126345498831129
 30
0.0
 11
7.213923501135343
 21
-2.432653964405512
 31
0.0
1001
AcDbBlockRepETag
1070
     1
1071
        6
1005
17DB
  0
HATCH
  5
17DC
330
17D3
100
AcDbEntity
  8
0
  6
DASH
 62
     3
 48
1.000000000000000E+16
100
AcDbHatch
 10
0.0
 20
0.0
 30
0.0
210
0.0
220
0.0
230
1.0
  2
SOLID
 70
     1
 71
     0
 91
        2
 92
        7
 72
     0
 73
     1
 93
        4
 10
2.854517343323879
 20
3.126345498831129
 10
7.213923501135344
 20
8.687352235520627
 10
-15.7574781604991
 20
3.127349135557556
 10
-15.7523816851725
 20
3.126115583550929
 97
        0
 92
        7
 72
     0
 73
     1
 93
        3
 10
7.213923501135343
 20
-2.432653964405512
 10
2.854517343323879
 20
3.126345498831128
 10
-15.7523816851725
 20
3.126115583550929
 97
        0
 75
     0
 76
     1
 47
0.0524821823897721
 98
        2
 10
-4.02734544975101
 20
4.092804580457595
 10
-3.65967959180125
 20
1.836080628312629
1001
ACAD
1010
0.0
1020
0.0
1030
0.0
1001
AcDbBlockRepETag
1070
     1
1071
        7
1005
17DC
  0
ENDBLK
  5
17DD
330
17D3
100
AcDbEntity
  8
0
 62
     0
100
AcDbBlockEnd
  0
BLOCK
  5
1D5A
330
1D59
100
AcDbEntity
 48
1.000000000000000E+16
100
AcDbBlockBegin
  2
42上煤临时密闭
 70
     0
 10
0.0
 20
0.0
 30
0.0
  3
42上煤临时密闭
  1

  0
LINE
  5
1D5B
330
1D59
100
AcDbEntity
  8
0
 62
     4
 48
1.000000000000000E+16
100
AcDbLine
 10
-3.320137314478415
 20
0.0000061439095589
 30
0.0
 11
16.60068657239208
 21
-0.0000012287819118
 31
0.0
  0
ENDBLK
  5
1D5C
330
1D59
100
AcDbEntity
 48
1.000000000000000E+16
100
AcDbBlockEnd
  0
BLOCK
  5
1DB6
330
1DB5
100
AcDbEntity
 48
1.000000000000000E+16
100
AcDbBlockBegin
  2
zw$D007
 70
     0
 10
0.0
 20
0.0
 30
0.0
  3
zw$D007
  1

  0
ENDBLK
  5
1DBA
330
1DB5
100
AcDbEntity
 48
1.000000000000000E+16
100
AcDbBlockEnd
  0
BLOCK
  5
214A
330
2149
100
AcDbEntity
 48
1.000000000000000E+16
100
AcDbBlockBegin
  2
42煤进风
 70
     0
 10
0.0
 20
0.0
 30
0.0
  3
42煤进风
  1

  0
ENDBLK
  5
2151
330
2149
100
AcDbEntity
 48
1.000000000000000E+16
100
AcDbBlockEnd
  0
BLOCK
  5
2157
330
2156
100
AcDbEntity
 48
1.000000000000000E+16
100
AcDbBlockBegin
  2
42煤回风
 70
     0
 10
0.0
 20
0.0
 30
0.0
  3
42煤回风
  1

  0
ENDBLK
  5
2160
330
2156
100
AcDbEntity
 48
1.000000000000000E+16
100
AcDbBlockEnd
  0
BLOCK
  5
3926
330
3923
100
AcDbEntity
  8
0
 62
     0
100
AcDbBlockBegin
  2
A$C12A72C33
 70
     0
 10
0.0
 20
0.0
 30
0.0
  3
A$C12A72C33
  1

  0
ENDBLK
  5
392E
330
3923
100
AcDbEntity
  8
0
 62
     0
100
AcDbBlockEnd
  0
BLOCK
  5
396B
330
396A
100
AcDbEntity
 62
     1
 48
1.000000000000000E+32
370
     9
100
AcDbBlockBegin
  2
659496584165
 70
     0
 10
0.0
 20
0.0
 30
0.0
  3
659496584165
  1

  0
ENDBLK
  5
396E
330
396A
100
AcDbEntity
 62
     1
 48
1.000000000000000E+32
370
     9
100
AcDbBlockEnd
  0
BLOCK
  5
3B82
330
3B7F
100
AcDbEntity
  8
0
 62
     2
 48
1.000000000000000E+16
100
AcDbBlockBegin
  2
A$C0F3E0099
 70
     0
 10
0.0
 20
0.0
 30
0.0
  3
A$C0F3E0099
  1

  0
ENDBLK
  5
3B85
330
3B7F
100
AcDbEntity
  8
0
 62
     2
 48
1.000000000000000E+16
100
AcDbBlockEnd
  0
BLOCK
  5
3BF0
330
3BEF
100
AcDbEntity
 62
     1
 48
1.000000000000000E+16
370
    -3
100
AcDbBlockBegin
  2
临时双向风门42
 70
     0
 10
0.0
 20
0.0
 30
0.0
  3
临时双向风门42
  1

  4
gbt38110-2019
  0
ENDBLK
  5
3BF5
330
3BEF
100
AcDbEntity
 62
     1
 48
1.000000000000000E+16
370
    -3
100
AcDbBlockEnd
  0
BLOCK
  5
3C1C
330
3C19
100
AcDbEntity
  8
0
 62
     2
 48
1.000000000000000E+16
100
AcDbBlockBegin
  2
A$C428B26A6
 70
     0
 10
0.0
 20
0.0
 30
0.0
  3
A$C428B26A6
  1

  0
ENDBLK
  5
3C1F
330
3C19
100
AcDbEntity
  8
0
 62
     2
 48
1.000000000000000E+16
100
AcDbBlockEnd
  0
BLOCK
  5
3C27
330
3C24
100
AcDbEntity
  8
0
 62
     2
 48
1.000000000000000E+16
100
AcDbBlockBegin
  2
A$C154754DE
 70
     0
 10
0.0
 20
0.0
 30
0.0
  3
A$C154754DE
  1

  0
ENDBLK
  5
3C2A
330
3C24
100
AcDbEntity
  8
0
 62
     2
 48
1.000000000000000E+16
100
AcDbBlockEnd
  0
BLOCK
  5
3CBF
330
3CBC
100
AcDbEntity
  8
0
 62
     2
 48
1.000000000000000E+16
100
AcDbBlockBegin
  2
A$C644366BB
 70
     0
 10
0.0
 20
0.0
 30
0.0
  3
A$C644366BB
  1

  0
ENDBLK
  5
3CC2
330
3CBC
100
AcDbEntity
  8
0
 62
     2
 48
1.000000000000000E+16
100
AcDbBlockEnd
  0
BLOCK
  5
28BB
330
28BA
100
AcDbEntity
 62
     1
 48
1.000000000000000E+16
370
    -3
100
AcDbBlockBegin
  2
永久双向风门42
 70
     0
 10
0.0
 20
0.0
 30
0.0
  3
永久双向风门42
  1

  4
gbt38110-2019
  0
ENDBLK
  5
28C1
330
28BA
100
AcDbEntity
 62
     1
 48
1.000000000000000E+16
370
    -3
100
AcDbBlockEnd
  0
BLOCK
  5
295C
330
295B
100
AcDbEntity
 48
1.000000000000000E+16
100
AcDbBlockBegin
  2
zw$2F93
 70
     0
 10
0.0
 20
0.0
 30
0.0
  3
zw$2F93
  1

  0
ENDBLK
  5
2960
330
295B
100
AcDbEntity
 48
1.000000000000000E+16
100
AcDbBlockEnd
  0
BLOCK
  5
2B96
330
2B93
100
AcDbEntity
  8
0
 62
     5
100
AcDbBlockBegin
  2
W对旋式轴流通风机
 70
     0
 10
0.0
 20
0.0
 30
0.0
  3
W对旋式轴流通风机
  1

  0
ENDBLK
  5
2BA7
330
2B93
100
AcDbEntity
  8
0
 62
     5
100
AcDbBlockEnd
  0
BLOCK
  5
2C1F
330
2C1E
100
AcDbEntity
  8
0
  6
0a26剥蚀边界
100
AcDbBlockBegin
  2
zw$78B2
 70
     0
 10
0.0
 20
0.0
 30
0.0
  3
zw$78B2
  1

  0
HATCH
  5
2C20
102
{ACAD_XDICTIONARY
360
7C9F
102
}
330
2C1E
100
AcDbEntity
  8
0
370
     0
100
AcDbHatch
 10
0.0
 20
0.0
 30
0.0
210
0.0
220
0.0
230
1.0
  2
SOLID
 70
     1
 71
     0
 91
        1
 92
        7
 72
     1
 73
     1
 93
       19
 10
-2.121320343559546
 20
-7.9449015729042
 42
0.0
 10
0.5303300858877265
 20
-5.293251143457155
 42
0.0
 10
3.181980515340001
 20
-7.944901572904427
 42
0.0
 10
10.24416083189044
 20
-0.8827212563512603
 42
0.0482480207399435
 10
7.627500259628504
 20
0.7432588584965743
 42
0.0
 10
3.18198051534182
 20
-3.702260885786699
 42
0.0
 10
2.651650429452274
 20
-3.171930799892834
 42
0.0
 10
6.903117822520471
 20
1.079536593175816
 42
0.0530433430143735
 10
3.67276358890831
 20
2.091823046677973
 42
0.0
 10
0.5303300858877265
 20
-1.0506104563392
 42
0.0
 10
0.0
 20
-0.5202803704453345
 42
0.0
 10
2.766669564046424
 20
2.246389193599497
 42
0.0660305455341636
 10
-1.44079297587541
 20
2.281567340798574
 42
0.0
 10
-4.242640687117727
 20
-0.5202803704451071
 42
0.0
 10
-1.590990257671364
 20
-3.171930799892606
 42
0.0
 10
-2.121320343559546
 20
-3.702260885786472
 42
0.0
 10
-5.303300858894999
 20
-0.5202803704453345
 42
0.0
 10
-2.711417831019389
 20
2.07160265744028
 42
0.1125725483798627
 10
-9.183500660113622
 20
-0.882721256349896
 42
0.0
 97
        0
 75
     1
 76
     1
 47
0.0
 98
        1
 10
-6.551465501202528
 20
-2.256121443962456
1001
ACAD
1010
0.0
1020
0.0
1030
0.0
  0
HATCH
  5
2C21
330
2C1E
100
AcDbEntity
  8
0
 62
   242
100
AcDbHatch
 10
0.0
 20
0.0
 30
0.0
210
0.0
220
0.0
230
1.0
  2
SOLID
 70
     1
 71
     0
 91
        4
 92
        7
 72
     1
 73
     1
 93
        5
 10
-9.545941546018639
 20
-0.5202803704451071
 42
0.0
 10
-9.183500660113622
 20
-0.882721256349896
 42
-0.1125725483798627
 10
-2.711417831007111
 20
2.071602657442781
 42
0.0
 10
0.0
 20
4.783020488448755
 42
0.0
 10
-2.121320343559546
 20
6.904340832013986
 42
0.0
 97
        0
 92
        7
 72
     1
 73
     1
 93
        4
 10
2.766669564046424
 20
2.24638919359927
 42
0.0
 10
5.303300858900001
 20
4.78302048844921
 42
0.0
 10
3.18198051534091
 20
6.904340832013758
 42
0.0
 10
-1.44079297587541
 20
2.281567340798574
 42
-0.0660305455341636
 97
        0
 92
        7
 72
     1
 73
     1
 93
        4
 10
6.903117822520471
 20
1.079536593175589
 42
0.0
 10
7.954951288346819
 20
2.131370059001937
 42
0.0
 10
5.833630944787728
 20
4.252690402554662
 42
0.0
 10
3.67276358890831
 20
2.091823046678427
 42
-0.0530433430143735
 97
        0
 92
        7
 72
     1
 73
     1
 93
        4
 10
10.60660171780091
 20
-0.5202803704453345
 42
0.0
 10
8.485281374240912
 20
1.601039973107617
 42
0.0
 10
7.627500259628504
 20
0.7432588584965743
 42
-0.0482480207399435
 10
10.24416083189226
 20
-0.8827212563528519
 42
0.0
 97
        0
 75
     1
 76
     1
 47
0.0
 98
        4
 10
-4.11737853394743
 20
3.501430420890301
 10
2.48274189649237
 20
3.361002326625339
 10
5.291303781786155
 20
2.705671220056274
 10
8.661578044138877
 20
0.880105994616315
1001
ACAD
1010
0.0
1020
0.0
1030
0.0
  0
MTEXT
  5
2C22
330
2C1E
100
AcDbEntity
  8
0
 62
     0
100
AcDbMText
 10
-11.80473751812906
 20
-10.44527352684554
 30
0.0
 40
3.0
 41
28.4148120833385
 71
     1
 72
     1
  1
{\fSimHei|b1|i0|c134|p2;国家能源集团}
  7
黑体
 73
     1
 44
1.0
1001
ACAD
1000
MTEXTBEGIN
1070
    73
1070
     1
1070
    44
1040
1.0
1070
    74
1070
     0
1000
MTEXTEND
1000
ACAD_MTEXT_DEFINED_HEIGHT_BEGIN
1070
    46
1040
5.549020541527369
1000
ACAD_MTEXT_DEFINED_HEIGHT_END
  0
MTEXT
  5
2C23
330
2C1E
100
AcDbEntity
  8
0
 62
     0
100
AcDbMText
 10
-9.317245551237192
 20
-15.95841678038914
 30
0.0
 40
2.399999999999999
 41
22.77011877385375
 71
     1
 72
     1
  1
{\fSimHei|b1|i0|c134|p2;\W1.2;CHN ENERGY}
  7
黑体
 73
     1
 44
1.0
1001
ACAD
1000
MTEXTBEGIN
1070
    73
1070
     1
1070
    44
1040
1.0
1070
    74
1070
     0
1000
MTEXTEND
1000
ACAD_MTEXT_DEFINED_HEIGHT_BEGIN
1070
    46
1040
3.348546878507903
1000
ACAD_MTEXT_DEFINED_HEIGHT_END
  0
ENDBLK
  5
2C24
330
2C1E
100
AcDbEntity
  8
0
  6
0a26剥蚀边界
100
AcDbBlockEnd
  0
BLOCK
  5
2E92
330
2E91
100
AcDbEntity
  8
经纬网
100
AcDbBlockBegin
  2
W指北针
 70
     0
 10
0.0
 20
0.0
 30
0.0
  3
W指北针
  1

  0
LWPOLYLINE
  5
2E93
330
2E91
100
AcDbEntity
  8
经纬网
100
AcDbPolyline
 90
        2
 70
     0
 43
0.15
 10
-3.862818884197622
 20
11.36127766879508
 42
6.047727933567202
 10
3.862818884197622
 20
11.36127766879508
  0
LWPOLYLINE
  5
2E94
330
2E91
100
AcDbEntity
  8
经纬网
100
AcDbPolyline
 90
        2
 70
     0
 43
0.15
 10
-3.647035091184079
 20
13.51662439532811
 42
7.54492997951256
 10
3.647035091184079
 20
13.51662439532811
  0
LWPOLYLINE
  5
2E95
330
2E91
100
AcDbEntity
  8
经纬网
100
AcDbPolyline
 90
        2
 70
     0
 43
0.15
 10
0.0
 20
50.0
 10
-6.037496098782867
 20
-10.37496098683914
  0
LWPOLYLINE
  5
2E96
330
2E91
100
AcDbEntity
  8
经纬网
100
AcDbPolyline
 90
        2
 70
     0
 43
0.15
 10
0.0
 20
50.0
 10
6.037262627389281
 20
-10.37262627540622
  0
LWPOLYLINE
  5
2E97
330
2E91
100
AcDbEntity
  8
经纬网
100
AcDbPolyline
 90
        2
 70
     0
 43
0.15
 10
8.0
 20
-30.0
 10
3.607200142927467
 20
-13.52700053405715
  0
LWPOLYLINE
  5
2E98
330
2E91
100
AcDbEntity
  8
经纬网
100
AcDbPolyline
 90
        2
 70
     0
 43
0.15
 10
-3.754322791006416
 20
12.44608614704339
 42
6.77780989101401
 10
3.754322791006416
 20
12.44608614704339
  0
LWPOLYLINE
  5
2E99
330
2E91
100
AcDbEntity
  8
经纬网
100
AcDbPolyline
 90
        2
 70
     0
 43
0.15
 10
-7.593198624439537
 20
-25.93198623944772
 10
-6.333251837641
 20
-23.74969439039706
  0
LWPOLYLINE
  5
2E9A
330
2E91
100
AcDbEntity
  8
经纬网
100
AcDbPolyline
 90
        2
 70
     0
 43
0.15
 10
-7.351300669368356
 20
-23.51300669152988
 10
-5.342146606650203
 20
-20.03304977511289
  0
LWPOLYLINE
  5
2E9B
330
2E91
100
AcDbEntity
  8
经纬网
100
AcDbPolyline
 90
        2
 70
     0
 43
0.15
 10
-7.109402714762836
 20
-21.09402714355383
 10
-4.351041375659406
 20
-16.31640515982872
  0
LWPOLYLINE
  5
2E9C
330
2E91
100
AcDbEntity
  8
经纬网
100
AcDbPolyline
 90
        2
 70
     0
 43
0.15
 10
-6.867504759691655
 20
-18.67504759563599
 10
-3.855682116001844
 20
-13.45841775409644
  0
LWPOLYLINE
  5
2E9D
330
2E91
100
AcDbEntity
  8
经纬网
100
AcDbPolyline
 90
        2
 70
     0
 43
0.15
 10
-6.625606805086135
 20
-16.25606804771814
 10
-4.827144155744463
 20
-13.14103936339961
  0
LWPOLYLINE
  5
2E9E
330
2E91
100
AcDbEntity
  8
经纬网
100
AcDbPolyline
 90
        2
 70
     0
 43
0.15
 10
-6.383708850480616
 20
-13.83708849968388
 10
-5.761297408491373
 20
-12.75904025958152
  0
LWPOLYLINE
  5
2E9F
330
2E91
100
AcDbEntity
  8
经纬网
100
AcDbPolyline
 90
        2
 70
     0
 43
0.15
 10
-5.899912940803915
 20
-8.999129403848201
 10
0.0
 20
1.219819569087121
  0
LWPOLYLINE
  5
2EA0
330
2E91
100
AcDbEntity
  8
经纬网
100
AcDbPolyline
 90
        2
 70
     0
 43
0.15
 10
-4.206627257168292
 20
7.933727431867737
 10
0.0
 20
15.21981956908712
  0
LWPOLYLINE
  5
2EA1
330
2E91
100
AcDbEntity
  8
经纬网
100
AcDbPolyline
 90
        2
 70
     0
 43
0.15
 10
-4.206627257168292
 20
7.933727431867737
 10
0.0
 20
15.21981956908712
  0
LWPOLYLINE
  5
2EA2
330
2E91
100
AcDbEntity
  8
经纬网
100
AcDbPolyline
 90
        2
 70
     0
 43
0.15
 10
-4.448525211773812
 20
5.514747883949894
 10
0.0
 20
13.21981956908712
  0
LWPOLYLINE
  5
2EA3
330
2E91
100
AcDbEntity
  8
经纬网
100
AcDbPolyline
 90
        2
 70
     0
 43
0.15
 10
-4.690423166844993
 20
3.095768335915636
 10
0.0
 20
11.21981956908712
  0
LWPOLYLINE
  5
2EA4
330
2E91
100
AcDbEntity
  8
经纬网
100
AcDbPolyline
 90
        2
 70
     0
 43
0.15
 10
-4.932321121450513
 20
0.6767887879977934
 10
0.0
 20
9.219819569087121
  0
LWPOLYLINE
  5
2EA5
330
2E91
100
AcDbEntity
  8
经纬网
100
AcDbPolyline
 90
        2
 70
     0
 43
0.15
 10
-5.658014985732734
 20
-6.58014985587215
 10
0.0
 20
3.219819569087121
  0
LWPOLYLINE
  5
2EA6
330
2E91
100
AcDbEntity
  8
经纬网
100
AcDbPolyline
 90
        2
 70
     0
 43
0.15
 10
-2.755239527672529
 20
22.44760471954942
 10
0.0
 20
27.21981956908712
  0
LWPOLYLINE
  5
2EA7
330
2E91
100
AcDbEntity
  8
经纬网
100
AcDbPolyline
 90
        2
 70
     0
 43
0.15
 10
-2.755239527672529
 20
22.44760471954942
 10
0.0
 20
27.21981956908712
  0
LWPOLYLINE
  5
2EA8
330
2E91
100
AcDbEntity
  8
经纬网
100
AcDbPolyline
 90
        2
 70
     0
 43
0.15
 10
-2.997137483209371
 20
20.02862517163157
 10
0.0
 20
25.21981956908712
  0
LWPOLYLINE
  5
2EA9
330
2E91
100
AcDbEntity
  8
经纬网
100
AcDbPolyline
 90
        2
 70
     0
 43
0.15
 10
-3.239035437814891
 20
17.60964562371373
 10
0.0
 20
23.21981956908712
  0
LWPOLYLINE
  5
2EAA
330
2E91
100
AcDbEntity
  8
经纬网
100
AcDbPolyline
 90
        2
 70
     0
 43
0.15
 10
-3.480933392886072
 20
15.19066607567947
 10
0.0
 20
21.21981956908712
  0
LWPOLYLINE
  5
2EAB
330
2E91
100
AcDbEntity
  8
经纬网
100
AcDbPolyline
 90
        2
 70
     0
 43
0.15
 10
-4.206627257168292
 20
7.933727431867737
 10
0.0
 20
15.21981956908712
  0
LWPOLYLINE
  5
2EAC
330
2E91
100
AcDbEntity
  8
经纬网
100
AcDbPolyline
 90
        2
 70
     0
 43
0.15
 10
-1.303851799108088
 20
36.96148200734751
 10
0.0
 20
39.21981956908712
  0
LWPOLYLINE
  5
2EAD
330
2E91
100
AcDbEntity
  8
经纬网
100
AcDbPolyline
 90
        2
 70
     0
 43
0.15
 10
-1.303851799108088
 20
36.96148200734751
 10
0.0
 20
39.21981956908712
  0
LWPOLYLINE
  5
2EAE
330
2E91
100
AcDbEntity
  8
经纬网
100
AcDbPolyline
 90
        2
 70
     0
 43
0.15
 10
-1.545749753713607
 20
34.54250245931326
 10
0.0
 20
37.21981956908712
  0
LWPOLYLINE
  5
2EAF
330
2E91
100
AcDbEntity
  8
经纬网
100
AcDbPolyline
 90
        2
 70
     0
 43
0.15
 10
-1.787647708319127
 20
32.12352291139541
 10
0.0
 20
35.21981956908712
  0
LWPOLYLINE
  5
2EB0
330
2E91
100
AcDbEntity
  8
经纬网
100
AcDbPolyline
 90
        2
 70
     0
 43
0.15
 10
-2.029545663390308
 20
29.70454336336116
 10
0.0
 20
33.21981956908712
  0
LWPOLYLINE
  5
2EB1
330
2E91
100
AcDbEntity
  8
经纬网
100
AcDbPolyline
 90
        2
 70
     0
 43
0.15
 10
-2.755239527672529
 20
22.44760471954942
 10
0.0
 20
27.21981956908712
  0
LWPOLYLINE
  5
2EB2
330
2E91
100
AcDbEntity
  8
经纬网
100
AcDbPolyline
 90
        2
 70
     0
 43
0.15
 10
-0.0943620251491666
 20
49.05637974699494
 10
0.0
 20
49.21981956908712
  0
LWPOLYLINE
  5
2EB3
330
2E91
100
AcDbEntity
  8
经纬网
100
AcDbPolyline
 90
        2
 70
     0
 43
0.15
 10
-0.0943620251491666
 20
49.05637974699494
 10
0.0
 20
49.21981956908712
  0
LWPOLYLINE
  5
2EB4
330
2E91
100
AcDbEntity
  8
经纬网
100
AcDbPolyline
 90
        2
 70
     0
 43
0.15
 10
-0.3362599797546863
 20
46.63740019907709
 10
0.0
 20
47.21981956908712
  0
LWPOLYLINE
  5
2EB5
330
2E91
100
AcDbEntity
  8
经纬网
100
AcDbPolyline
 90
        2
 70
     0
 43
0.15
 10
-0.5781579343602062
 20
44.21842065115924
 10
0.0
 20
45.21981956908712
  0
LWPOLYLINE
  5
2EB6
330
2E91
100
AcDbEntity
  8
经纬网
100
AcDbPolyline
 90
        2
 70
     0
 43
0.15
 10
-1.303851799108088
 20
36.96148200734751
 10
0.0
 20
39.21981956908712
  0
LWPOLYLINE
  5
2EB7
330
2E91
100
AcDbEntity
  8
经纬网
100
AcDbPolyline
 90
        2
 70
     0
 43
0.15
 10
-8.0
 20
-30.0
 10
-3.607260449789464
 20
-13.52722668659408
  0
LWPOLYLINE
  5
2EB8
330
2E91
100
AcDbEntity
  8
经纬网
100
AcDbPolyline
 90
        2
 70
     0
 43
0.15
 10
-0.5781579343602062
 20
44.21842065115924
 10
0.0
 20
45.21981956908712
  0
LWPOLYLINE
  5
2EB9
330
2E91
100
AcDbEntity
  8
经纬网
100
AcDbPolyline
 90
        2
 70
     0
 43
0.15
 10
-3.964729302562773
 20
10.35270697978558
 10
0.0
 20
17.21981956908712
  0
LWPOLYLINE
  5
2EBA
330
2E91
100
AcDbEntity
  8
经纬网
100
AcDbPolyline
 90
        2
 70
     0
 43
0.15
 10
-3.722831347491592
 20
12.77168652776163
 10
0.0
 20
19.21981956908712
  0
LWPOLYLINE
  5
2EBB
330
2E91
100
AcDbEntity
  8
经纬网
100
AcDbPolyline
 90
        2
 70
     0
 43
0.15
 10
-2.513341573067009
 20
24.86658426752547
 10
0.0
 20
29.21981956908712
  0
LWPOLYLINE
  5
2EBC
330
2E91
100
AcDbEntity
  8
经纬网
100
AcDbPolyline
 90
        2
 70
     0
 43
0.15
 10
-2.271443617995828
 20
27.28556381544331
 10
0.0
 20
31.21981956908712
  0
LWPOLYLINE
  5
2EBD
330
2E91
100
AcDbEntity
  8
经纬网
100
AcDbPolyline
 90
        2
 70
     0
 43
0.15
 10
-1.061953844036906
 20
39.38046155526535
 10
0.0
 20
41.21981956908712
  0
LWPOLYLINE
  5
2EBE
330
2E91
100
AcDbEntity
  8
经纬网
100
AcDbPolyline
 90
        2
 70
     0
 43
0.15
 10
-0.8200558894313871
 20
41.79944110318319
 10
0.0
 20
43.21981956908712
  0
LWPOLYLINE
  5
2EBF
330
2E91
100
AcDbEntity
  8
经纬网
100
AcDbPolyline
 90
        2
 70
     0
 43
0.15
 10
-5.416117031127214
 20
-4.161170307954307
 10
0.0
 20
5.219819569087121
  0
LWPOLYLINE
  5
2EC0
330
2E91
100
AcDbEntity
  8
经纬网
100
AcDbPolyline
 90
        2
 70
     0
 43
0.15
 10
-5.174219076521694
 20
-1.742190759920049
 10
0.0
 20
7.219819569087121
  0
LWPOLYLINE
  5
2EC1
330
2E91
100
AcDbEntity
  8
经纬网
100
AcDbPolyline
 90
        2
 70
     0
 43
0.15
 10
-7.835096579045057
 20
-28.35096578748198
 10
-7.324357068631798
 20
-27.46633900573943
  0
LWPOLYLINE
  5
2EC2
330
2E91
100
AcDbEntity
  8
经纬网
100
AcDbPolyline
 90
        2
 70
     0
 43
0.15
 10
0.0
 20
50.0
 10
0.0
 20
0.0
  0
LWPOLYLINE
  5
2EC3
330
2E91
100
AcDbEntity
  8
经纬网
100
AcDbPolyline
 90
        2
 70
     0
 43
0.15
 10
6.252560853958129
 20
-12.52560853632167
 10
8.0
 20
-30.0
  0
LWPOLYLINE
  5
2EC4
330
2E91
100
AcDbEntity
  8
经纬网
100
AcDbPolyline
 90
        2
 70
     0
 43
0.15
 10
3.092688124626874
 20
-11.59758046671049
 10
0.0
 20
0.0
  0
LWPOLYLINE
  5
2EC5
330
2E91
100
AcDbEntity
  8
经纬网
100
AcDbPolyline
 90
        2
 70
     0
 43
0.15
 10
-3.092522961087524
 20
-11.59696110209916
 10
0.0
 20
0.0
  0
LWPOLYLINE
  5
2EC6
330
2E91
100
AcDbEntity
  8
经纬网
100
AcDbPolyline
 90
        2
 70
     0
 43
0.15
 10
-3.811034922953695
 20
-11.38108654721873
 10
-2.368830914609134
 20
-8.883115929202176
  0
LWPOLYLINE
  5
2EC7
330
2E91
100
AcDbEntity
  8
经纬网
100
AcDbPolyline
 90
        2
 70
     0
 43
0.15
 10
-4.757256763521581
 20
-11.01999085006537
 10
-1.377725684083998
 20
-5.166471313859801
  0
LWPOLYLINE
  5
2EC8
330
2E91
100
AcDbEntity
  8
经纬网
100
AcDbPolyline
 90
        2
 70
     0
 43
0.15
 10
-5.660604952834546
 20
-10.58463581139222
 10
-0.3866204530932009
 20
-1.449826698692049
  0
LWPOLYLINE
  5
2EC9
330
2E91
100
AcDbEntity
  8
经纬网
100
AcDbPolyline
 90
        2
 70
     0
 43
0.15
 10
-6.252563349902629
 20
-12.52563350257696
 10
-8.0
 20
-30.0
  0
HATCH
  5
2ECA
330
2E91
100
AcDbEntity
  8
经纬网
100
AcDbHatch
 10
0.0
 20
0.0
 30
0.0
210
0.0
220
0.0
230
1.0
  2
SOLID
 70
     1
 71
     0
 91
        1
 92
       19
 72
     0
 73
     1
 93
      660
 10
-3.648416659794747
 20
13.51626314676832
 10
-3.858944469131529
 20
13.45787861821009
 10
-4.09322535386309
 20
13.38848145853262
 10
-4.326259409077465
 20
13.31500610319199
 10
-4.557975649833679
 20
13.23747493344126
 10
-4.788303493522107
 20
13.15591156604932
 10
-5.017172781284898
 20
13.07034084602492
 10
-5.2445137957111
 20
12.98078883904963
 10
-5.470257286913692
 20
12.88728282338707
 10
-5.69433449069038
 20
12.78985128208296
 10
-5.916677151806652
 20
12.68852389359381
 10
-6.137217542622238
 20
12.58333152328851
 10
-6.355888483580201
 20
12.47430621372769
 10
-6.572623366955667
 20
12.36148117511766
 10
-6.78735617082566
 20
12.24489077506587
 10
-7.000021487474441
 20
12.12457052804529
 10
-7.210554536432027
 20
12.00055708491709
 10
-7.418891186825931
 20
11.87288822128903
 10
-7.624967977404594
 20
11.74160282628145
 10
-7.828722136560827
 20
11.60674089082749
 10
-8.030091596301645
 20
11.46834349510027
 10
-8.229015019722282
 20
11.32645279634744
 10
-8.425431811716407
 20
11.18111201567808
 10
-8.61928214225918
 20
11.03236542554805
 10
-8.810506962239742
 20
10.88025833544088
 10
-8.999048023018985
 20
10.72483707871288
 10
-9.184847893659025
 20
10.56614899821579
 10
-9.367849976755678
 20
10.40424243174493
 10
-9.547998527996242
 20
10.23916669777827
 10
-9.72523867432028
 20
10.07097207976039
 10
-9.899516423698514
 20
9.899709811725188
 10
-10.07077869260683
 20
9.725432061473838
 10
-10.2389733097516
 20
9.5481919159065
 10
-10.4040490440093
 20
9.36804336408386
 10
-10.56595561048016
 20
9.185041280928999
 10
-10.72464369097724
 20
8.999241410638205
 10
-10.88006494799629
 20
8.810700349800754
 10
-11.03217203775421
 20
8.619475529587361
 10
-11.18091862788424
 20
8.425625199161004
 10
-11.32625940907746
 20
8.229208407166879
 10
-11.46815010765567
 20
8.03028498403728
 10
-11.60654750326648
 20
7.828915523656178
 10
-11.74140943866223
 20
7.625161365314852
 10
-11.87269483366981
 20
7.419084574386943
 10
-12.00036369729787
 20
7.210747923760209
 10
-12.12437714030966
 20
7.000214875093661
 10
-12.24469738733023
 20
6.787549558561295
 10
-12.36128778755665
 20
6.572816754051018
 10
-12.47411282593384
 20
6.356081871374044
 10
-12.58313813572749
 20
6.13741093018325
 10
-12.68833050597459
 20
5.916870539425872
 10
-12.78965789452195
 20
5.694527878134977
 10
-12.88708943594247
 20
5.470450673892628
 10
-12.98059545177966
 20
5.244707182864658
 10
-13.0701474584639
 20
5.017366168729495
 10
-13.15571817848831
 20
4.788496881606988
 10
-13.23728154599666
 20
4.558169037452898
 10
-13.31481271516532
 20
4.326452796347439
 10
-13.3882880709134
 20
4.093418741191271
 10
-13.45768523076549
 20
3.85913785645971
 10
-13.52298305556178
 20
3.623681506491266
 10
-13.58416165551171
 20
3.387121413426939
 10
-13.64120239485055
 20
3.149529635906219
 10
-13.69408789789304
 20
2.910978546540718
 10
-13.74280205601826
 20
2.671540810319129
 10
-13.78733002999797
 20
2.431289362430106
 10
-13.8276582560502
 20
2.190297385677695
 10
-13.86377445003018
 20
1.948638288478832
 10
-13.89566761022434
 20
1.706385682686232
 10
-13.92332802247256
 20
1.463613360829185
 10
-13.94674726063385
 20
1.220395273528993
 10
-13.9659181907773
 20
0.9768055074964649
 10
-13.98083497444168
 20
0.7329182624816895
 10
-13.99149306584149
 20
0.4888078289222904
 10
-13.99788921978325
 20
0.2445485652424395
 10
-14.00002148747444
 20
0.0002148750936612
 10
-13.99788921978325
 20
-0.2441188149969093
 10
-13.99149306584149
 20
-0.4883780787931756
 10
-13.98083497444168
 20
-0.7324885123525747
 10
-13.9659181907773
 20
-0.9763757573673501
 10
-13.94674726063385
 20
-1.219965523399878
 10
-13.92332802247256
 20
-1.46318361070007
 10
-13.89566761022434
 20
-1.705955932557117
 10
-13.86377445003018
 20
-1.948208538349717
 10
-13.8276582560502
 20
-2.189867635432165
 10
-13.78733002999797
 20
-2.430859612300992
 10
-13.74280205601826
 20
-2.671111060248222
 10
-13.69408789789304
 20
-2.910548796411603
 10
-13.64120239485055
 20
-3.149099885777104
 10
-13.58416165551171
 20
-3.386691663356032
 10
-13.52298305556178
 20
-3.623251756362151
 10
-13.45768523076549
 20
-3.858708106388803
 10
-13.3882880709134
 20
-4.092988991003949
 10
-13.31481271516532
 20
-4.326023046218324
 10
-13.23728154599666
 20
-4.557739287323784
 10
-13.15571817848831
 20
-4.788067131477873
 10
-13.0701474584639
 20
-5.016936418542172
 10
-12.98059545177966
 20
-5.244277432735543
 10
-12.88708943594247
 20
-5.470020923763513
 10
-12.78965789452195
 20
-5.694098128005862
 10
-12.68833050597459
 20
-5.916440789296757
 10
-12.58313813572749
 20
-6.13698117993772
 10
-12.47411282593384
 20
-6.355652121303137
 10
-12.36128778755665
 20
-6.572387003921903
 10
-12.24469738733023
 20
-6.787119808315765
 10
-12.12437714030966
 20
-6.999785124906338
 10
-12.00036369729787
 20
-7.210318173689302
 10
-11.87269483366981
 20
-7.418654824141412
 10
-11.74140943866223
 20
-7.624731615127529
 10
-11.60654750326648
 20
-7.828485773527063
 10
-11.46815010765567
 20
-8.029855233791749
 10
-11.32625940907746
 20
-8.228778657037764
 10
-11.18091862788424
 20
-8.425195449031889
 10
-11.03217203775421
 20
-8.619045779516454
 10
-10.88006494799629
 20
-8.810270599671639
 10
-10.72464369097724
 20
-8.99881166050909
 10
-10.56595561048016
 20
-9.184611530799884
 10
-10.4040490440093
 20
-9.367613614012952
 10
-10.2389733097516
 20
-9.547762165777385
 10
-10.07077869260683
 20
-9.725002311344724
 10
-9.899516423698514
 20
-9.899280061596073
 10
-9.72523867432028
 20
-10.07054232963128
 10
-9.547998527996242
 20
-10.23873694764916
 10
-9.367849976755678
 20
-10.40381268161582
 10
-9.184847893659025
 20
-10.56571924808668
 10
-8.999048023018985
 20
-10.72440732858376
 10
-8.810506962239742
 20
-10.87982858531177
 10
-8.61928214225918
 20
-11.03193567547714
 10
-8.425431811716407
 20
-11.18068226560717
 10
-8.229015019722282
 20
-11.32602304621832
 10
-8.030091596301645
 20
-11.46791374497115
 10
-7.828722136560827
 20
-11.60631114069838
 10
-7.624967977404594
 20
-11.74117307615233
 10
-7.418891186825931
 20
-11.87245847110171
 10
-7.210554536432027
 20
-12.00012733472977
 10
-7.000021487474441
 20
-12.12414077791618
 10
-6.78735617082566
 20
-12.24446102482034
 10
-6.572623366955667
 20
-12.36105142498854
 10
-6.355888483580201
 20
-12.47387646354036
 10
-6.137217542622238
 20
-12.58290177315939
 10
-5.916677151806652
 20
-12.68809414346469
 10
-5.69433449069038
 20
-12.78942153195385
 10
-5.470257286913692
 20
-12.88685307325795
 10
-5.2445137957111
 20
-12.9803590888041
 10
-5.017172781284898
 20
-13.0699110958958
 10
-4.788303493522107
 20
-13.15548181592021
 10
-4.557975649833679
 20
-13.23704518331215
 10
-4.326259409077465
 20
-13.31457635306287
 10
-4.09322535386309
 20
-13.38805170840351
 10
-3.858944469131529
 20
-13.45744886808097
 10
-3.623488119337707
 20
-13.52274669299368
 10
-3.386928025633096
 20
-13.58392529282719
 10
-3.149336248636245
 20
-13.64096603187499
 10
-2.91078515863046
 20
-13.69385153520852
 10
-2.671347422990947
 20
-13.74256569315912
 10
-2.43109597498551
 20
-13.78709366713883
 10
-2.19010399794206
 20
-13.82742189330747
 10
-1.948444900568574
 20
-13.86353808734566
 10
-1.706192295067012
 20
-13.89543124794727
 10
-1.463419972918927
 20
-13.92309166007908
 10
-1.220201885793358
 20
-13.94651089824037
 10
-0.9766121199354529
 20
-13.96568182855844
 10
-0.7327248752117157
 20
-13.98059861146612
 10
-0.4886144413612783
 20
-13.99125670315698
 10
-0.2443551779724657
 20
-13.99765285709873
 10
-0.0000214874744415
 20
-13.99978512490634
 10
0.2443122030235827
 20
-13.99765285709873
 10
0.4885714664123953
 20
-13.99125670315698
 10
0.7326819002628327
 20
-13.98059861146612
 10
0.9765691449865698
 20
-13.96568182855844
 10
1.220158910844475
 20
-13.94651089824037
 10
1.463376997970044
 20
-13.92309166007908
 10
1.706149320118129
 20
-13.89543124794727
 10
1.948401925619691
 20
-13.86353808734566
 10
2.190061022993177
 20
-13.82742189330747
 10
2.431053000036627
 20
-13.78709366713883
 10
2.671304448042064
 20
-13.74256569315912
 10
2.910742183681577
 20
-13.69385153520852
 10
3.14929327275604
 20
-13.64096603187499
 10
3.386885050684213
 20
-13.58392529282719
 10
3.623445144388824
 20
-13.52274669299368
 10
3.858901494182646
 20
-13.45744886808097
 10
4.093182378448545
 20
-13.38805170840351
 10
4.326216434128582
 20
-13.31457635306287
 10
4.557932674884796
 20
-13.23704518331215
 10
4.788260518573224
 20
-13.15548181592021
 10
5.017129806336015
 20
-13.0699110958958
 10
5.244470820762217
 20
-12.9803590888041
 10
5.470214311033487
 20
-12.88685307325795
 10
5.694291515741497
 20
-12.78942153195385
 10
5.916634176857769
 20
-12.68809414346469
 10
6.137174567673355
 20
-12.58290177315939
 10
6.355845508631318
 20
-12.47387646354036
 10
6.572580391075462
 20
-12.36105142498854
 10
6.787313195876777
 20
-12.24446102482034
 10
6.999978512525558
 20
-12.12414077791618
 10
7.210511561483144
 20
-12.00012733472977
 10
7.418848211877048
 20
-11.87245847110171
 10
7.624925002455711
 20
-11.74117307615233
 10
7.828679160680621
 20
-11.60631114069838
 10
8.030048621352761
 20
-11.46791374497115
 10
8.228972044773399
 20
-11.32602304621832
 10
8.425388836767524
 20
-11.18068226560717
 10
8.619239167310297
 20
-11.03193567547714
 10
8.810463987290859
 20
-10.87982858531177
 10
8.999005048070102
 20
-10.72440732858376
 10
9.184804918710142
 20
-10.56571924808668
 10
9.367807001806795
 20
-10.40381268161582
 10
9.547955553047358
 20
-10.23873694764916
 10
9.725195699371397
 20
-10.07054232963128
 10
9.899473448749631
 20
-9.899280061596073
 10
10.07073571765795
 20
-9.725002311344724
 10
10.23893033480272
 20
-9.547762165777385
 10
10.40400606906041
 20
-9.367613614012952
 10
10.56591263553127
 20
-9.184611530799884
 10
10.72460071602836
 20
-8.99881166050909
 10
10.8800219730474
 20
-8.810270599671639
 10
11.03212906280532
 20
-8.619045779516454
 10
11.18087565293535
 20
-8.425195449031889
 10
11.32621643412858
 20
-8.228778657037764
 10
11.46810713270679
 20
-8.029855233791749
 10
11.6065045283176
 20
-7.828485773527063
 10
11.74136646371334
 20
-7.624731615127529
 10
11.87265185872093
 20
-7.418654824141412
 10
12.00032072234899
 20
-7.210318173689302
 10
12.12433416536078
 20
-6.999785124906338
 10
12.24465441238135
 20
-6.787119808315765
 10
12.36124481260776
 20
-6.572387003921903
 10
12.47406985098496
 20
-6.355652121303137
 10
12.58309516077861
 20
-6.13698117993772
 10
12.68828753102571
 20
-5.916440789296757
 10
12.78961491957307
 20
-5.694098128005862
 10
12.88704646099359
 20
-5.470020923763513
 10
12.98055247683078
 20
-5.244277432735543
 10
13.07010448351502
 20
-5.016936418542172
 10
13.15567520353943
 20
-4.788067131477873
 10
13.23723857104778
 20
-4.557739287323784
 10
13.31476974021643
 20
-4.326023046218324
 10
13.38824509596452
 20
-4.092988991003949
 10
13.45764225581661
 20
-3.858708106388803
 10
13.5229400806129
 20
-3.623251756362151
 10
13.58411868056282
 20
-3.386691663356032
 10
13.64115941990167
 20
-3.149099885777104
 10
13.69404492294416
 20
-2.910548796411603
 10
13.74275908106938
 20
-2.671111060248222
 10
13.78728705504909
 20
-2.430859612300992
 10
13.82761528110131
 20
-2.189867635432165
 10
13.86373147508129
 20
-1.948208538349717
 10
13.89562463527545
 20
-1.705955932557117
 10
13.92328504752368
 20
-1.46318361070007
 10
13.94670428568497
 20
-1.219965523399878
 10
13.96587521582842
 20
-0.9763757573673501
 10
13.98079199949279
 20
-0.7324885123525747
 10
13.99145009089261
 20
-0.4883780787931756
 10
13.99784624483436
 20
-0.2441188149969093
 10
13.99997851252556
 20
0.0002148750936612
 10
13.99784624483436
 20
0.2445485652424395
 10
13.99145009089261
 20
0.4888078289222904
 10
13.98079199949279
 20
0.7329182624816895
 10
13.96587521582842
 20
0.9768055074964649
 10
13.94670428568497
 20
1.220395273528993
 10
13.92328504752368
 20
1.463613360829185
 10
13.89562463527545
 20
1.706385682686232
 10
13.86373147508129
 20
1.948638288478832
 10
13.82761528110131
 20
2.190297385677695
 10
13.78728705504909
 20
2.431289362430106
 10
13.74275908106938
 20
2.671540810319129
 10
13.69404492294416
 20
2.910978546540718
 10
13.64115941990167
 20
3.149529635906219
 10
13.58411868056282
 20
3.387121413426939
 10
13.5229400806129
 20
3.623681506491266
 10
13.45764225581661
 20
3.85913785645971
 10
13.38824509596452
 20
4.093418741191271
 10
13.31476974021643
 20
4.326452796347439
 10
13.23723857104778
 20
4.558169037452898
 10
13.15567520353943
 20
4.788496881606988
 10
13.07010448351502
 20
5.017366168729495
 10
12.98055247683078
 20
5.244707182864658
 10
12.88704646099359
 20
5.470450673892628
 10
12.78961491957307
 20
5.694527878134977
 10
12.68828753102571
 20
5.916870539425872
 10
12.58309516077861
 20
6.13741093018325
 10
12.47406985098496
 20
6.356081871374044
 10
12.36124481260776
 20
6.572816754051018
 10
12.24465441238135
 20
6.787549558561295
 10
12.12433416536078
 20
7.000214875093661
 10
12.00032072234899
 20
7.210747923760209
 10
11.87265185872093
 20
7.419084574386943
 10
11.74136646371334
 20
7.625161365314852
 10
11.6065045283176
 20
7.828915523656178
 10
11.46810713270679
 20
8.03028498403728
 10
11.32621643412858
 20
8.229208407166879
 10
11.18087565293535
 20
8.425625199161004
 10
11.03212906280532
 20
8.619475529587361
 10
10.8800219730474
 20
8.810700349800754
 10
10.72460071602836
 20
8.999241410638205
 10
10.56591263553127
 20
9.185041280928999
 10
10.40400606906041
 20
9.36804336408386
 10
10.23893033480272
 20
9.5481919159065
 10
10.07073571765795
 20
9.725432061473838
 10
9.899473448749631
 20
9.899709811725188
 10
9.725195699371397
 20
10.07097207976039
 10
9.547955553047358
 20
10.23916669777827
 10
9.367807001806795
 20
10.40424243174493
 10
9.184804918710142
 20
10.56614899821579
 10
8.999005048070102
 20
10.72483707871288
 10
8.810463987290859
 20
10.88025833544088
 10
8.619239167310297
 20
11.03236542554805
 10
8.425388836767524
 20
11.18111201567808
 10
8.228972044773399
 20
11.32645279634744
 10
8.030048621352761
 20
11.46834349510027
 10
7.828679160680621
 20
11.60674089082749
 10
7.624925002455711
 20
11.74160282628145
 10
7.418848211877048
 20
11.87288822128903
 10
7.210511561483144
 20
12.00055708491709
 10
6.999978512525558
 20
12.12457052804529
 10
6.787313195876777
 20
12.24489077506587
 10
6.572580391075462
 20
12.36148117511766
 10
6.355845508631318
 20
12.47430621372769
 10
6.137174567673355
 20
12.58333152328851
 10
5.916634176857769
 20
12.68852389359381
 10
5.694291515741497
 20
12.78985128208296
 10
5.470214311033487
 20
12.88728282338707
 10
5.244470820762217
 20
12.98078883904963
 10
5.017129806336015
 20
13.07034084602492
 10
4.788260518573224
 20
13.15591156604932
 10
4.557932674884796
 20
13.23747493344126
 10
4.326216434128582
 20
13.31500610319199
 10
4.093182378448545
 20
13.38848145853262
 10
3.858901494182646
 20
13.45787861821009
 10
3.648373684845864
 20
13.51626314676832
 10
3.7554383398965
 20
12.44561660016188
 10
3.800810673739761
 20
12.43217670253943
 10
4.017199439462274
 20
12.36394958692835
 10
4.232364520430564
 20
12.29195635783253
 10
4.446240375749766
 20
12.21621894527925
 10
4.658761856611818
 20
12.13676041952567
 10
4.869864226784557
 20
12.05360498448135
 10
5.079483182635158
 20
11.96677796996664
 10
5.287554872687906
 20
11.87630582443671
 10
5.494015914853662
 20
11.78221610654145
 10
5.698803421109914
 20
11.68453747691819
 10
5.901855009142309
 20
11.58329968951875
 10
6.103108828421682
 20
11.47853358217981
 10
6.302503575570881
 20
11.37027106789173
 10
6.499978512525558
 20
11.25854512426303
 10
6.695473486091941
 20
11.14338978414889
 10
6.888928947504609
 20
11.02484012505738
 10
7.080285967793315
 20
10.90293225838104
 10
7.269486257340759
 20
10.77770331827923
 10
7.456472185440361
 20
10.64919145079329
 10
7.641186792403459
 20
10.51743580197217
 10
7.823573813773691
 20
10.38247650570702
 10
8.00357769196853
 20
10.24435467197327
 10
8.181143595837056
 20
10.10311237402493
 10
8.356217438820749
 20
9.958792635588906
 10
8.528745889663696
 20
9.811439417942892
 10
8.698676395229995
 20
9.66109760623658
 10
8.86595719307661
 20
9.507812996103893
 10
9.030537328217178
 20
9.351632279518526
 10
9.192366668023169
 20
9.192603030533064
 10
9.351395917125046
 20
9.030773691076319
 10
9.507576633244752
 20
8.866193555819336
 10
9.660861243959516
 20
8.69891275773989
 10
9.811203055083751
 20
8.52898225194076
 10
9.958556273020803
 20
8.356453801039606
 10
10.1028760112822
 20
8.181379958696197
 10
10.24411830911413
 20
8.003814054245594
 10
10.38224014360457
 20
7.823810176050756
 10
10.51719943946227
 20
7.641423154913354
 10
10.64895508810878
 20
7.456708547659218
 10
10.77746695559472
 20
7.2697226201999
 10
10.90269589563831
 20
7.08052233030321
 10
11.0246037626639
 20
6.889165310072712
 10
11.14315342158079
 20
6.695709848834667
 10
11.25830876175314
 20
6.500214875093661
 10
11.37003470491618
 20
6.302739938255399
 10
11.4782972196117
 20
6.103345191280823
 10
11.58306332677603
 20
5.902091371710412
 10
11.68430111417547
 20
5.699039783328771
 10
11.7819797443226
 20
5.494252277712803
 10
11.87606946146115
 20
5.287791235081385
 10
11.9665416078642
 20
5.079719545377884
 10
12.05336862197146
 20
4.870100589469075
 10
12.13652405655011
 20
4.65899821917992
 10
12.21598258242011
 20
4.446476738317869
 10
12.29171999543905
 20
4.232600882998667
 10
12.36371322441846
 20
4.017435801972169
 10
12.43194034043699
 20
3.801047036482486
 10
12.49638055916875
 20
3.583500500652007
 10
12.55701425438747
 20
3.364862461399752
 10
12.61382295424118
 20
3.14519951789407
 10
12.66678935429081
 20
2.924578581529203
 10
12.71589732170105
 20
2.703066855669021
 10
12.7611318975687
 20
2.4807318149833
 10
12.80247930157929
 20
2.257641184784006
 10
12.83992694038898
 20
2.033862920536193
 10
12.87346340622753
 20
1.809465187601745
 10
12.90307848388329
 20
1.584516339353285
 10
12.92876315210014
 20
1.359084897558204
 10
12.95050958776846
 20
1.133239530783612
 10
12.96831116592511
 20
0.9070490337908267
 10
12.98216246441006
 20
0.6805823062313721
 10
12.99205926340073
 20
0.4539083322160878
 10
12.99799854960292
 20
0.2270961587200873
 10
12.99997851252556
 20
0.0002148750936612
 10
12.99799854960292
 20
-0.2266664085909724
 10
12.99205926340073
 20
-0.4534785820287653
 10
12.98216246441006
 20
-0.6801525561022573
 10
12.96831116592511
 20
-0.9066192835452966
 10
12.95050958776846
 20
-1.132809780654497
 10
12.92876315210014
 20
-1.358655147429089
 10
12.90307848388329
 20
-1.584086589165963
 10
12.87346340622753
 20
-1.809035437356214
 10
12.83992694038898
 20
-2.033433170465286
 10
12.80247930157929
 20
-2.257211434596683
 10
12.7611318975687
 20
-2.480302064795978
 10
12.71589732170105
 20
-2.702637105539906
 10
12.66678935429081
 20
-2.924148831458296
 10
12.61382295424118
 20
-3.144769767706748
 10
12.55701425438747
 20
-3.364432711270637
 10
12.49638055916875
 20
-3.583070750522892
 10
12.43194034043699
 20
-3.800617286295164
 10
12.36371322441846
 20
-4.017006051843054
 10
12.29171999543905
 20
-4.232171132869552
 10
12.21598258242011
 20
-4.446046988130547
 10
12.13652405655011
 20
-4.658568468992598
 10
12.05336862197146
 20
-4.86967083933996
 10
11.9665416078642
 20
-5.079289795306976
 10
11.87606946146115
 20
-5.287361484894063
 10
11.7819797443226
 20
-5.493822527583688
 10
11.68430111417547
 20
-5.698610033199656
 10
11.58306332677603
 20
-5.901661621523089
 10
11.4782972196117
 20
-6.102915441151708
 10
11.37003470491618
 20
-6.302310188126284
 10
11.25830876175314
 20
-6.499785124906338
 10
11.14315342158079
 20
-6.69528009876376
 10
11.0246037626639
 20
-6.888735559943597
 10
10.90269589563831
 20
-7.080092580174095
 10
10.77746695559472
 20
-7.269292870070785
 10
10.64895508810878
 20
-7.456278797530103
 10
10.51719943946227
 20
-7.640993404784239
 10
10.38224014360457
 20
-7.823380425863433
 10
10.24411830911413
 20
-8.003384304174687
 10
10.1028760112822
 20
-8.180950208567082
 10
9.958556273020803
 20
-8.356024050794076
 10
9.811203055083751
 20
-8.528552501869853
 10
9.660861243959516
 20
-8.698483007610775
 10
9.507576633244752
 20
-8.865763805748429
 10
9.351395917125046
 20
-9.030343940888997
 10
9.192366668023169
 20
-9.192173280403949
 10
9.030537328217178
 20
-9.351202529331203
 10
8.86595719307661
 20
-9.507383245974779
 10
8.698676395229995
 20
-9.660667856165673
 10
8.528745889663696
 20
-9.811009667813777
 10
8.356217438820749
 20
-9.958362885459791
 10
8.181143595837056
 20
-10.10268262383761
 10
8.00357769196853
 20
-10.24392492184415
 10
7.823573813773691
 20
-10.38204675551969
 10
7.641186792403459
 20
-10.51700605184305
 10
7.456472185440361
 20
-10.64876170066418
 10
7.269486257340759
 20
-10.77727356815012
 10
7.080285967793315
 20
-10.90250250819372
 10
6.888928947504609
 20
-11.02441037492826
 10
6.695473486091941
 20
-11.14296003401978
 10
6.499978512525558
 20
-11.25811537413392
 10
6.302503575570881
 20
-11.36984131776262
 10
6.103108828421682
 20
-11.47810383205069
 10
5.901855009142309
 20
-11.58286993944784
 10
5.698803421109914
 20
-11.68410772684729
 10
5.494015914853662
 20
-11.78178635641234
 10
5.287554872687906
 20
-11.8758760743076
 10
5.079483182635158
 20
-11.96634821977932
 10
4.869864226784557
 20
-12.05317523435224
 10
4.658761856611818
 20
-12.13633066939656
 10
4.446240375749766
 20
-12.21578919515013
 10
4.232364520430564
 20
-12.29152660770342
 10
4.017199439462274
 20
-12.36351983679924
 10
3.800810673739761
 20
-12.43174695241032
 10
3.583264137618243
 20
-12.4961871720734
 10
3.364626099355518
 20
-12.55682086665183
 10
3.144963155034929
 20
-12.61362956650555
 10
2.924342218786478
 20
-12.66659596713725
 10
2.702830493450164
 20
-12.71570393443107
 10
2.480495451949536
 20
-12.76093850977486
 10
2.257404821924865
 20
-12.8022859141347
 10
2.033626557793468
 20
-12.83973355265334
 10
1.809228824917227
 20
-12.87327001860831
 10
1.584279976785182
 20
-12.90288509626407
 10
1.358848535455763
 20
-12.92856976477196
 10
1.133003168739378
 20
-12.95031620014924
 10
0.9068126706406474
 20
-12.96811777830589
 10
0.6803459436632693
 20
-12.98196907679084
 10
0.453671969473362
 20
-12.99186587613076
 10
0.2268597958609462
 20
-12.9978051619837
 10
-0.0000214874744415
 20
-12.99978512490634
 10
-0.2269027708098292
 20
-12.9978051619837
 10
-0.4537149444222451
 20
-12.99186587613076
 10
-0.6803889186121524
 20
-12.98196907679084
 10
-0.906855646520853
 20
-12.96811777830589
 10
-1.133046143688261
 20
-12.95031620014924
 10
-1.358891510404646
 20
-12.92856976477196
 10
-1.584322951734066
 20
-12.90288509626407
 10
-1.80927179986611
 20
-12.87327001860831
 10
-2.033669532742351
 20
-12.83973355265334
 10
-2.257447796873748
 20
-12.8022859141347
 10
-2.480538426898419
 20
-12.76093850977486
 10
-2.702873468399047
 20
-12.71570393443107
 10
-2.924385193735361
 20
-12.66659596713725
 10
-3.145006130449473
 20
-12.61362956650555
 10
-3.364669074304401
 20
-12.55682086665183
 10
-3.583307113498449
 20
-12.4961871720734
 10
-3.800853648688644
 20
-12.43174695241032
 10
-4.017242414411157
 20
-12.36351983679924
 10
-4.232407495379447
 20
-12.29152660770342
 10
-4.446283350698649
 20
-12.21578919515013
 10
-4.658804831560701
 20
-12.13633066939656
 10
-4.86990720173344
 20
-12.05317523435224
 10
-5.079526157584041
 20
-11.96634821977932
 10
-5.287597847636789
 20
-11.8758760743076
 10
-5.494058889802545
 20
-11.78178635641234
 10
-5.698846396058797
 20
-11.68410772684729
 10
-5.901897984091192
 20
-11.58286993944784
 10
-6.103151803370565
 20
-11.47810383205069
 10
-6.302546550985425
 20
-11.36984131776262
 10
-6.500021487474441
 20
-11.25811537413392
 10
-6.695516461040824
 20
-11.14296003401978
 10
-6.888971922453492
 20
-11.02441037492826
 10
-7.080328942742198
 20
-10.90250250819372
 10
-7.269529232289642
 20
-10.77727356815012
 10
-7.456515160389244
 20
-10.64876170066418
 10
-7.641229767352342
 20
-10.51700605184305
 10
-7.823616788722574
 20
-10.38204675551969
 10
-8.003620666917413
 20
-10.24392492184415
 10
-8.181186570785939
 20
-10.10268262383761
 10
-8.356260413769632
 20
-9.958362885459791
 10
-8.528788864612579
 20
-9.811009667813777
 10
-8.698719370178878
 20
-9.660667856165673
 10
-8.866000168025493
 20
-9.507383245974779
 10
-9.030580303631722
 20
-9.351202529331203
 10
-9.192409642972052
 20
-9.192173280403949
 10
-9.351438892073929
 20
-9.030343940888997
 10
-9.507619608193635
 20
-8.865763805748429
 10
-9.660904218908399
 20
-8.698483007610775
 10
-9.811246030032634
 20
-8.528552501869853
 10
-9.958599247969686
 20
-8.356024050794076
 10
-10.10291898623109
 20
-8.180950208567082
 10
-10.24416128452867
 20
-8.003384304174687
 10
-10.38228311855346
 20
-7.823380425863433
 10
-10.51724241441116
 20
-7.640993404784239
 10
-10.64899806305766
 20
-7.456278797530103
 10
-10.7775099305436
 20
-7.269292870070785
 10
-10.9027388705872
 20
-7.080092580174095
 10
-11.02464673761278
 20
-6.888735559943597
 10
-11.14319639652967
 20
-6.69528009876376
 10
-11.25835173670202
 20
-6.499785124906338
 10
-11.37007767986506
 20
-6.302310188126284
 10
-11.47834019456059
 20
-6.102915441151708
 10
-11.58310630172491
 20
-5.901661621523089
 10
-11.68434408912435
 20
-5.698610033199656
 10
-11.78202271927148
 20
-5.493822527583688
 10
-11.87611243641004
 20
-5.287361484894063
 10
-11.96658458281308
 20
-5.079289795306976
 10
-12.05341159692034
 20
-4.86967083933996
 10
-12.13656703243032
 20
-4.658568468992598
 10
-12.21602555736899
 20
-4.446046988130547
 10
-12.29176297038793
 20
-4.232171132869552
 10
-12.36375619936734
 20
-4.017006051843054
 10
-12.43198331538588
 20
-3.800617286295164
 10
-12.49642353504896
 20
-3.583070750522892
 10
-12.55705722933635
 20
-3.364432711270637
 10
-12.61386592919007
 20
-3.144769767706748
 10
-12.66683233017102
 20
-2.924148831458296
 10
-12.71594029758125
 20
-2.702637105539906
 10
-12.76117487251758
 20
-2.480302064795978
 10
-12.80252227652818
 20
-2.257211434596683
 10
-12.83996991533786
 20
-2.033433170465286
 10
-12.87350638117641
 20
-1.809035437356214
 10
-12.90312145883217
 20
-1.584086589165963
 10
-12.92880612751469
 20
-1.358655147429089
 10
-12.95055256271735
 20
-1.132809780654497
 10
-12.968354140874
 20
-0.9066192835452966
 10
-12.98220543935895
 20
-0.6801525561022573
 10
-12.99210223834961
 20
-0.4534785820287653
 10
-12.99804152455181
 20
-0.2266664085909724
 10
-13.00002148747444
 20
0.0002148750936612
 10
-12.99804152455181
 20
0.2270961587200873
 10
-12.99210223834961
 20
0.4539083322160878
 10
-12.98220543935895
 20
0.6805823062313721
 10
-12.968354140874
 20
0.9070490337908267
 10
-12.95055256271735
 20
1.133239530783612
 10
-12.92880612751469
 20
1.359084897558204
 10
-12.90312145883217
 20
1.584516339353285
 10
-12.87350638117641
 20
1.809465187601745
 10
-12.83996991533786
 20
2.033862920536193
 10
-12.80252227652818
 20
2.257641184784006
 10
-12.76117487251758
 20
2.4807318149833
 10
-12.71594029758125
 20
2.703066855669021
 10
-12.66683233017102
 20
2.924578581529203
 10
-12.61386592919007
 20
3.14519951789407
 10
-12.55705722933635
 20
3.364862461399752
 10
-12.49642353504896
 20
3.583500500652007
 10
-12.43198331538588
 20
3.801047036482486
 10
-12.36375619936734
 20
4.017435801972169
 10
-12.29176297038793
 20
4.232600882998667
 10
-12.21602555736899
 20
4.446476738317869
 10
-12.13656703243032
 20
4.65899821917992
 10
-12.05341159692034
 20
4.870100589469075
 10
-11.96658458281308
 20
5.079719545377884
 10
-11.87611243641004
 20
5.287791235081385
 10
-11.78202271927148
 20
5.494252277712803
 10
-11.68434408912435
 20
5.699039783328771
 10
-11.58310630172491
 20
5.902091371710412
 10
-11.47834019456059
 20
6.103345191280823
 10
-11.37007767986506
 20
6.302739938255399
 10
-11.25835173670202
 20
6.500214875093661
 10
-11.14319639652967
 20
6.695709848834667
 10
-11.02464673761278
 20
6.889165310072712
 10
-10.9027388705872
 20
7.08052233030321
 10
-10.7775099305436
 20
7.2697226201999
 10
-10.64899806305766
 20
7.456708547659218
 10
-10.51724241441116
 20
7.641423154913354
 10
-10.38228311855346
 20
7.823810176050756
 10
-10.24416128452867
 20
8.003814054245594
 10
-10.10291898623109
 20
8.181379958696197
 10
-9.958599247969686
 20
8.356453801039606
 10
-9.811246030032634
 20
8.52898225194076
 10
-9.660904218908399
 20
8.69891275773989
 10
-9.507619608193635
 20
8.866193555819336
 10
-9.351438892073929
 20
9.030773691076319
 10
-9.192409642972052
 20
9.192603030533064
 10
-9.030580303631722
 20
9.351632279518526
 10
-8.866000168025493
 20
9.507812996103893
 10
-8.698719370178878
 20
9.66109760623658
 10
-8.528788864612579
 20
9.811439417942892
 10
-8.356260413769632
 20
9.958792635588906
 10
-8.181186570785939
 20
10.10311237402493
 10
-8.003620666917413
 20
10.24435467197327
 10
-7.823616788722574
 20
10.38247650570702
 10
-7.641229767352342
 20
10.51743580197217
 10
-7.456515160389244
 20
10.64919145079329
 10
-7.269529232289642
 20
10.77770331827923
 10
-7.080328942742198
 20
10.90293225838104
 10
-6.888971922453492
 20
11.02484012505738
 10
-6.695516461040824
 20
11.14338978414889
 10
-6.500021487474441
 20
11.25854512426303
 10
-6.302546550985425
 20
11.37027106789173
 10
-6.103151803370565
 20
11.47853358217981
 10
-5.901897984091192
 20
11.58329968951875
 10
-5.698846396058797
 20
11.68453747691819
 10
-5.494058889802545
 20
11.78221610654145
 10
-5.287597847636789
 20
11.87630582443671
 10
-5.079526157584041
 20
11.96677796996664
 10
-4.86990720173344
 20
12.05360498448135
 10
-4.658804831560701
 20
12.13676041952567
 10
-4.446283350698649
 20
12.21621894527925
 10
-4.232407495379447
 20
12.29195635783253
 10
-4.017242414411157
 20
12.36394958692835
 10
-3.800853648688644
 20
12.43217670253943
 10
-3.755481314845383
 20
12.44561660016188
 97
        0
 75
     0
 76
     1
 98
        1
 10
527.2645833333954
 20
437.5583333332906
  0
ENDBLK
  5
2ECB
330
2E91
100
AcDbEntity
  8
经纬网
100
AcDbBlockEnd
  0
ENDSEC
  0
SECTION
  2
ENTITIES
  0
INSERT
  5
5816
102
{ACAD_XDICTIONARY
360
5817
102
}
330
1F
100
AcDbEntity
  8
0
 62
     4
370
     0
100
AcDbBlockReference
  2
A$C68FC7CD3
 10
7634.353999382527
 20
1709.886487571542
 30
0.0
 50
248.569689592158
  0
MTEXT
  5
6655
330
1F
100
AcDbEntity
  8
0
 62
     1
 48
1.000000000000000E+16
370
    -3
100
AcDbMText
 10
-1323.660919260504
 20
3728.778079555033
 30
9999.000000000002
 40
100.0
 41
606.0052444359278
 71
     1
 72
     1
  1
{\C256;\U+4E09\U+76D8\U+533A}
  7
楷体GB2312
 73
     1
 44
1.0
1001
ACAD
1000
MTEXTBEGIN
1070
    73
1070
     1
1070
    44
1040
1.0
1070
    74
1070
     0
1000
MTEXTEND
1000
ACAD_MTEXT_DEFINED_HEIGHT_BEGIN
1070
    46
1040
765.8457349017688
1000
ACAD_MTEXT_DEFINED_HEIGHT_END
  0
MTEXT
  5
6656
330
1F
100
AcDbEntity
  8
0
 62
     1
 48
1.000000000000000E+16
370
    -3
100
AcDbMText
 10
-4396.899368654698
 20
1991.105580016295
 30
9999.000000000002
 40
100.0
 41
606.0052444359278
 71
     1
 72
     1
  1
{\C256;\U+4E94\U+76D8\U+533A}
  7
楷体GB2312
 73
     1
 44
1.0
1001
ACAD
1000
MTEXTBEGIN
1070
    73
1070
     1
1070
    44
1040
1.0
1070
    74
1070
     0
1000
MTEXTEND
1000
ACAD_MTEXT_DEFINED_HEIGHT_BEGIN
1070
    46
1040
765.8457349017688
1000
ACAD_MTEXT_DEFINED_HEIGHT_END
  0
MTEXT
  5
6657
330
1F
100
AcDbEntity
  8
0
 62
     1
 48
1.000000000000000E+16
370
    -3
100
AcDbMText
 10
-1034.810607867368
 20
-3027.314026032286
 30
4999.500000000001
 40
100.0
 41
606.0052444359278
 71
     1
 72
     1
  1
{\C256;\U+516D\U+76D8\U+533A}
  7
楷体GB2312
 73
     1
 44
1.0
1001
ACAD
1000
MTEXTBEGIN
1070
    73
1070
     1
1070
    44
1040
1.0
1070
    74
1070
     0
1000
MTEXTEND
1000
ACAD_MTEXT_DEFINED_HEIGHT_BEGIN
1070
    46
1040
136.9774325228686
1000
ACAD_MTEXT_DEFINED_HEIGHT_END
  0
MTEXT
  5
66F1
330
1F
100
AcDbEntity
  8
0
 62
     1
 48
1.000000000000000E+16
370
    -3
100
AcDbMText
 10
-1562.243225169712
 20
2124.835178701005
 30
9999.000000000002
 40
100.0
 41
606.0052444359278
 71
     1
 72
     1
  1
{\C256;\U+4E8C\U+76D8\U+533A}
  7
楷体GB2312
 73
     1
 44
1.0
1001
ACAD
1000
MTEXTBEGIN
1070
    73
1070
     1
1070
    44
1040
1.0
1070
    74
1070
     0
1000
MTEXTEND
1000
ACAD_MTEXT_DEFINED_HEIGHT_BEGIN
1070
    46
1040
765.8457349017688
1000
ACAD_MTEXT_DEFINED_HEIGHT_END
  0
MTEXT
  5
66F2
330
1F
100
AcDbEntity
  8
0
 62
     1
 48
1.000000000000000E+16
370
    -3
100
AcDbMText
 10
2721.248927561856
 20
3679.601314791672
 30
9999.000000000002
 40
100.0
 41
606.0052444359278
 71
     1
 72
     1
  1
{\C256;\U+516B\U+76D8\U+533A}
  7
楷体GB2312
 73
     1
 44
1.0
1001
ACAD
1000
MTEXTBEGIN
1070
    73
1070
     1
1070
    44
1040
1.0
1070
    74
1070
     0
1000
MTEXTEND
1000
ACAD_MTEXT_DEFINED_HEIGHT_BEGIN
1070
    46
1040
765.8457349017688
1000
ACAD_MTEXT_DEFINED_HEIGHT_END
  0
MTEXT
  5
66F3
330
1F
100
AcDbEntity
  8
0
 62
     1
 48
1.000000000000000E+16
370
    -3
100
AcDbMText
 10
2954.131500703958
 20
1836.406009946529
 30
9999.000000000002
 40
100.0
 41
606.0052444359278
 71
     1
 72
     1
  1
{\C256;\U+4E00\U+76D8\U+533A}
  7
楷体GB2312
 73
     1
 44
1.0
1001
ACAD
1000
MTEXTBEGIN
1070
    73
1070
     1
1070
    44
1040
1.0
1070
    74
1070
     0
1000
MTEXTEND
1000
ACAD_MTEXT_DEFINED_HEIGHT_BEGIN
1070
    46
1040
765.8457349017688
1000
ACAD_MTEXT_DEFINED_HEIGHT_END
  0
MTEXT
  5
66F4
330
1F
100
AcDbEntity
  8
0
 62
     1
 48
1.000000000000000E+16
370
    -3
100
AcDbMText
 10
2415.193551143739
 20
-3074.940498222789
 30
9999.000000000002
 40
100.0
 41
606.0052444359278
 71
     1
 72
     1
  1
{\C256;\U+4E03\U+76D8\U+533A}
  7
楷体GB2312
 73
     1
 44
1.0
1001
ACAD
1000
MTEXTBEGIN
1070
    73
1070
     1
1070
    44
1040
1.0
1070
    74
1070
     0
1000
MTEXTEND
1000
ACAD_MTEXT_DEFINED_HEIGHT_BEGIN
1070
    46
1040
765.8457349017688
1000
ACAD_MTEXT_DEFINED_HEIGHT_END
  0
LINE
  5
6921
330
1F
100
AcDbEntity
  8
图例及图签
 62
     7
370
    20
100
AcDbLine
 10
3839.3056765778
 20
-3402.488433549264
 30
0.0
 11
5239.30567661936
 21
-3402.488433549264
 31
0.0
  0
LINE
  5
6922
330
1F
100
AcDbEntity
  8
图例及图签
 62
     7
370
    20
100
AcDbLine
 10
3839.3056765778
 20
-3582.488433549264
 30
0.0
 11
5239.30567661936
 21
-3582.488433549264
 31
0.0
  0
LWPOLYLINE
  5
6923
330
1F
100
AcDbEntity
  8
图例及图签
 62
     7
370
    40
100
AcDbPolyline
 90
        2
 70
   128
 43
0.0
 10
3839.30567661936
 20
-3312.488433549264
 10
5239.305676559755
 20
-3312.48843350456
  0
LINE
  5
6924
330
1F
100
AcDbEntity
  8
图例及图签
 62
     7
370
    20
100
AcDbLine
 10
3839.305676601491
 20
-3492.488433549264
 30
0.0
 11
5239.305676643051
 21
-3492.488433549264
 31
0.0
  0
LINE
  5
6925
330
1F
100
AcDbEntity
  8
图例及图签
 62
     7
370
    20
100
AcDbLine
 10
3839.3056765778
 20
-3672.488433549264
 30
0.0
 11
5239.30567661936
 21
-3672.488433549264
 31
0.0
  0
LWPOLYLINE
  5
6926
330
1F
100
AcDbEntity
  8
图例及图签
 62
     7
370
    40
100
AcDbPolyline
 90
        4
 70
   129
 43
0.0
 10
5239.30567661936
 20
-3762.48843350456
 10
5239.305676634262
 20
-3012.48843350456
 10
3839.30567661936
 20
-3012.488433489659
 10
3839.305676597009
 20
-3762.488433474758
  0
LWPOLYLINE
  5
6927
330
1F
100
AcDbEntity
  8
图例及图签
 62
     7
370
    40
100
AcDbPolyline
 90
        4
 70
   129
 43
0.0
 10
3839.305676563539
 20
-3012.488433608868
 10
5239.30567644433
 20
-3012.488433549263
 10
5239.305676563539
 20
-3762.48843350456
 10
3839.305676518836
 20
-3762.488433593967
  0
LWPOLYLINE
  5
6928
330
1F
100
AcDbEntity
  8
图例及图签
 62
     7
370
    40
100
AcDbPolyline
 90
        4
 70
   129
 43
0.0
 10
5239.305676563539
 20
-3762.48843350456
 10
5239.305676578441
 20
-3012.48843350456
 10
3839.305676563539
 20
-3012.488433489659
 10
3839.305676541188
 20
-3762.488433474758
  0
MTEXT
  5
6929
330
1F
100
AcDbEntity
  8
图例及图签
 62
     7
370
     0
100
AcDbMText
 10
3916.72789838712
 20
-3564.608190290989
 30
0.0
 40
36.0
 41
756.6547673406603
 71
     7
 72
     1
  1
{\fSimSun|b1|i0|c134|p2;通 风 办}
  7
HZ
 73
     1
 44
1.0
1001
ACAD
1000
MTEXTBEGIN
1070
    73
1070
     1
1070
    44
1040
1.0
1070
    74
1070
     0
1000
MTEXTEND
  0
MTEXT
  5
692A
330
1F
100
AcDbEntity
  8
图例及图签
 62
     7
370
     0
100
AcDbMText
 10
3916.72789838712
 20
-3654.608190290989
 30
0.0
 40
36.0
 41
756.6547673406603
 71
     7
 72
     1
  1
{\fSimSun|b1|i0|c134|p2;通风副总}
  7
HZ
 73
     1
 44
1.0
1001
ACAD
1000
MTEXTBEGIN
1070
    73
1070
     1
1070
    44
1040
1.0
1070
    74
1070
     0
1000
MTEXTEND
  0
MTEXT
  5
692B
330
1F
100
AcDbEntity
  8
图例及图签
 62
     7
370
     0
100
AcDbMText
 10
3916.72789838712
 20
-3384.60819029099
 30
0.0
 40
36.0
 41
756.6547673406603
 71
     7
 72
     1
  1
{\fSimSun|b1|i0|c134|p2;制    图}
  7
HZ
 73
     1
 44
1.0
1001
ACAD
1000
MTEXTBEGIN
1070
    73
1070
     1
1070
    44
1040
1.0
1070
    74
1070
     0
1000
MTEXTEND
  0
MTEXT
  5
692C
330
1F
100
AcDbEntity
  8
图例及图签
 62
     7
370
     0
100
AcDbMText
 10
3916.72789838712
 20
-3474.608190290989
 30
0.0
 40
36.0
 41
756.6547673406603
 71
     7
 72
     1
  1
{\fSimSun|b1|i0|c134|p2;审    校}
  7
HZ
 73
     1
 44
1.0
1001
ACAD
1000
MTEXTBEGIN
1070
    73
1070
     1
1070
    44
1040
1.0
1070
    74
1070
     0
1000
MTEXTEND
  0
MTEXT
  5
692D
330
1F
100
AcDbEntity
  8
图例及图签
 62
     7
370
     0
100
AcDbMText
 10
3916.72789838712
 20
-3744.608190290989
 30
0.0
 40
36.0
 41
756.6547673406603
 71
     7
 72
     1
  1
{\fSimSun|b1|i0|c134|p2;总工程师}
  7
HZ
 73
     1
 44
1.0
1001
ACAD
1000
MTEXTBEGIN
1070
    73
1070
     1
1070
    44
1040
1.0
1070
    74
1070
     0
1000
MTEXTEND
  0
MTEXT
  5
692E
330
1F
100
AcDbEntity
  8
图例及图签
 62
     7
370
     0
100
AcDbMText
 10
4616.72789838712
 20
-3744.608190290989
 30
0.0
 40
36.0
 41
756.6547673406603
 71
     7
 72
     1
  1
{\fSimSun|b1|i0|c134|p2;制图日期}
  7
HZ
 73
     1
 44
1.0
1001
ACAD
1000
MTEXTBEGIN
1070
    73
1070
     1
1070
    44
1040
1.0
1070
    74
1070
     0
1000
MTEXTEND
  0
MTEXT
  5
692F
330
1F
100
AcDbEntity
  8
图例及图签
 62
     7
370
     0
100
AcDbMText
 10
4616.72789838712
 20
-3654.608190290989
 30
0.0
 40
36.0
 41
756.6547673406603
 71
     7
 72
     1
  1
{\fSimSun|b1|i0|c134|p2;资料来源}
  7
HZ
 73
     1
 44
1.0
1001
ACAD
1000
MTEXTBEGIN
1070
    73
1070
     1
1070
    44
1040
1.0
1070
    74
1070
     0
1000
MTEXTEND
  0
MTEXT
  5
6930
330
1F
100
AcDbEntity
  8
图例及图签
 62
     7
370
     0
100
AcDbMText
 10
4616.72789838712
 20
-3564.608190290989
 30
0.0
 40
36.0
 41
756.6547673406603
 71
     7
 72
     1
  1
{\fSimSun|b1|i0|c134|p2;图    号}
  7
HZ
 73
     1
 44
1.0
1001
ACAD
1000
MTEXTBEGIN
1070
    73
1070
     1
1070
    44
1040
1.0
1070
    74
1070
     0
1000
MTEXTEND
  0
MTEXT
  5
6931
330
1F
100
AcDbEntity
  8
图例及图签
 62
     7
370
     0
100
AcDbMText
 10
4616.72789838712
 20
-3474.608190290989
 30
0.0
 40
36.0
 41
756.6547673406603
 71
     7
 72
     1
  1
{\fSimSun|b1|i0|c134|p2;比 例 尺}
  7
HZ
 73
     1
 44
1.0
1001
ACAD
1000
MTEXTBEGIN
1070
    73
1070
     1
1070
    44
1040
1.0
1070
    74
1070
     0
1000
MTEXTEND
  0
MTEXT
  5
6932
330
1F
100
AcDbEntity
  8
图例及图签
 62
     7
370
     0
100
AcDbMText
 10
4616.72789838712
 20
-3384.60819029099
 30
0.0
 40
36.0
 41
756.6547673406603
 71
     7
 72
     1
  1
{\fSimSun|b1|i0|c134|p2;矿    长}
  7
HZ
 73
     1
 44
1.0
1001
ACAD
1000
MTEXTBEGIN
1070
    73
1070
     1
1070
    44
1040
1.0
1070
    74
1070
     0
1000
MTEXTEND
  0
MTEXT
  5
6933
330
1F
100
AcDbEntity
  8
图例及图签
 62
     7
370
     0
100
AcDbMText
 10
4979.033353018529
 20
-3474.608190290989
 30
0.0
 40
36.0
 41
756.6547673406603
 71
     7
 72
     1
  1
\fSimSun|b1|i0|c134|p2;1:10000
  7
HZ
 73
     1
 44
1.0
1001
ACAD
1000
MTEXTBEGIN
1070
    73
1070
     1
1070
    44
1040
1.0
1070
    74
1070
     0
1000
MTEXTEND
  0
MTEXT
  5
6934
330
1F
100
AcDbEntity
  8
图例及图签
 62
     7
370
     0
100
AcDbMText
 10
4899.294149008476
 20
-3654.608190290989
 30
0.0
 40
36.0
 41
756.6547673406603
 71
     7
 72
     1
  1
{\fSimSun|b1|i0|c134|p2;\W0.9;布尔台矿生产办}
  7
HZ
 73
     1
 44
1.0
1001
ACAD
1000
MTEXTBEGIN
1070
    73
1070
     1
1070
    44
1040
1.0
1070
    74
1070
     0
1000
MTEXTEND
  0
MTEXT
  5
6935
330
1F
100
AcDbEntity
  8
图例及图签
 62
     0
370
     0
100
AcDbMText
 10
4903.272683992587
 20
-3744.608190246286
 30
0.0
 40
36.0
 41
756.6547673406603
 71
     7
 72
     1
  1
\fSimSun|b1|i0|c134|p2;\W0.9;2024年09月01日
  7
HZ
 73
     1
 44
1.0
1001
ACAD
1000
MTEXTBEGIN
1070
    73
1070
     1
1070
    44
1040
1.0
1070
    74
1070
     0
1000
MTEXTEND
  0
MTEXT
  5
6936
330
1F
100
AcDbEntity
  8
图例及图签
 62
     7
370
     0
100
AcDbMText
 10
4337.014461281067
 20
-3146.25062534488
 30
0.0
 40
50.0
 41
870.1716905467401
 71
     7
 72
     1
  1
{\fSimSun|b1|i0|c134|p49;神东煤炭集团布尔台煤矿}
  7
HZ
 73
     1
 44
1.0
1001
ACAD
1000
MTEXTBEGIN
1070
    73
1070
     1
1070
    44
1040
1.0
1070
    74
1070
     0
1000
MTEXTEND
  0
LINE
  5
6937
330
1F
100
AcDbEntity
  8
图例及图签
  6
ByBlock
 48
1.000000000000000E+16
370
    20
100
AcDbLine
 10
4889.430676728936
 20
-3312.363433549263
 30
0.0
 11
4889.430676780304
 21
-3762.363433593967
 31
0.0
  0
LINE
  5
6938
330
1F
100
AcDbEntity
  8
图例及图签
  6
ByBlock
 48
1.000000000000000E+16
370
    20
100
AcDbLine
 10
4539.368176650749
 20
-3312.425933549263
 30
0.0
 11
4539.368176702117
 21
-3762.425933593967
 31
0.0
  0
LINE
  5
6939
330
1F
100
AcDbEntity
  8
图例及图签
  6
ByBlock
 48
1.000000000000000E+16
370
    20
100
AcDbLine
 10
4189.305676572561
 20
-3312.488433549264
 30
0.0
 11
4189.30567662393
 21
-3762.488433593967
 31
0.0
  0
INSERT
  5
693A
330
1F
100
AcDbEntity
  8
图例及图签
  6
0a26剥蚀边界
100
AcDbBlockReference
  2
zw$78B2
 10
4040.00438851879
 20
-3115.769242389254
 30
0.0
 41
8.999999999999998
 42
8.999999999999998
 43
8.999999999999998
 50
359.9999999998371
  0
LWPOLYLINE
  5
693B
330
1F
100
AcDbEntity
  8
1000经纬网
 62
     7
370
   100
390
235
100
AcDbPolyline
 90
        5
 70
     0
 43
0.0
 10
-5388.850769786209
 20
3912.511565633959
 10
5389.305667157531
 20
3912.51156588728
 10
5389.305667299091
 20
-3912.488433791648
 10
-5388.850769658327
 20
-3912.488433910857
 10
-5388.850769842242
 20
3912.511565633959
  0
LWPOLYLINE
  5
693C
330
1F
100
AcDbEntity
  8
1000经纬网
 62
     7
370
     5
100
AcDbPolyline
 90
        4
 70
     1
 43
0.0
 10
-5238.850769777537
 20
3762.511565622784
 10
5239.30566715753
 20
3762.511565891005
 10
5239.305667299092
 20
-3762.488433795373
 10
-5238.850769658327
 20
-3762.488433907132
  0
LWPOLYLINE
  5
6B62
330
1F
100
AcDbEntity
  8
经纬网
 62
     7
370
     5
100
AcDbPolyline
 90
        2
 70
   128
 43
0.0
 10
-4881.126351353307
 20
3762.51156563194
 10
-709.9507394817574
 20
-3762.488433858827
  0
LWPOLYLINE
  5
6B63
330
1F
100
AcDbEntity
  8
经纬网
 62
     7
370
     5
100
AcDbPolyline
 90
        2
 70
   128
 43
0.0
 10
-3737.772283527391
 20
3762.511565661208
 10
-678.6680516806536
 20
-1756.258556882068
  0
LWPOLYLINE
  5
6B64
330
1F
100
AcDbEntity
  8
经纬网
 62
     7
370
     5
100
AcDbPolyline
 90
        2
 70
   128
 43
0.0
 10
-59.52482131665783
 20
-2833.188069163039
 10
455.5947823055448
 20
-3762.488433846632
  0
LWPOLYLINE
  5
6B65
330
1F
100
AcDbEntity
  8
经纬网
 62
     7
370
     5
100
AcDbPolyline
 90
        2
 70
   128
 43
0.0
 10
-2594.418215678337
 20
3762.511565690476
 10
464.2798831629461
 20
-1755.525873487964
  0
LWPOLYLINE
  5
6B66
330
1F
100
AcDbEntity
  8
经纬网
 62
     7
370
     5
100
AcDbPolyline
 90
        2
 70
   128
 43
0.0
 10
-2594.418217295339
 20
3762.511565690476
 10
1576.757396403633
 20
-3762.488433834437
  0
LINE
  5
6B67
330
1F
100
AcDbEntity
  8
经纬网
 62
     7
370
     5
100
AcDbLine
 10
-307.7100799140189
 20
3762.511565749011
 30
0.0
 11
3839.30567654249
 21
-3718.902900775282
 31
0.0
  0
LWPOLYLINE
  5
6B68
330
1F
100
AcDbEntity
  8
经纬网
 62
     7
370
     5
100
AcDbPolyline
 90
        2
 70
   128
 43
0.0
 10
835.6439879639129
 20
3762.511565778278
 10
4589.562768118352
 20
-3009.737183125838
  0
LWPOLYLINE
  5
6B69
330
1F
100
AcDbEntity
  8
经纬网
 62
     7
370
     5
100
AcDbPolyline
 90
        2
 70
   128
 43
0.0
 10
1978.99805578109
 20
3762.511565807546
 10
5239.305667268176
 20
-2119.239062296746
  0
LWPOLYLINE
  5
6B6A
330
1F
100
AcDbEntity
  8
经纬网
 62
     7
370
     5
100
AcDbPolyline
 90
        2
 70
   128
 43
0.0
 10
3122.352123622388
 20
3762.511565836817
 10
5239.305667229373
 20
-56.57372241967732
  0
LWPOLYLINE
  5
6B6B
330
1F
100
AcDbEntity
  8
经纬网
 62
     7
370
     5
100
AcDbPolyline
 90
        2
 70
   128
 43
0.0
 10
4265.706191460825
 20
3762.511565866085
 10
5239.305667190571
 20
2006.091617375177
  0
LWPOLYLINE
  5
6B6C
330
1F
100
AcDbEntity
  8
经纬网
 62
     7
370
     5
100
AcDbPolyline
 90
        2
 70
   128
 43
0.0
 10
-5238.850769728824
 20
687.7285518540966
 10
308.204624453223
 20
3762.511565764778
  0
LWPOLYLINE
  5
6B6D
330
1F
100
AcDbEntity
  8
经纬网
 62
     7
370
     5
100
AcDbPolyline
 90
        2
 70
   128
 43
0.0
 10
-5238.850769710714
 20
-455.6255159693055
 10
2370.869964207936
 20
3762.511565817579
  0
LWPOLYLINE
  5
6B6E
330
1F
100
AcDbEntity
  8
经纬网
 62
     7
370
     5
100
AcDbPolyline
 90
        2
 70
   128
 43
0.0
 10
-5238.850769692604
 20
-1598.979583853938
 10
4433.535303897892
 20
3762.511565870377
  0
LWPOLYLINE
  5
6B6F
330
1F
100
AcDbEntity
  8
经纬网
 62
     7
370
     5
100
AcDbPolyline
 90
        2
 70
   128
 43
0.0
 10
-5238.850769674487
 20
-2742.333651676999
 10
5239.305667170635
 20
3065.803303772647
  0
LWPOLYLINE
  5
6B70
330
1F
100
AcDbEntity
  8
经纬网
 62
     7
370
     5
100
AcDbPolyline
 90
        2
 70
   128
 43
0.0
 10
-2577.19641920556
 20
-3584.179531432284
 10
-757.0571819421311
 20
-2575.259877433233
  0
LWPOLYLINE
  5
6B71
330
1F
100
AcDbEntity
  8
经纬网
 62
     7
370
     5
100
AcDbPolyline
 90
        2
 70
   128
 43
0.0
 10
666.9626652690476
 20
-1755.395944325402
 10
5239.305667213657
 20
779.095168001274
  0
LWPOLYLINE
  5
6B72
330
1F
100
AcDbEntity
  8
经纬网
 62
     7
370
     5
100
AcDbPolyline
 90
        2
 70
   128
 43
0.0
 10
368.0238776373571
 20
-3064.454487955346
 10
498.3785696196264
 20
-2992.197702275738
  0
LWPOLYLINE
  5
6B73
330
1F
100
AcDbEntity
  8
经纬网
 62
     7
370
     5
100
AcDbPolyline
 90
        2
 70
   128
 43
0.0
 10
-891.262695323874
 20
-3762.488433860762
 10
498.3785696196264
 20
-2992.197702275738
  0
LWPOLYLINE
  5
6B74
330
1F
100
AcDbEntity
  8
经纬网
 62
     7
370
     5
100
AcDbPolyline
 90
        2
 70
   128
 43
0.0
 10
1524.861102359265
 20
-2423.209143271818
 10
5239.305667235164
 20
-364.2588998708116
  0
LWPOLYLINE
  5
6B75
330
1F
100
AcDbEntity
  8
经纬网
 62
     7
370
     5
100
AcDbPolyline
 90
        2
 70
   128
 43
0.0
 10
1171.40264412468
 20
-3762.488433838763
 10
5239.305667256672
 20
-1507.612967698903
  0
LWPOLYLINE
  5
6B76
330
1F
100
AcDbEntity
  8
经纬网
 62
     7
370
     5
100
AcDbPolyline
 90
        2
 70
   128
 43
0.0
 10
3234.067984132909
 20
-3762.488433816761
 10
3839.305676551185
 20
-3426.999702558314
  0
LWPOLYLINE
  5
6B77
330
1F
100
AcDbEntity
  8
经纬网
 62
     7
370
     5
100
AcDbPolyline
 90
        2
 70
   128
 43
0.0
 10
4587.103800877446
 20
-3012.488433497619
 10
5239.305667278181
 20
-2650.967035501212
  0
LWPOLYLINE
  5
6B78
330
1F
100
AcDbEntity
  8
经纬网
 62
     7
370
     5
100
AcDbPolyline
 90
        2
 70
   128
 43
0.0
 10
-5238.850769746941
 20
1831.082619724221
 10
-1754.460715310264
 20
3762.511565711976
  0
LWPOLYLINE
  5
6B79
330
1F
100
AcDbEntity
  8
经纬网
 62
     7
370
     5
100
AcDbPolyline
 90
        2
 70
   128
 43
0.0
 10
-5238.850769765051
 20
2974.436687570379
 10
-3817.126054998649
 20
3762.511565659178
  0
LINE
  5
6B7A
330
1F
100
AcDbEntity
  8
经纬网
 62
     7
370
     5
100
AcDbLine
 10
-5238.850769722407
 20
282.5328210919879
 30
0.0
 11
-3310.74008316178
 21
-3195.870935140635
 31
0.0
  0
LINE
  5
6B7B
330
1F
100
AcDbEntity
  8
经纬网
 62
     7
370
     5
100
AcDbLine
 10
-5238.85076968973
 20
-1780.132518345395
 30
0.0
 11
-4454.14645238453
 21
-3195.776580788773
 31
0.0
  0
TEXT
  5
6B7C
330
1F
100
AcDbEntity
  8
经纬网
 62
     7
370
    20
100
AcDbText
 10
-5277.456932967632
 20
2384.34281515129
 30
0.0
 40
15.0
  1
64500
 50
298.9999999985728
  7
经纬网
100
AcDbText
  0
TEXT
  5
6B7D
330
1F
100
AcDbEntity
  8
经纬网
 62
     7
370
    20
100
AcDbText
 10
-4908.024905828863
 20
3810.258467251287
 30
0.0
 40
15.0
  1
65500
 50
298.9999999985728
  7
经纬网
100
AcDbText
  0
TEXT
  5
6B7E
330
1F
100
AcDbEntity
  8
经纬网
 62
     7
370
    20
100
AcDbText
 10
-729.0520693322851
 20
-3773.700306750419
 30
0.0
 40
15.0
  1
65500
 50
298.9999999985728
  7
经纬网
100
AcDbText
  0
TEXT
  5
6B7F
330
1F
100
AcDbEntity
  8
经纬网
 62
     7
370
    20
100
AcDbText
 10
-3764.658154709368
 20
3811.622044829504
 30
0.0
 40
15.0
  1
66500
 50
298.9999999985728
  7
经纬网
100
AcDbText
  0
TEXT
  5
6B80
330
1F
100
AcDbEntity
  8
经纬网
 62
     7
370
    20
100
AcDbText
 10
-2602.122129498154
 20
3812.001313952581
 30
0.0
 40
15.0
  1
67500
 50
298.9999999985728
  7
经纬网
100
AcDbText
  0
TEXT
  5
6B81
330
1F
100
AcDbEntity
  8
经纬网
 62
     7
370
    20
100
AcDbText
 10
-1477.151991790264
 20
3810.095844840482
 30
0.0
 40
15.0
  1
68500
 50
298.9999999985728
  7
经纬网
100
AcDbText
  0
TEXT
  5
6B82
330
1F
100
AcDbEntity
  8
经纬网
 62
     7
370
    20
100
AcDbText
 10
-334.334434105187
 20
3809.122865708397
 30
0.0
 40
15.0
  1
69500
 50
298.9999999985728
  7
经纬网
100
AcDbText
  0
TEXT
  5
6B83
330
1F
100
AcDbEntity
  8
经纬网
 62
     7
370
    20
100
AcDbText
 10
810.3017026948636
 20
3809.296892890559
 30
0.0
 40
15.0
  1
70500
 50
298.9999999985728
  7
经纬网
100
AcDbText
  0
TEXT
  5
6B84
330
1F
100
AcDbEntity
  8
经纬网
 62
     7
370
    20
100
AcDbText
 10
-5289.409956803649
 20
655.146849164591
 30
0.0
 40
15.0
  1
10000
 50
29.00000042705356
  7
经纬网
100
AcDbText
  0
TEXT
  5
6B85
330
1F
100
AcDbEntity
  8
经纬网
 62
     7
370
    20
100
AcDbText
 10
313.1718225645727
 20
3765.2649286481
 30
0.0
 40
15.0
  1
10000
 50
29.00000042705356
  7
经纬网
100
AcDbText
  0
TEXT
  5
6B86
330
1F
100
AcDbEntity
  8
经纬网
 62
     7
370
    20
100
AcDbText
 10
-5284.167177630692
 20
-485.3177484182261
 30
0.0
 40
15.0
  1
11000
 50
29.00000042705356
  7
经纬网
100
AcDbText
  0
TEXT
  5
6B87
330
1F
100
AcDbEntity
  8
经纬网
 62
     7
370
    20
100
AcDbText
 10
2375.837162347407
 20
3765.264928692804
 30
0.0
 40
15.0
  1
11000
 50
29.00000042705356
  7
经纬网
100
AcDbText
  0
TEXT
  5
6B88
330
1F
100
AcDbEntity
  8
经纬网
 62
     7
370
    20
100
AcDbText
 10
-5287.305558128386
 20
-1628.435771046354
 30
0.0
 40
15.0
  1
12000
 50
29.00000042705356
  7
经纬网
100
AcDbText
  0
TEXT
  5
6B89
330
1F
100
AcDbEntity
  8
经纬网
 62
     7
370
    20
100
AcDbText
 10
-5286.686060121386
 20
-2770.203658098504
 30
0.0
 40
15.0
  1
13000
 50
29.00000042705356
  7
经纬网
100
AcDbText
  0
TEXT
  5
6B8A
330
1F
100
AcDbEntity
  8
经纬网
 62
     7
370
    20
100
AcDbText
 10
-5093.76312579366
 20
-3805.059114162486
 30
0.0
 40
15.0
  1
14000
 50
29.00000042705356
  7
经纬网
100
AcDbText
  0
TEXT
  5
6B8B
330
1F
100
AcDbEntity
  8
经纬网
 62
     7
370
    20
100
AcDbText
 10
-924.9592493036562
 20
-3809.034263672612
 30
0.0
 40
15.0
  1
16000
 50
29.00000042705356
  7
经纬网
100
AcDbText
  0
TEXT
  5
6B8C
330
1F
100
AcDbEntity
  8
经纬网
 62
     7
370
    20
100
AcDbText
 10
-5284.263669354945
 20
1803.911235144213
 30
0.0
 40
15.0
  1
09000
 50
29.00000042705356
  7
经纬网
100
AcDbText
  0
TEXT
  5
6B8D
330
1F
100
AcDbEntity
  8
经纬网
 62
     7
370
    20
100
AcDbText
 10
-5285.787270126968
 20
2945.419095942602
 30
0.0
 40
15.0
  1
08000
 50
29.00000042705356
  7
经纬网
100
AcDbText
  0
TEXT
  5
6B8E
330
1F
100
AcDbEntity
  8
经纬网
 62
     7
370
    20
100
AcDbText
 10
-5278.031326307087
 20
323.2814961204685
 30
0.0
 40
15.0
  1
63500
 50
298.9999999985728
  7
经纬网
100
AcDbText
  0
TEXT
  5
6B8F
330
1F
100
AcDbEntity
  8
经纬网
 62
     7
370
    20
100
AcDbText
 10
-5276.56997793737
 20
-1740.519643770679
 30
0.0
 40
15.0
  1
62500
 50
298.9999999985728
  7
经纬网
100
AcDbText
  0
TEXT
  5
6B90
330
1F
100
AcDbEntity
  8
经纬网
 62
     7
370
    20
100
AcDbText
 10
-1763.673373876243
 20
3769.944565990792
 30
0.0
 40
15.0
  1
09000
 50
29.00000042705356
  7
经纬网
100
AcDbText
  0
TEXT
  5
6B91
330
1F
100
AcDbEntity
  8
经纬网
 62
     7
370
    20
100
AcDbText
 10
-3812.1588570607
 20
3765.264928428308
 30
0.0
 40
15.0
  1
08000
 50
29.00000042705356
  7
经纬网
100
AcDbText
  0
TEXT
  5
6B92
330
1F
100
AcDbEntity
  8
经纬网
 62
     7
370
    20
100
AcDbText
 10
-4160.070811574938
 20
-3772.715839444867
 30
0.0
 40
15.0
  1
62500
 50
298.9999999985728
  7
经纬网
100
AcDbText
  0
TEXT
  5
6B93
330
1F
100
AcDbEntity
  8
经纬网
 62
     7
370
    20
100
AcDbText
 10
3851.978899808417
 20
-3777.135659057941
 30
0.0
 40
15.0
  1
69500
 50
298.9999999985728
  7
经纬网
100
AcDbText
  0
TEXT
  5
6B94
330
1F
100
AcDbEntity
  8
经纬网
 62
     7
370
    20
100
AcDbText
 10
5248.381244206552
 20
3072.382546971735
 30
0.0
 40
15.0
  1
13000
 50
29.00000042705356
  7
经纬网
100
AcDbText
  0
TEXT
  5
6B95
330
1F
100
AcDbEntity
  8
经纬网
 62
     7
370
    20
100
AcDbText
 10
5246.706497869016
 20
1931.494809135279
 30
0.0
 40
15.0
  1
14000
 50
29.00000042705356
  7
经纬网
100
AcDbText
  0
TEXT
  5
6B96
330
1F
100
AcDbEntity
  8
经纬网
 62
     7
370
    20
100
AcDbText
 10
5249.180083627941
 20
786.9305691208328
 30
0.0
 40
15.0
  1
15000
 50
29.00000042705356
  7
经纬网
100
AcDbText
  0
TEXT
  5
6B97
330
1F
100
AcDbEntity
  8
经纬网
 62
     7
370
    20
100
AcDbText
 10
5249.732683828128
 20
-354.8829367356693
 30
0.0
 40
15.0
  1
16000
 50
29.00000042705356
  7
经纬网
100
AcDbText
  0
TEXT
  5
6B98
330
1F
100
AcDbEntity
  8
经纬网
 62
     7
370
    20
100
AcDbText
 10
5248.494104929484
 20
-1500.863238153731
 30
0.0
 40
15.0
  1
17000
 50
29.00000042705356
  7
经纬网
100
AcDbText
  0
TEXT
  5
6B99
330
1F
100
AcDbEntity
  8
经纬网
 62
     7
370
    20
100
AcDbText
 10
5250.585475337814
 20
-2642.687911716238
 30
0.0
 40
15.0
  1
18000
 50
29.00000042705356
  7
经纬网
100
AcDbText
  0
TEXT
  5
6B9A
330
1F
100
AcDbEntity
  8
经纬网
 62
     7
370
    20
100
AcDbText
 10
4241.646279515594
 20
3811.800497123824
 30
0.0
 40
15.0
  1
73500
 50
298.9999999985728
  7
经纬网
100
AcDbText
  0
TEXT
  5
6B9B
330
1F
100
AcDbEntity
  8
经纬网
 62
     7
370
    20
100
AcDbText
 10
3096.092104898662
 20
3812.930839506761
 30
0.0
 40
15.0
  1
72500
 50
298.9999999985728
  7
经纬网
100
AcDbText
  0
TEXT
  5
6B9C
330
1F
100
AcDbEntity
  8
经纬网
 62
     7
370
    20
100
AcDbText
 10
1952.806296305627
 20
3809.412538776026
 30
0.0
 40
15.0
  1
71500
 50
298.9999999985728
  7
经纬网
100
AcDbText
  0
TEXT
  5
6B9D
330
1F
100
AcDbEntity
  8
经纬网
 62
     7
370
    20
100
AcDbText
 10
4438.50250212279
 20
3765.264928852991
 30
0.0
 40
15.0
  1
12000
 50
29.00000042705356
  7
经纬网
100
AcDbText
  0
TEXT
  5
6B9E
330
1F
100
AcDbEntity
  8
经纬网
 62
     7
370
    20
100
AcDbText
 10
4253.993924157589
 20
3817.247318675594
 30
0.0
 40
15.0
  1
43
 50
298.9999999985728
  7
经纬网
100
AcDbText
  0
TEXT
  5
6B9F
330
1F
100
AcDbEntity
  8
经纬网
 62
     7
370
    20
100
AcDbText
 10
-4893.430448887973
 20
3816.815534224586
 30
0.0
 40
15.0
  1
43
 50
298.9999999985728
  7
经纬网
100
AcDbText
  0
TEXT
  5
6BA0
330
1F
100
AcDbEntity
  8
经纬网
 62
     7
370
    20
100
AcDbText
 10
5258.826760974835
 20
-2620.940188807383
 30
0.0
 40
15.0
  1
374
 50
29.00000042705356
  7
经纬网
100
AcDbText
  0
TEXT
  5
6BA1
330
1F
100
AcDbEntity
  8
经纬网
 62
     7
370
    20
100
AcDbText
 10
-5289.030830694466
 20
2957.762792771534
 30
0.0
 40
15.0
  1
374
 50
29.00000042705356
  7
经纬网
100
AcDbText
  0
TEXT
  5
6BA2
330
1F
100
AcDbEntity
  8
经纬网
 62
     7
370
    20
100
AcDbText
 10
-3818.529554842143
 20
3777.621637841539
 30
0.0
 40
15.0
  1
374
 50
29.00000042705356
  7
经纬网
100
AcDbText
  0
TEXT
  5
6BA3
330
1F
100
AcDbEntity
  8
经纬网
 62
     7
370
    20
100
AcDbText
 10
4432.104240955681
 20
3777.706907534824
 30
0.0
 40
15.0
  1
374
 50
29.00000042705356
  7
经纬网
100
AcDbText
  0
LINE
  5
6BA4
330
1F
100
AcDbEntity
  8
经纬网
 62
     7
370
     5
100
AcDbLine
 10
-5238.850769755083
 20
2345.198160467845
 30
0.0
 11
-1853.304807386145
 21
-3762.488433871021
 31
0.0
  0
TEXT
  5
6BA5
330
1F
100
AcDbEntity
  8
经纬网
 62
     7
370
    20
100
AcDbText
 10
-5292.774662977188
 20
-2758.080463709458
 30
0.0
 40
15.0
  1
374
 50
29.00000042705356
  7
经纬网
100
AcDbText
  0
INSERT
  5
6BA6
330
1F
100
AcDbEntity
  8
经纬网
100
AcDbBlockReference
  2
W指北针
 10
4883.445739149027
 20
3507.893365624289
 30
0.0
 41
4.999999999999998
 42
5.00000000728857
 43
5.0
 50
298.9999999574775
  0
TEXT
  5
6BA7
330
1F
100
AcDbEntity
  8
经纬网
 62
     7
370
    20
100
AcDbText
 10
-1869.135752466567
 20
-3775.365846627606
 30
0.0
 40
15.0
  1
64500
 50
298.9999999985728
  7
经纬网
100
AcDbText
  0
LWPOLYLINE
  5
6BAA
330
1F
100
AcDbEntity
  8
经纬网
 62
     7
370
     5
100
AcDbPolyline
 90
        2
 70
   128
 43
0.0
 10
-682.0691006422439
 20
-1752.274277223779
 10
-45.98223972473533
 20
-2858.794785744085
  0
LWPOLYLINE
  5
6BAD
330
1F
100
AcDbEntity
  8
经纬网
 62
     7
370
     5
100
AcDbPolyline
 90
        2
 70
   128
 43
0.0
 10
309.6433248959711
 20
-3096.198549144832
 10
1792.110901953561
 20
-2275.191374319216
  0
LINE
  5
6BB6
330
1F
100
AcDbEntity
  8
经纬网
 62
     7
370
     5
100
AcDbLine
 10
-1451.064147797459
 20
3762.511565719743
 30
0.0
 11
2720.111464105254
 21
-3762.488433822243
 31
0.0
  0
LWPOLYLINE
  5
6BB7
330
1F
100
AcDbEntity
  8
经纬网
 62
     7
370
     5
100
AcDbPolyline
 90
        2
 70
   128
 43
0.0
 10
-3994.286588010351
 20
-3195.814528609094
 10
5239.30566719215
 20
1922.449235895282
  0
TEXT
  5
6BB8
330
1F
100
AcDbEntity
  8
经纬网
 62
     7
370
    20
100
AcDbText
 10
5258.782548812297
 20
3098.616492986778
 30
0.0
 40
15.0
  1
374
 50
29.00000042705356
  7
经纬网
100
AcDbText
  0
TEXT
  5
6BB9
330
1F
100
AcDbEntity
  8
经纬网
 62
     7
370
    20
100
AcDbText
 10
5242.672245972053
 20
2013.975208960791
 30
0.0
 40
15.0
  1
73500
 50
298.9999999985728
  7
经纬网
100
AcDbText
  0
TEXT
  5
6BBA
330
1F
100
AcDbEntity
  8
经纬网
 62
     7
370
    20
100
AcDbText
 10
5254.43158704807
 20
2020.179994374831
 30
0.0
 40
15.0
  1
43
 50
298.9999999985728
  7
经纬网
100
AcDbText
  0
TEXT
  5
6BBB
330
1F
100
AcDbEntity
  8
经纬网
 62
     7
370
    20
100
AcDbText
 10
-3019.938797626923
 20
-3770.263313945804
 30
0.0
 40
15.0
  1
63500
 50
298.9999999985728
  7
经纬网
100
AcDbText
  0
TEXT
  5
6BBC
330
1F
100
AcDbEntity
  8
经纬网
 62
     7
370
    20
100
AcDbText
 10
-2979.929840120904
 20
-3804.045242466155
 30
0.0
 40
15.0
  1
15000
 50
29.00000042705356
  7
经纬网
100
AcDbText
  0
TEXT
  5
6BBD
330
1F
100
AcDbEntity
  8
经纬网
 62
     7
370
    20
100
AcDbText
 10
414.0112077551075
 20
-3772.746588091464
 30
0.0
 40
15.0
  1
66500
 50
298.999999998573
  7
经纬网
100
AcDbText
1001
ZWMCAD_GENSCA_13_
1070
     1
1040
1.0
1001
ZWMCAD_GENSTANDARDFRAME_13_
1070
   410
1000
GB
1070
   411
1000
ZwmFrameMain_
  0
TEXT
  5
6BBE
330
1F
100
AcDbEntity
  8
经纬网
 62
     7
370
    20
100
AcDbText
 10
1558.844982424792
 20
-3778.510726621596
 30
0.0
 40
15.0
  1
67500
 50
298.999999998573
  7
经纬网
100
AcDbText
1001
ZWMCAD_GENSCA_13_
1070
     1
1040
1.0
1001
ZWMCAD_GENSTANDARDFRAME_13_
1070
   410
1000
GB
1070
   411
1000
ZwmFrameMain_
  0
TEXT
  5
6BBF
330
1F
100
AcDbEntity
  8
经纬网
 62
     7
370
    20
100
AcDbText
 10
2701.30344194739
 20
-3772.646903144515
 30
0.0
 40
15.0
  1
68500
 50
298.9999999985728
  7
经纬网
100
AcDbText
  0
TEXT
  5
6BC0
330
1F
100
AcDbEntity
  8
经纬网
 62
     7
370
    20
100
AcDbText
 10
3179.73302081166
 20
-3817.371410381783
 30
0.0
 40
15.0
  1
18000
 50
29.00000042705356
  7
经纬网
100
AcDbText
  0
TEXT
  5
6BC1
330
1F
100
AcDbEntity
  8
经纬网
 62
     7
370
    20
100
AcDbText
 10
3187.974306448681
 20
-3795.623687472929
 30
0.0
 40
15.0
  1
374
 50
29.00000042705356
  7
经纬网
100
AcDbText
  0
TEXT
  5
6BC2
330
1F
100
AcDbEntity
  8
经纬网
 62
     7
370
    20
100
AcDbText
 10
1143.780338688715
 20
-3804.871306271058
 30
0.0
 40
15.0
  1
17000
 50
29.00000042705361
  7
经纬网
100
AcDbText
1001
ZWMCAD_GENSCA_13_
1070
     1
1040
1.0
1001
ZWMCAD_GENSTANDARDFRAME_13_
1070
   410
1000
GB
1070
   411
1000
ZwmFrameMain_
  0
LWPOLYLINE
  5
6BC3
330
1F
100
AcDbEntity
  8
经纬网
 62
     7
370
     5
100
AcDbPolyline
 90
        2
 70
   128
 43
0.0
 10
-4881.126446167067
 20
3762.51156563194
 10
-1096.876197309759
 20
-3064.456601250679
  0
LWPOLYLINE
  5
6BC4
330
1F
100
AcDbEntity
  8
经纬网
 62
     7
370
     5
100
AcDbPolyline
 90
        2
 70
   128
 43
0.0
 10
-3737.772378341151
 20
3762.511565661208
 10
-678.6681464254525
 20
-1756.25855700648
  0
LWPOLYLINE
  5
6BC6
330
1F
100
AcDbEntity
  8
经纬网
 62
     7
370
     5
100
AcDbPolyline
 90
        2
 70
   128
 43
0.0
 10
-2594.418310492098
 20
3762.511565690476
 10
464.2797884181472
 20
-1755.525873612375
  0
LWPOLYLINE
  5
6BC7
330
1F
100
AcDbEntity
  8
经纬网
 62
     7
370
     5
100
AcDbPolyline
 90
        2
 70
   128
 43
0.0
 10
1069.364459088478
 20
-2847.127515669675
 10
1367.365192814204
 20
-3384.735070187361
  0
LWPOLYLINE
  5
6BC9
330
1F
100
AcDbEntity
  8
经纬网
 62
     7
370
     5
100
AcDbPolyline
 90
        2
 70
   128
 43
0.0
 10
834.117678923938
 20
3765.264929127186
 10
835.6438931501525
 20
3762.511565778278
  0
LWPOLYLINE
  5
6BCA
330
1F
100
AcDbEntity
  8
经纬网
 62
     7
370
     5
100
AcDbPolyline
 90
        2
 70
   128
 43
0.0
 10
1978.99796096733
 20
3762.511565807546
 10
4740.050219325754
 20
-1218.558563161404
  0
LWPOLYLINE
  5
6BCB
330
1F
100
AcDbEntity
  8
经纬网
 62
     7
370
     5
100
AcDbPolyline
 90
        2
 70
   128
 43
0.0
 10
3122.352028808628
 20
3762.511565836813
 10
4740.05021940771
 20
844.1067764575173
  0
LWPOLYLINE
  5
6BCC
330
1F
100
AcDbEntity
  8
经纬网
 62
     7
370
     5
100
AcDbPolyline
 90
        2
 70
   128
 43
0.0
 10
4265.706096647065
 20
3762.511565866081
 10
4740.050219430062
 20
2906.772116046636
  0
LWPOLYLINE
  5
6BCD
330
1F
100
AcDbEntity
  8
经纬网
 62
     7
370
     5
100
AcDbPolyline
 90
        2
 70
   128
 43
0.0
 10
-5238.106217862632
 20
688.1413160862912
 10
308.2045299328729
 20
3762.511565764778
  0
LWPOLYLINE
  5
6BCE
330
1F
100
AcDbEntity
  8
经纬网
 62
     7
370
     5
100
AcDbPolyline
 90
        2
 70
   128
 43
0.0
 10
-5238.106217840281
 20
-455.2127517347644
 10
2370.869869687578
 20
3762.511565817576
  0
LWPOLYLINE
  5
6BCF
330
1F
100
AcDbEntity
  8
经纬网
 62
     7
370
     5
100
AcDbPolyline
 90
        2
 70
   128
 43
0.0
 10
-5238.106217788127
 20
-1598.566819600523
 10
4433.535209377541
 20
3762.511565870381
  0
LWPOLYLINE
  5
6BD0
330
1F
100
AcDbEntity
  8
经纬网
 62
     7
370
     5
100
AcDbPolyline
 90
        2
 70
   128
 43
0.0
 10
-4267.338814192977
 20
-2203.815728768469
 10
4740.05021940026
 20
2789.061542481422
  0
LWPOLYLINE
  5
6BD2
330
1F
100
AcDbEntity
  8
经纬网
 62
     7
370
     5
100
AcDbPolyline
 90
        2
 70
   128
 43
0.0
 10
666.9625705242488
 20
-1755.395944449813
 10
4740.050219370458
 20
502.3534066679467
  0
LWPOLYLINE
  5
6BD3
330
1F
100
AcDbEntity
  8
经纬网
 62
     7
370
     5
100
AcDbPolyline
 90
        2
 70
   128
 43
0.0
 10
368.0237828925583
 20
-3064.454488079757
 10
498.3784748748275
 20
-2992.197702400149
  0
LWPOLYLINE
  5
6BD4
330
1F
100
AcDbEntity
  8
经纬网
 62
     7
370
     5
100
AcDbPolyline
 90
        2
 70
   128
 43
0.0
 10
368.0237828925583
 20
-3064.454488079757
 10
498.3784748748275
 20
-2992.197702400149
  0
LWPOLYLINE
  5
6BD5
330
1F
100
AcDbEntity
  8
经纬网
 62
     7
370
     5
100
AcDbPolyline
 90
        2
 70
   128
 43
0.0
 10
1524.861007614467
 20
-2423.20914339623
 10
4740.050219355556
 20
-641.0006612201641
  0
LWPOLYLINE
  5
6BD6
330
1F
100
AcDbEntity
  8
经纬网
 62
     7
370
     5
100
AcDbPolyline
 90
        2
 70
   128
 43
0.0
 10
1852.88765741739
 20
-3384.735070150109
 10
4740.050219333205
 20
-1784.354729074747
  0
LWPOLYLINE
  5
6BD7
330
1F
100
AcDbEntity
  8
经纬网
 62
     7
370
     5
100
AcDbPolyline
 90
        2
 70
   128
 43
0.0
 10
4592.067093229327
 20
-3009.737183227898
 10
4755.26263496134
 20
-2919.276417270065
  0
LWPOLYLINE
  5
6BD8
330
1F
100
AcDbEntity
  8
经纬网
 62
     7
370
     5
100
AcDbPolyline
 90
        2
 70
   128
 43
0.0
 10
-5238.106217922237
 20
1831.495383933424
 10
-1754.460809830622
 20
3762.511565711976
  0
LWPOLYLINE
  5
6BD9
330
1F
100
AcDbEntity
  8
经纬网
 62
     7
370
     5
100
AcDbPolyline
 90
        2
 70
   128
 43
0.0
 10
-5238.10621795204
 20
2974.849451773106
 10
-3817.126149519
 20
3762.511565659178
  0
LINE
  5
6BDA
330
1F
100
AcDbEntity
  8
经纬网
 62
     7
370
     5
100
AcDbLine
 10
-5238.106217877533
 20
281.1894429589202
 30
0.0
 11
-3549.878314734962
 21
-2764.454316291721
 31
0.0
  0
LINE
  5
6BDB
330
1F
100
AcDbEntity
  8
经纬网
 62
     7
370
     5
100
AcDbLine
 10
-5238.106217773225
 20
-1781.475896607847
 30
0.0
 11
-5003.999426068332
 21
-2203.815728753568
 31
0.0
  0
TEXT
  5
6BDC
330
1F
100
AcDbEntity
  8
经纬网
 62
     7
370
    20
100
AcDbText
 10
-5277.457027712431
 20
2384.342815026878
 30
0.0
 40
15.0
  1
64500
 50
298.9999999985728
  7
经纬网
100
AcDbText
  0
TEXT
  5
6BDD
330
1F
100
AcDbEntity
  8
经纬网
 62
     7
370
    20
100
AcDbText
 10
-4908.025000573662
 20
3810.258467126875
 30
0.0
 40
15.0
  1
65500
 50
298.9999999985728
  7
经纬网
100
AcDbText
  0
TEXT
  5
6BDE
330
1F
100
AcDbEntity
  8
经纬网
 62
     7
370
    20
100
AcDbText
 10
-3764.658249454168
 20
3811.622044705092
 30
0.0
 40
15.0
  1
66500
 50
298.9999999985728
  7
经纬网
100
AcDbText
  0
TEXT
  5
6BDF
330
1F
100
AcDbEntity
  8
经纬网
 62
     7
370
    20
100
AcDbText
 10
-2602.122224242953
 20
3812.001313828169
 30
0.0
 40
15.0
  1
67500
 50
298.9999999985728
  7
经纬网
100
AcDbText
  0
TEXT
  5
6BE0
330
1F
100
AcDbEntity
  8
经纬网
 62
     7
370
    20
100
AcDbText
 10
-1477.152086535063
 20
3810.095844716072
 30
0.0
 40
15.0
  1
68500
 50
298.9999999985728
  7
经纬网
100
AcDbText
  0
TEXT
  5
6BE1
330
1F
100
AcDbEntity
  8
经纬网
 62
     7
370
    20
100
AcDbText
 10
-334.3345288499859
 20
3809.122865583985
 30
0.0
 40
15.0
  1
69500
 50
298.9999999985728
  7
经纬网
100
AcDbText
  0
TEXT
  5
6BE2
330
1F
100
AcDbEntity
  8
经纬网
 62
     7
370
    20
100
AcDbText
 10
810.3016079500648
 20
3809.296892766147
 30
0.0
 40
15.0
  1
70500
 50
298.9999999985728
  7
经纬网
100
AcDbText
  0
TEXT
  5
6BE3
330
1F
100
AcDbEntity
  8
经纬网
 62
     7
370
    20
100
AcDbText
 10
-5289.410051548448
 20
655.1468490401794
 30
0.0
 40
15.0
  1
10000
 50
29.00000042705356
  7
经纬网
100
AcDbText
  0
TEXT
  5
6BE4
330
1F
100
AcDbEntity
  8
经纬网
 62
     7
370
    20
100
AcDbText
 10
313.1717278197739
 20
3765.264928523688
 30
0.0
 40
15.0
  1
10000
 50
29.00000042705356
  7
经纬网
100
AcDbText
  0
TEXT
  5
6BE5
330
1F
100
AcDbEntity
  8
经纬网
 62
     7
370
    20
100
AcDbText
 10
-5284.167272375491
 20
-485.3177485426376
 30
0.0
 40
15.0
  1
11000
 50
29.00000042705356
  7
经纬网
100
AcDbText
  0
TEXT
  5
6BE6
330
1F
100
AcDbEntity
  8
经纬网
 62
     7
370
    20
100
AcDbText
 10
2375.837067602608
 20
3765.264928568392
 30
0.0
 40
15.0
  1
11000
 50
29.00000042705356
  7
经纬网
100
AcDbText
  0
TEXT
  5
6BE7
330
1F
100
AcDbEntity
  8
经纬网
 62
     7
370
    20
100
AcDbText
 10
-5287.305652873185
 20
-1628.435771170766
 30
0.0
 40
15.0
  1
12000
 50
29.00000042705356
  7
经纬网
100
AcDbText
  0
TEXT
  5
6BE8
330
1F
100
AcDbEntity
  8
经纬网
 62
     7
370
    20
100
AcDbText
 10
-5286.686154866186
 20
-2770.203658222915
 30
0.0
 40
15.0
  1
13000
 50
29.00000042705356
  7
经纬网
100
AcDbText
  0
TEXT
  5
6BE9
330
1F
100
AcDbEntity
  8
经纬网
 62
     7
370
    20
100
AcDbText
 10
-5284.263764099744
 20
1803.911235019802
 30
0.0
 40
15.0
  1
09000
 50
29.00000042705356
  7
经纬网
100
AcDbText
  0
TEXT
  5
6BEA
330
1F
100
AcDbEntity
  8
经纬网
 62
     7
370
    20
100
AcDbText
 10
-5285.684218959477
 20
2374.800897967308
 30
0.0
 40
15.0
  1
08500
 50
29.00000042705356
  7
经纬网
100
AcDbText
  0
TEXT
  5
6BEB
330
1F
100
AcDbEntity
  8
经纬网
 62
     7
370
    20
100
AcDbText
 10
-5285.787364871767
 20
2945.419095818191
 30
0.0
 40
15.0
  1
08000
 50
29.00000042705356
  7
经纬网
100
AcDbText
  0
TEXT
  5
6BEC
330
1F
100
AcDbEntity
  8
经纬网
 62
     7
370
    20
100
AcDbText
 10
-5278.031421051887
 20
323.281495996057
 30
0.0
 40
15.0
  1
63500
 50
298.9999999985728
  7
经纬网
100
AcDbText
  0
TEXT
  5
6BED
330
1F
100
AcDbEntity
  8
经纬网
 62
     7
370
    20
100
AcDbText
 10
-5276.570072682169
 20
-1740.519643895091
 30
0.0
 40
15.0
  1
62500
 50
298.9999999985728
  7
经纬网
100
AcDbText
  0
TEXT
  5
6BEE
330
1F
100
AcDbEntity
  8
经纬网
 62
     7
370
    20
100
AcDbText
 10
-1763.673468621042
 20
3769.94456586638
 30
0.0
 40
15.0
  1
09000
 50
29.00000042705356
  7
经纬网
100
AcDbText
  0
TEXT
  5
6BEF
330
1F
100
AcDbEntity
  8
经纬网
 62
     7
370
    20
100
AcDbText
 10
-3812.158951805499
 20
3765.264928303896
 30
0.0
 40
15.0
  1
08000
 50
29.00000042705356
  7
经纬网
100
AcDbText
  0
TEXT
  5
6BF0
330
1F
100
AcDbEntity
  8
经纬网
 62
     7
370
    20
100
AcDbText
 10
4241.646184770796
 20
3811.800496999412
 30
0.0
 40
15.0
  1
73500
 50
298.9999999985728
  7
经纬网
100
AcDbText
  0
TEXT
  5
6BF1
330
1F
100
AcDbEntity
  8
经纬网
 62
     7
370
    20
100
AcDbText
 10
3096.092010153864
 20
3812.93083938235
 30
0.0
 40
15.0
  1
72500
 50
298.9999999985728
  7
经纬网
100
AcDbText
  0
TEXT
  5
6BF2
330
1F
100
AcDbEntity
  8
经纬网
 62
     7
370
    20
100
AcDbText
 10
1952.806201560828
 20
3809.412538651615
 30
0.0
 40
15.0
  1
71500
 50
298.9999999985728
  7
经纬网
100
AcDbText
  0
TEXT
  5
6BF3
330
1F
100
AcDbEntity
  8
经纬网
 62
     7
370
    20
100
AcDbText
 10
4438.502407377991
 20
3765.26492872858
 30
0.0
 40
15.0
  1
12000
 50
29.00000042705356
  7
经纬网
100
AcDbText
  0
TEXT
  5
6BF4
330
1F
100
AcDbEntity
  8
经纬网
 62
     7
370
    20
100
AcDbText
 10
4253.993829412791
 20
3817.247318551182
 30
0.0
 40
15.0
  1
43
 50
298.9999999985728
  7
经纬网
100
AcDbText
  0
TEXT
  5
6BF5
330
1F
100
AcDbEntity
  8
经纬网
 62
     7
370
    20
100
AcDbText
 10
-4893.430543632772
 20
3816.815534100174
 30
0.0
 40
15.0
  1
43
 50
298.9999999985728
  7
经纬网
100
AcDbText
  0
TEXT
  5
6BF6
330
1F
100
AcDbEntity
  8
经纬网
 62
     7
370
    20
100
AcDbText
 10
-5289.030925439266
 20
2957.762792647122
 30
0.0
 40
15.0
  1
374
 50
29.00000042705356
  7
经纬网
100
AcDbText
  0
TEXT
  5
6BF7
330
1F
100
AcDbEntity
  8
经纬网
 62
     7
370
    20
100
AcDbText
 10
-3818.529649586942
 20
3777.621637717127
 30
0.0
 40
15.0
  1
374
 50
29.00000042705356
  7
经纬网
100
AcDbText
  0
TEXT
  5
6BF8
330
1F
100
AcDbEntity
  8
经纬网
 62
     7
370
    20
100
AcDbText
 10
4432.104146210882
 20
3777.706907410412
 30
0.0
 40
15.0
  1
374
 50
29.00000042705356
  7
经纬网
100
AcDbText
  0
LINE
  5
6BF9
330
1F
100
AcDbEntity
  8
经纬网
 62
     7
370
     5
100
AcDbLine
 10
-5238.10621795204
 20
2343.854782410204
 30
0.0
 11
-2406.524152772096
 21
-2764.454486611993
 31
0.0
  0
TEXT
  5
6BFA
330
1F
100
AcDbEntity
  8
经纬网
 62
     7
370
    20
100
AcDbText
 10
-5292.774757721987
 20
-2758.08046383387
 30
0.0
 40
15.0
  1
374
 50
29.00000042705356
  7
经纬网
100
AcDbText
  0
LWPOLYLINE
  5
6C00
330
1F
100
AcDbEntity
  8
经纬网
 62
     7
370
     5
100
AcDbPolyline
 90
        2
 70
   128
 43
0.0
 10
-801.9598212918372
 20
-2600.863221451789
 10
675.6028623575239
 20
-1751.481576927155
  0
LINE
  5
6C09
330
1F
100
AcDbEntity
  8
经纬网
 62
     7
370
     5
100
AcDbLine
 10
-1451.064242611219
 20
3762.511565719743
 30
0.0
 11
2510.71926057193
 21
-3384.735070112856
 31
0.0
  0
LWPOLYLINE
  5
6C0A
330
1F
100
AcDbEntity
  8
经纬网
 62
     7
370
     5
100
AcDbPolyline
 90
        2
 70
   128
 43
0.0
 10
-3757.306896337834
 20
-3064.454488110492
 10
4740.050219385358
 20
1645.707474581203
  0
LWPOLYLINE
  5
6C0B
330
1F
100
AcDbEntity
  8
盘区边界
  6
CENTER
 48
5.0
370
    50
100
AcDbPolyline
 90
        3
 70
   128
 43
0.0
 10
253.4809613473754
 20
3762.511565763377
 10
251.3568201795552
 20
3466.204536082461
 10
1545.447075957991
 20
3373.429615685314
1001
AcDbBlockRepETag
1000

  0
LWPOLYLINE
  5
6C0C
330
1F
100
AcDbEntity
  8
盘区边界
  6
CENTER
 48
5.0
370
    50
100
AcDbPolyline
 90
        3
 70
   128
 43
0.0
 10
-4517.564204120603
 20
-1757.423320663855
 10
1554.798634542558
 20
-1749.373906677352
 10
4631.250539383326
 20
-3009.735070964084
  0
LWPOLYLINE
  5
6C0D
330
1F
100
AcDbEntity
  8
井田边界
  6
井田边界线
 48
5.0
370
   100
100
AcDbPolyline
 90
        2
 70
   128
 43
0.0
 10
-5238.101058737901
 20
-447.335958929495
 10
-4272.161028535631
 20
-2203.813235072182
  0
TEXT
  5
6C0E
330
1F
100
AcDbEntity
  8
经纬网
 62
     7
370
    20
100
AcDbText
 10
4996.717450342015
 20
-3776.470233716361
 30
0.0
 40
15.0
  1
70500
 50
298.999999998573
  7
经纬网
100
AcDbText
1001
ZWMCAD_GENSCA_13_
1070
     1
1040
1.0
1001
ZWMCAD_GENSTANDARDFRAME_13_
1070
   410
1000
GB
1070
   411
1000
ZwmFrameMain_
  0
TEXT
  5
6C0F
330
1F
100
AcDbEntity
  8
经纬网
 62
     7
370
    20
100
AcDbText
 10
5011.967738008933
 20
-3769.609569106541
 30
0.0
 40
15.0
  1
43
 50
298.9999999985728
  7
经纬网
100
AcDbText
  0
TEXT
  5
6C10
330
1F
100
AcDbEntity
  8
经纬网
 62
     7
370
    20
100
AcDbText
 10
5248.080000421969
 20
-52.42125305736317
 30
0.0
 40
15.0
  1
72500
 50
298.999999998573
  7
经纬网
100
AcDbText
1001
ZWMCAD_GENSCA_13_
1070
     1
1040
1.0
1001
ZWMCAD_GENSTANDARDFRAME_13_
1070
   410
1000
GB
1070
   411
1000
ZwmFrameMain_
  0
TEXT
  5
6C11
330
1F
100
AcDbEntity
  8
经纬网
 62
     7
370
    20
100
AcDbText
 10
5248.854346082806
 20
-2113.981217034488
 30
0.0
 40
15.0
  1
71500
 50
298.999999998573
  7
经纬网
100
AcDbText
1001
ZWMCAD_GENSCA_13_
1070
     1
1040
1.0
1001
ZWMCAD_GENSTANDARDFRAME_13_
1070
   410
1000
GB
1070
   411
1000
ZwmFrameMain_
  0
LINE
  5
6C12
330
1F
100
AcDbEntity
  8
盘区边界
  6
CENTER
 48
5.0
370
    50
100
AcDbLine
 10
1545.447072647474
 20
3373.431428746191
 30
0.0
 11
1554.800932368669
 21
-1749.372258605198
 31
0.0
  0
LWPOLYLINE
  5
6C13
330
1F
100
AcDbEntity
  8
井田边界
  6
井田边界线
 48
5.0
370
   100
100
AcDbPolyline
 90
        5
 70
   128
 43
0.0
 10
4927.790571650896
 20
-3008.705313784764
 10
4077.143019905719
 20
-2520.159264063225
 10
5210.280537164244
 20
2201.171544889226
 10
5201.433133399519
 20
2293.451301319762
 10
4408.617620994466
 20
3762.51156586974
  0
LWPOLYLINE
  5
6C14
330
1F
100
AcDbEntity
  8
盘区边界
  6
CENTER
 48
5.0
370
    50
100
AcDbPolyline
 90
        2
 70
     0
 43
0.0
 10
1545.585603969861
 20
3373.421554710568
 10
4741.042173366868
 20
3146.540140979644
  0
LWPOLYLINE
  5
6C15
330
1F
100
AcDbEntity
  8
井田边界
  6
井田边界线
 48
5.0
370
   100
100
AcDbPolyline
 90
        2
 70
   128
 43
0.0
 10
-5238.105756597509
 20
-447.3335006031511
 10
-3798.871883304705
 20
-3064.454144028884
  0
LWPOLYLINE
  5
6C16
330
1F
100
AcDbEntity
  8
盘区边界
  6
CENTER
 48
5.0
370
    50
100
AcDbPolyline
 90
        2
 70
     0
 43
0.0
 10
-3414.030316131104
 20
-1755.958378789884
 10
-3427.660460876216
 20
3309.597588049311
  0
LINE
  5
6C17
330
1F
100
AcDbEntity
  8
盘区边界
  6
CENTER
 48
5.0
370
    50
100
AcDbLine
 10
1349.101583715344
 20
3315.795344986219
 30
0.0
 11
-3529.509946581161
 21
3309.389058120746
 31
0.0
  0
LWPOLYLINE
  5
6C18
330
1F
100
AcDbEntity
  8
盘区边界
  6
CENTER
 48
5.0
370
    50
100
AcDbPolyline
 90
        2
 70
     0
 43
0.0
 38
-4.057498721410588
 10
-3529.500457601875
 20
3309.31580809766
 10
-4249.148899658368
 20
3762.521403386653
210
-0.0022713247445022
220
-0.0036066857483673
230
0.9999909164096528
  0
LINE
  5
6C19
330
1F
100
AcDbEntity
  8
盘区边界
  6
CENTER
 48
5.0
370
    50
100
AcDbLine
 10
-3386.548481051368
 20
3762.511565670197
 30
0.0
 11
-3389.795471467647
 21
3309.572709438544
 31
0.0
210
0.0
220
0.0
230
-1.0
  0
MTEXT
  5
7768
330
1F
100
AcDbEntity
  8
0
100
AcDbMText
 10
4285.255557516282
 20
-3865.835122533011
 30
0.0
 40
50.0
 41
756.6547673406603
 71
     7
 72
     1
  1
{\fSimHei|b1|i0|c134|p2;\W1;企业内部★长期}
  7
宋体
 73
     1
 44
1.0
1001
ACAD
1000
MTEXTBEGIN
1070
    73
1070
     1
1070
    44
1040
1.0
1070
    74
1070
     0
1000
MTEXTEND
  0
MTEXT
  5
7795
330
1F
100
AcDbEntity
  8
图例及图签
 62
     7
370
     0
100
AcDbMText
 10
4926.80999334232
 20
-3560.32343732288
 30
0.0
 40
36.0
 41
756.6547673406603
 71
     7
 72
     1
  1
\fSimSun|b1|i0|c134|p2;J142-171·1
  7
HZ
 73
     1
 44
1.0
1001
ACAD
1000
MTEXTBEGIN
1070
    73
1070
     1
1070
    44
1040
1.0
1070
    74
1070
     0
1000
MTEXTEND
  0
MTEXT
  5
7796
330
1F
100
AcDbEntity
  8
图例及图签
100
AcDbMText
 10
4383.131261089327
 20
-3179.907909464036
 30
0.0
 40
60.0
 41
1067.781111917969
 71
     1
 72
     5
  1
\fSimSun|b1|i0|c134|p2;42上煤通风系统图
 73
     1
 44
1.0
1001
ACAD
1000
MTEXTBEGIN
1070
    73
1070
     1
1070
    44
1040
1.0
1070
    74
1070
     0
1000
MTEXTEND
  0
LWPOLYLINE
  5
7797
330
1F
100
AcDbEntity
  8
图例及图签
 62
     7
 48
1.000000000000000E+16
370
    20
100
AcDbPolyline
 90
        4
 70
     1
 43
0.0
 10
-5238.850760402204
 20
-3762.488433612594
 10
-2589.951111962089
 20
-3762.488433584337
 10
-2589.951111968128
 20
-3195.930414935427
 10
-5238.850760402204
 20
-3195.711826674771
  0
LWPOLYLINE
  5
7798
330
1F
100
AcDbEntity
  8
图例及图签
 48
1.000000000000000E+16
100
AcDbPolyline
 90
        4
 70
     1
 43
0.0
 10
-4650.181480304827
 20
-3284.961694962977
 10
-4495.274288738738
 20
-3284.961694962977
 10
-4495.274288738738
 20
-3365.433361437219
 10
-4650.181480304827
 20
-3365.433361437219
  0
LWPOLYLINE
  5
7799
330
1F
100
AcDbEntity
  8
图例及图签
 48
1.000000000000000E+16
100
AcDbPolyline
 90
        4
 70
     1
 43
0.0
 10
-4650.181480304827
 20
-3584.961694962977
 10
-4495.274288738738
 20
-3584.961694962977
 10
-4495.274288738738
 20
-3665.433361437218
 10
-4650.181480304827
 20
-3665.433361437218
  0
LINE
  5
779A
330
1F
100
AcDbEntity
  8
图例及图签
 62
     4
 48
1.000000000000000E+16
100
AcDbLine
 10
-4399.806754261169
 20
-3313.115425951021
 30
0.000000004715112
 11
-4386.842885263178
 21
-3320.68103656097
 31
0.000000004715112
  0
LINE
  5
779B
330
1F
100
AcDbEntity
  8
图例及图签
 62
     4
 48
1.000000000000000E+16
100
AcDbLine
 10
-4386.842885263178
 20
-3320.68103656097
 30
0.000000004715112
 11
-4356.822926176481
 21
-3320.659112532812
 31
0.000000004715112
  0
LINE
  5
779C
330
1F
100
AcDbEntity
  8
图例及图签
 62
     4
 48
1.000000000000000E+16
100
AcDbLine
 10
-4356.822926176481
 20
-3320.659112532812
 30
0.000000004715112
 11
-4343.85905717849
 21
-3313.093501945215
 31
0.000000004715112
  0
LINE
  5
779D
330
1F
100
AcDbEntity
  8
图例及图签
 62
     4
 48
1.000000000000000E+16
100
AcDbLine
 10
-4399.768131183375
 20
-3352.562074883972
 30
0.000000004715112
 11
-4386.804262185384
 21
-3344.996464274023
 31
0.000000004715112
  0
LINE
  5
779E
330
1F
100
AcDbEntity
  8
图例及图签
 62
     4
 48
1.000000000000000E+16
100
AcDbLine
 10
-4386.804262185384
 20
-3344.996464274023
 30
0.000000004715112
 11
-4356.784303098685
 21
-3344.97454026826
 31
0.000000004715112
  0
LINE
  5
779F
330
1F
100
AcDbEntity
  8
图例及图签
 62
     4
 48
1.000000000000000E+16
100
AcDbLine
 10
-4356.784303098685
 20
-3344.97454026826
 30
0.000000004715112
 11
-4343.820434100694
 21
-3352.540150855856
 31
0.000000004715112
  0
LINE
  5
77A0
330
1F
100
AcDbEntity
  8
图例及图签
 62
     1
 48
1.000000000000000E+16
100
AcDbLine
 10
-4389.143622908772
 20
-3332.843625882632
 30
0.000000004715112
 11
-4354.509414517759
 21
-3332.841991536719
 31
0.000000004715112
  0
LINE
  5
77A1
330
1F
100
AcDbEntity
  8
图例及图签
 62
     1
 48
1.000000000000000E+16
100
AcDbLine
 10
-4354.509414517759
 20
-3332.841991536719
 30
0.000000004715112
 11
-4364.841948101386
 21
-3330.291298036288
 31
0.000000004715112
  0
LINE
  5
77A2
330
1F
100
AcDbEntity
  8
图例及图签
 62
     1
 48
1.000000000000000E+16
100
AcDbLine
 10
-4364.841948101386
 20
-3330.291298036288
 30
0.000000004715112
 11
-4363.004407160684
 21
-3332.842414816943
 31
0.000000004715112
  0
LINE
  5
77A3
330
1F
100
AcDbEntity
  8
图例及图签
 62
     1
 48
1.000000000000000E+16
100
AcDbLine
 10
-4363.004407160684
 20
-3332.842414816943
 30
0.000000004715112
 11
-4364.841948101386
 21
-3335.392685034806
 31
0.000000004715112
  0
LINE
  5
77A4
330
1F
100
AcDbEntity
  8
图例及图签
 62
     1
 48
1.000000000000000E+16
100
AcDbLine
 10
-4364.841948101386
 20
-3335.392685034806
 30
0.000000004715112
 11
-4354.509414517759
 21
-3332.841991534376
 31
0.000000004715112
  0
MTEXT
  5
77A5
330
1F
100
AcDbEntity
  8
图例及图签
 62
     1
 48
1.000000000000000E+16
100
AcDbMText
 10
-4384.211722444657
 20
-3336.374353630366
 30
0.000000004715112
 40
11.39999999999999
 41
0.0
 71
     1
 72
     5
  1
S
  7
HZ
 11
0.0
 21
1.0
 31
0.0
 73
     1
 44
1.0
1001
ACAD
1000
MTEXTBEGIN
1070
    73
1070
     1
1070
    44
1040
1.0
1070
    74
1070
     0
1000
MTEXTEND
  0
HATCH
  5
77A6
330
1F
100
AcDbEntity
  8
图例及图签
 62
     1
 48
1.000000000000000E+16
100
AcDbHatch
 10
0.0
 20
0.0
 30
0.000000004715112
210
0.0
220
0.0
230
1.0
  2
SOLID
 70
     1
 71
     0
 91
        2
 92
      137
 93
        4
 72
     1
 10
-4348.442344686367
 20
-3326.718596248829
 11
-4366.442017162628
 21
-3326.610011044132
 72
     1
 10
-4366.442017162599
 20
-3326.610011044117
 11
-4366.519462476202
 21
-3339.447766273933
 72
     1
 10
-4366.519462476224
 20
-3339.447766273944
 11
-4348.519789999942
 21
-3339.556351478647
 72
     1
 10
-4348.519789999935
 20
-3339.55635147864
 11
-4348.442344686374
 21
-3326.718596248829
 97
        0
 92
       22
 72
     0
 73
     1
 93
        3
 10
-4354.509414517759
 20
-3332.841991536719
 10
-4364.841948101386
 20
-3330.291298036288
 10
-4363.004423303182
 20
-3332.842392405785
 97
        0
 75
     0
 76
     1
 47
0.0
 98
        1
 10
-4361.556384118188
 20
-3331.55923028395
1001
ACAD
1010
0.0
1020
0.0
1030
0.0
  0
HATCH
  5
77A7
330
1F
100
AcDbEntity
  8
图例及图签
 62
     1
 48
1.000000000000000E+16
100
AcDbHatch
 10
0.0
 20
0.0
 30
0.000000004715112
210
0.0
220
0.0
230
1.0
  2
SOLID
 70
     1
 71
     0
 91
        2
 92
      137
 93
        4
 72
     1
 10
-4348.442344686367
 20
-3326.718596248829
 11
-4366.442017162628
 21
-3326.610011044132
 72
     1
 10
-4366.442017162599
 20
-3326.610011044117
 11
-4366.519462476202
 21
-3339.447766273933
 72
     1
 10
-4366.519462476224
 20
-3339.447766273944
 11
-4348.519789999942
 21
-3339.556351478647
 72
     1
 10
-4348.519789999935
 20
-3339.55635147864
 11
-4348.442344686374
 21
-3326.718596248829
 97
        0
 92
       22
 72
     0
 73
     1
 93
        3
 10
-4363.005353460002
 20
-3332.843728158542
 10
-4364.841948101386
 20
-3335.392685034806
 10
-4354.514735588543
 20
-3332.843305096103
 97
        0
 75
     0
 76
     1
 47
0.0
 98
        1
 10
-4359.803111908756
 20
-3333.722358334518
1001
ACAD
1010
0.0
1020
0.0
1030
0.0
  0
LINE
  5
77A8
330
1F
100
AcDbEntity
  8
图例及图签
 62
     3
 48
1.000000000000000E+16
100
AcDbLine
 10
-4370.881854424895
 20
-3360.250777928412
 30
0.000000004715112
 11
-4370.882232055477
 21
-3344.97454025776
 31
0.000000004715112
  0
HATCH
  5
77A9
330
1F
100
AcDbEntity
  8
图例及图签
 62
     3
 48
1.000000000000000E+16
100
AcDbHatch
 10
0.0
 20
0.0
 30
0.000000004715112
210
0.0
220
0.0
230
1.0
  2
SOLID
 70
     1
 71
     0
 91
        2
 92
      137
 93
        4
 72
     1
 10
-4377.006884058677
 20
-3288.069737862278
 11
-4377.11546926338
 21
-3306.069410338539
 72
     1
 10
-4377.115469263373
 20
-3306.069410338517
 11
-4364.277714033547
 21
-3306.146855652121
 72
     1
 10
-4364.277714033554
 20
-3306.146855652121
 11
-4364.169128828851
 21
-3288.147183175838
 72
     1
 10
-4364.169128828887
 20
-3288.147183175838
 11
-4377.006884058692
 21
-3288.069737862278
 97
        0
 92
       22
 72
     0
 73
     1
 93
        3
 10
-4370.883488770809
 20
-3294.136807693663
 10
-4373.434182271217
 20
-3304.46934127729
 10
-4370.88308790172
 20
-3302.631816479093
 97
        0
 75
     0
 76
     1
 47
0.0
 98
        1
 10
-4372.166250023556
 20
-3301.183777294099
1001
ACAD
1010
0.0
1020
0.0
1030
0.0
  0
LINE
  5
77AA
330
1F
100
AcDbEntity
  8
图例及图签
 62
     3
 48
1.000000000000000E+16
100
AcDbLine
 10
-4370.883488770809
 20
-3294.136807693663
 30
0.000000004715112
 11
-4373.434182271217
 21
-3304.46934127729
 31
0.000000004715112
  0
LINE
  5
77AB
330
1F
100
AcDbEntity
  8
图例及图签
 62
     3
 48
1.000000000000000E+16
100
AcDbLine
 10
-4368.332795272699
 20
-3304.46934127729
 30
0.000000004715112
 11
-4370.883488773137
 21
-3294.136807693663
 31
0.000000004715112
  0
HATCH
  5
77AC
330
1F
100
AcDbEntity
  8
图例及图签
 62
     3
 48
1.000000000000000E+16
100
AcDbHatch
 10
0.0
 20
0.0
 30
0.000000004715112
210
0.0
220
0.0
230
1.0
  2
SOLID
 70
     1
 71
     0
 91
        2
 92
      137
 93
        4
 72
     1
 10
-4377.006884058677
 20
-3288.069737862278
 11
-4377.11546926338
 21
-3306.069410338539
 72
     1
 10
-4377.115469263373
 20
-3306.069410338517
 11
-4364.277714033547
 21
-3306.146855652121
 72
     1
 10
-4364.277714033554
 20
-3306.146855652121
 11
-4364.169128828851
 21
-3288.147183175838
 72
     1
 10
-4364.169128828887
 20
-3288.147183175838
 11
-4377.006884058692
 21
-3288.069737862278
 97
        0
 92
       22
 72
     0
 73
     1
 93
        3
 10
-4370.881752148971
 20
-3302.632746635913
 10
-4368.332795272699
 20
-3304.46934127729
 10
-4370.882175211418
 20
-3294.14212876444
 97
        0
 75
     0
 76
     1
 47
0.0
 98
        1
 10
-4370.003121972987
 20
-3299.430505084681
1001
ACAD
1010
0.0
1020
0.0
1030
0.0
  0
LINE
  5
77AD
330
1F
100
AcDbEntity
  8
图例及图签
 62
     3
 48
1.000000000000000E+16
100
AcDbLine
 10
-4370.882832882171
 20
-3320.669380694394
 30
0.000000004715112
 11
-4370.883488770809
 21
-3294.136807693663
 31
0.000000004715112
  0
LWPOLYLINE
  5
77AE
330
1F
100
AcDbEntity
  8
图例及图签
 48
1.000000000000000E+16
100
AcDbPolyline
 90
        4
 70
     1
 43
0.0
 10
-4450.181480304827
 20
-3284.961694962977
 10
-4295.274288738737
 20
-3284.961694962977
 10
-4295.274288738737
 20
-3365.433361437219
 10
-4450.181480304827
 20
-3365.433361437219
  0
TEXT
  5
77AF
330
1F
100
AcDbEntity
  8
图例及图签
370
     0
100
AcDbText
 10
-4403.324886045522
 20
-3404.215476659006
 30
0.0
 40
20.0
  1
风桥
 50
359.9999997865571
  7
样式 3
100
AcDbText
1001
ZWMCAD_GENSCA_13_
1070
     1
1040
1.0
1001
ZWMCAD_GENSTANDARDFRAME_13_
1070
   410
1000
GB
1070
   411
1000
ZwmFrameMain_
  0
LWPOLYLINE
  5
77B0
330
1F
100
AcDbEntity
  8
图例及图签
 48
1.000000000000000E+16
100
AcDbPolyline
 90
        4
 70
     1
 43
0.0
 10
-4450.181480304827
 20
-3434.961694962977
 10
-4295.274288738737
 20
-3434.961694962977
 10
-4295.274288738737
 20
-3515.433361437219
 10
-4450.181480304827
 20
-3515.433361437219
  0
LINE
  5
77B1
330
1F
100
AcDbEntity
  8
图例及图签
 62
     4
370
    -3
100
AcDbLine
 10
-4344.357327255203
 20
-3477.277851478792
 30
0.0
 11
-4344.357327255203
 21
-3471.273847980089
 31
0.0
  0
LINE
  5
77B2
330
1F
100
AcDbEntity
  8
图例及图签
 62
     4
370
    -3
100
AcDbLine
 10
-4344.357327255203
 20
-3477.277851478792
 30
0.0
 11
-4344.357327255203
 21
-3471.273847980089
 31
0.0
  0
LINE
  5
77B3
330
1F
100
AcDbEntity
  8
图例及图签
 62
     4
370
    -3
100
AcDbLine
 10
-4375.657410756002
 20
-3474.275849729441
 30
0.0
 11
-4344.357327255203
 21
-3474.275849729441
 31
0.0
  0
LINE
  5
77B4
330
1F
100
AcDbEntity
  8
图例及图签
 62
     4
370
    -3
100
AcDbLine
 10
-4375.657410756002
 20
-3474.275849729441
 30
0.0
 11
-4344.357327255203
 21
-3474.275849729441
 31
0.0
  0
LINE
  5
77B5
330
1F
100
AcDbEntity
  8
图例及图签
 62
     4
370
    -3
100
AcDbLine
 10
-4375.657410756002
 20
-3477.277851478792
 30
0.0
 11
-4375.657410756002
 21
-3471.273847980089
 31
0.0
  0
LINE
  5
77B6
330
1F
100
AcDbEntity
  8
图例及图签
 62
     4
370
    -3
100
AcDbLine
 10
-4375.657410756002
 20
-3477.277851478792
 30
0.0
 11
-4375.657410756002
 21
-3471.273847980089
 31
0.0
  0
LINE
  5
77B7
330
1F
100
AcDbEntity
  8
图例及图签
 62
     4
370
    -3
100
AcDbLine
 10
-4380.836126932018
 20
-3477.247268108272
 30
0.0
 11
-4380.836126932018
 21
-3471.243264609569
 31
0.0
  0
LINE
  5
77B8
330
1F
100
AcDbEntity
  8
图例及图签
 62
     4
370
    -3
100
AcDbLine
 10
-4380.836126932018
 20
-3477.247268108272
 30
0.0
 11
-4380.836126932018
 21
-3471.243264609569
 31
0.0
  0
LINE
  5
77B9
330
1F
100
AcDbEntity
  8
图例及图签
 62
     4
370
    -3
100
AcDbLine
 10
-4412.136210432816
 20
-3474.24526635892
 30
0.0
 11
-4380.836126932018
 21
-3474.24526635892
 31
0.0
  0
LINE
  5
77BA
330
1F
100
AcDbEntity
  8
图例及图签
 62
     4
370
    -3
100
AcDbLine
 10
-4412.136210432816
 20
-3474.24526635892
 30
0.0
 11
-4380.836126932018
 21
-3474.24526635892
 31
0.0
  0
LINE
  5
77BB
330
1F
100
AcDbEntity
  8
图例及图签
 62
     4
370
    -3
100
AcDbLine
 10
-4412.136210432816
 20
-3477.247268108272
 30
0.0
 11
-4412.136210432816
 21
-3471.243264609569
 31
0.0
  0
LINE
  5
77BC
330
1F
100
AcDbEntity
  8
图例及图签
 62
     4
370
    -3
100
AcDbLine
 10
-4412.136210432816
 20
-3477.247268108272
 30
0.0
 11
-4412.136210432816
 21
-3471.243264609569
 31
0.0
  0
LINE
  5
77BD
330
1F
100
AcDbEntity
  8
图例及图签
 62
     4
370
    -3
100
AcDbLine
 10
-4336.079024688939
 20
-3484.171954667289
 30
-0.0000000022890695
 11
-4415.785279439953
 21
-3484.276619874559
 31
-0.0000000023167346
  0
LINE
  5
77BE
330
1F
100
AcDbEntity
  8
图例及图签
 62
     4
370
    -3
100
AcDbLine
 10
-4336.079024688939
 20
-3466.17197849063
 30
0.0
 11
-4415.785279439953
 21
-3466.276643736971
 31
0.0
  0
TEXT
  5
77BF
330
1F
100
AcDbEntity
  8
图例及图签
370
     0
100
AcDbText
 10
-4403.324886045522
 20
-3554.215476659006
 30
0.0
 40
20.0
  1
风筒
 50
359.9999997865571
  7
样式 3
100
AcDbText
1001
ZWMCAD_GENSCA_13_
1070
     1
1040
1.0
1001
ZWMCAD_GENSTANDARDFRAME_13_
1070
   410
1000
GB
1070
   411
1000
ZwmFrameMain_
  0
LINE
  5
77C0
330
1F
100
AcDbEntity
  8
图例及图签
 62
     1
370
     0
100
AcDbLine
 10
-4414.409107588168
 20
-3623.635707349276
 30
0.0
 11
-4329.523878872171
 21
-3623.516669835884
 31
0.0
1001
AcDbBlockRepETag
1070
     1
1071
        1
1005
77C0
  0
LINE
  5
77C1
330
1F
100
AcDbEntity
  8
图例及图签
 62
     1
370
     0
100
AcDbLine
 10
-4329.523878872192
 20
-3623.51666983775
 30
0.0
 11
-4346.787138997753
 21
-3627.592354347259
 31
0.0
1001
AcDbBlockRepETag
1070
     1
1071
        2
1005
77C1
  0
LINE
  5
77C2
330
1F
100
AcDbEntity
  8
图例及图签
 62
     1
370
    35
100
AcDbLine
 10
-4329.523878872149
 20
-3623.516669833835
 30
0.0
 11
-4346.700613840405
 21
-3619.090482963132
 31
0.0
1001
AcDbBlockRepETag
1070
     1
1071
        4
1005
77C2
  0
LINE
  5
77C3
330
1F
100
AcDbEntity
  8
图例及图签
  6
DASH
 62
     1
 48
1.000000000000000E+16
100
AcDbLine
 10
-4346.700613840405
 20
-3619.090482963132
 30
0.0
 11
-4343.566517667571
 21
-3623.53636231747
 31
0.0
1001
AcDbBlockRepETag
1070
     1
1071
        6
1005
0
  0
LINE
  5
77C4
330
1F
100
AcDbEntity
  8
图例及图签
  6
DASH
 62
     1
 48
1.000000000000000E+16
100
AcDbLine
 10
-4343.566517667571
 20
-3623.53636231747
 30
0.0
 11
-4346.78713899776
 21
-3627.592354347256
 31
0.0
1001
AcDbBlockRepETag
1070
     1
1071
        7
1005
0
  0
HATCH
  5
77C5
330
1F
100
AcDbEntity
  8
图例及图签
  6
DASH
 62
     1
 48
1.000000000000000E+16
100
AcDbHatch
 10
0.0
 20
0.0
 30
0.0
210
0.0
220
0.0
230
1.0
  2
SOLID
 70
     1
 71
     0
 91
        2
 92
        7
 72
     0
 73
     1
 93
        3
 10
-4346.700613840405
 20
-3619.090482963132
 10
-4329.523878872171
 20
-3623.516669835884
 10
-4343.566517667571
 20
-3623.53636231747
 97
        0
 92
        7
 72
     0
 73
     1
 93
        3
 10
-4343.566517667571
 20
-3623.536362317473
 10
-4346.787138997753
 20
-3627.592354347259
 10
-4329.523878872171
 20
-3623.516669835884
 97
        0
 75
     0
 76
     1
 47
0.0386104166187426
 98
        2
 10
-4339.704286174391
 20
-3623.285802450219
 10
-4340.635205883345
 20
-3623.701376847718
1001
ACAD
1010
0.0
1020
0.0
1030
0.0
1001
AcDbBlockRepETag
1070
     1
1071
        8
1005
0
  0
TEXT
  5
77C6
330
1F
100
AcDbEntity
  8
图例及图签
 62
     1
 48
1.000000000000000E+16
100
AcDbText
 10
-4386.194835297488
 20
-3616.602256461526
 30
0.0
 40
20.0
  1
S
 50
270.0
  7
HZ
100
AcDbText
  0
LWPOLYLINE
  5
77C7
330
1F
100
AcDbEntity
  8
图例及图签
 48
1.000000000000000E+16
100
AcDbPolyline
 90
        4
 70
     1
 43
0.0
 10
-4450.181480304827
 20
-3584.961694962977
 10
-4295.274288738737
 20
-3584.961694962977
 10
-4295.274288738737
 20
-3665.433361437218
 10
-4450.181480304827
 20
-3665.433361437218
  0
TEXT
  5
77C8
330
1F
100
AcDbEntity
  8
图例及图签
370
     0
100
AcDbText
 10
-4429.334002564321
 20
-3704.215476659006
 30
0.0
 40
20.0
  1
回风风流
 50
359.9999997865571
  7
样式 3
100
AcDbText
1001
ZWMCAD_GENSCA_13_
1070
     1
1040
1.0
1001
ZWMCAD_GENSTANDARDFRAME_13_
1070
   410
1000
GB
1070
   411
1000
ZwmFrameMain_
  0
LWPOLYLINE
  5
77C9
330
1F
100
AcDbEntity
  8
图例及图签
 48
1.000000000000000E+16
100
AcDbPolyline
 90
        4
 70
     1
 43
0.0
 10
-4250.181480304827
 20
-3284.961694962977
 10
-4095.274288738738
 20
-3284.961694962977
 10
-4095.274288738738
 20
-3365.433361437219
 10
-4250.181480304827
 20
-3365.433361437219
  0
HATCH
  5
77CA
330
1F
100
AcDbEntity
  8
图例及图签
 62
    30
370
    -3
100
AcDbHatch
 10
0.0
 20
0.0
 30
0.0
210
0.0
220
0.0
230
1.0
  2
SOLID
 70
     1
 71
     0
 91
        2
 92
        7
 72
     1
 73
     1
 93
        4
 10
-4166.262036133065
 20
-3317.079446281568
 42
0.5657727783232383
 10
-4180.348682205631
 20
-3323.372948433533
 42
0.1989123673740825
 10
-4178.499376449241
 20
-3330.00817662038
 42
0.0
 10
-4171.414600375547
 20
-3324.458252868876
 42
0.0
 97
        0
 92
        7
 72
     1
 73
     1
 93
        3
 10
-4164.329824413611
 20
-3318.908329061494
 42
0.0743128366356524
 10
-4166.262036133065
 20
-3317.079446281568
 42
0.0
 10
-4171.414600375547
 20
-3324.458252868876
 42
0.0
 97
        0
 75
     0
 76
     1
 47
0.0202471229033101
 98
        2
 10
-4176.398050154998
 20
-3323.352637651638
 10
-4166.815704557552
 20
-3320.110792286024
  0
LWPOLYLINE
  5
77CB
330
1F
100
AcDbEntity
  8
图例及图签
 62
    30
370
    -3
100
AcDbPolyline
 90
        2
 70
     0
 43
0.0
 10
-4167.872212450458
 20
-3321.683290909306
 10
-4174.956988434746
 20
-3327.233214705513
  0
CIRCLE
  5
77CC
330
1F
100
AcDbEntity
  8
图例及图签
 62
    30
370
    50
100
AcDbCircle
 10
-4171.414600375547
 20
-3324.458252868876
 30
0.0
 40
8.999761326329609
  0
CIRCLE
  5
77CD
330
1F
100
AcDbEntity
  8
图例及图签
 62
    30
370
    50
100
AcDbCircle
 10
-4171.414600375547
 20
-3324.458252868876
 30
0.0
 40
31.10738621191904
  0
ARC
  5
77CE
330
1F
100
AcDbEntity
  8
图例及图签
 62
    30
370
    50
100
AcDbCircle
 10
-4171.414600442601
 20
-3324.458252807409
 30
0.0
 40
15.0
100
AcDbArc
 50
280.114206109229
 51
279.60377611799
  0
TEXT
  5
77CF
330
1F
100
AcDbEntity
  8
图例及图签
370
     0
100
AcDbText
 10
-4229.33400256432
 20
-3404.215476659006
 30
0.0
 40
20.0
  1
回风立井
 50
359.9999997865571
  7
样式 3
100
AcDbText
1001
ZWMCAD_GENSCA_13_
1070
     1
1040
1.0
1001
ZWMCAD_GENSTANDARDFRAME_13_
1070
   410
1000
GB
1070
   411
1000
ZwmFrameMain_
  0
LINE
  5
77D0
102
{ACAD_REACTORS
330
77D5
102
}
330
1F
100
AcDbEntity
  8
图例及图签
 62
     3
 48
2.0
370
     0
100
AcDbLine
 10
-4219.268187253716
 20
-3475.357778039658
 30
0.0
 11
-4119.365887146204
 21
-3475.356543601548
 31
0.0
1001
AcDbBlockRepETag
1070
     1
1071
        1
1005
77D0
  0
LINE
  5
77D1
102
{ACAD_REACTORS
330
77D5
102
}
330
1F
100
AcDbEntity
  8
图例及图签
 62
     3
 48
2.0
370
     0
100
AcDbLine
 10
-4219.268187238808
 20
-3475.356543601548
 30
0.0
 11
-4196.281457871593
 21
-3469.792830590718
 31
0.0
1001
AcDbBlockRepETag
1070
     1
1071
        2
1005
77D1
  0
LINE
  5
77D2
102
{ACAD_REACTORS
330
77D5
102
}
330
1F
100
AcDbEntity
  8
图例及图签
 62
     3
 48
2.0
370
     0
100
AcDbLine
 10
-4219.268187238808
 20
-3475.356543601548
 30
0.0
 11
-4196.281457871593
 21
-3480.920256612378
 31
0.0
1001
AcDbBlockRepETag
1070
     1
1071
        4
1005
77D2
  0
LINE
  5
77D3
102
{ACAD_REACTORS
330
77D5
102
}
330
1F
100
AcDbEntity
  8
图例及图签
  6
DASH
 62
     3
 48
1.000000000000000E+16
100
AcDbLine
 10
-4196.281457871593
 20
-3469.792830590718
 30
0.0
 11
-4200.643772850338
 21
-3475.357547907951
 31
0.0
1001
AcDbBlockRepETag
1070
     1
1071
        5
1005
77D3
  0
LINE
  5
77D4
102
{ACAD_REACTORS
330
77D5
102
}
330
1F
100
AcDbEntity
  8
图例及图签
  6
DASH
 62
     3
 48
1.000000000000000E+16
100
AcDbLine
 10
-4200.643772850338
 20
-3475.357547907951
 30
0.0
 11
-4196.281457871593
 21
-3480.920256612378
 31
0.0
1001
AcDbBlockRepETag
1070
     1
1071
        6
1005
77D4
  0
HATCH
  5
77D5
330
1F
100
AcDbEntity
  8
图例及图签
  6
DASH
 62
     3
 48
1.000000000000000E+16
100
AcDbHatch
 10
0.0
 20
0.0
 30
0.0
210
0.0
220
0.0
230
1.0
  2
SOLID
 70
     1
 71
     1
 91
        2
 92
        7
 72
     0
 73
     1
 93
        4
 10
-4200.643772850338
 20
-3475.357547907951
 10
-4196.281457871593
 20
-3469.792830590718
 10
-4219.268187238808
 20
-3475.356543601548
 10
-4219.26308736285
 20
-3475.357777976642
 97
        4
330
77D3
330
77D1
330
77D2
330
77D0
 92
        7
 72
     0
 73
     1
 93
        3
 10
-4196.281457871593
 20
-3480.920256612378
 10
-4200.643772850338
 20
-3475.357547907951
 10
-4219.26308736285
 20
-3475.357777976642
 97
        3
330
77D4
330
77D0
330
77D2
 75
     0
 76
     1
 47
0.0524821823897721
 98
        2
 10
-54726.75621717664
 20
9325.531501166379
 10
-54726.3885513187
 20
9323.274777214235
1001
ACAD
1010
0.0
1020
0.0
1030
0.0
1001
AcDbBlockRepETag
1070
     1
1071
        7
1005
77D5
  0
LWPOLYLINE
  5
77D6
330
1F
100
AcDbEntity
  8
图例及图签
 48
1.000000000000000E+16
100
AcDbPolyline
 90
        4
 70
     1
 43
0.0
 10
-4250.181480304827
 20
-3434.961694962977
 10
-4095.274288738738
 20
-3434.961694962977
 10
-4095.274288738738
 20
-3515.433361437219
 10
-4250.181480304827
 20
-3515.433361437219
  0
TEXT
  5
77D7
330
1F
100
AcDbEntity
  8
图例及图签
370
     0
100
AcDbText
 10
-4229.33400256432
 20
-3554.215476659006
 30
0.0
 40
20.0
  1
进风风流
 50
359.9999997865571
  7
样式 3
100
AcDbText
1001
ZWMCAD_GENSCA_13_
1070
     1
1040
1.0
1001
ZWMCAD_GENSTANDARDFRAME_13_
1070
   410
1000
GB
1070
   411
1000
ZwmFrameMain_
  0
TEXT
  5
77D8
330
1F
100
AcDbEntity
  8
图例及图签
370
     0
100
AcDbText
 10
-4226.646093244877
 20
-3704.215476659006
 30
0.0
 40
20.0
  1
局部风机
 50
359.9999997865571
  7
样式 3
100
AcDbText
1001
ZWMCAD_GENSCA_13_
1070
     1
1040
1.0
1001
ZWMCAD_GENSTANDARDFRAME_13_
1070
   410
1000
GB
1070
   411
1000
ZwmFrameMain_
  0
LWPOLYLINE
  5
77D9
330
1F
100
AcDbEntity
  8
图例及图签
 48
1.000000000000000E+16
100
AcDbPolyline
 90
        4
 70
     1
 43
0.0
 10
-4250.181480304827
 20
-3584.961694962977
 10
-4095.274288738738
 20
-3584.961694962977
 10
-4095.274288738738
 20
-3665.433361437218
 10
-4250.181480304827
 20
-3665.433361437218
  0
LWPOLYLINE
  5
77DA
330
1F
100
AcDbEntity
  8
图例及图签
 48
1.000000000000000E+16
100
AcDbPolyline
 90
        4
 70
     1
 43
0.0
 10
-4050.181480304828
 20
-3284.961694962977
 10
-3895.274288738738
 20
-3284.961694962977
 10
-3895.274288738738
 20
-3365.433361437219
 10
-4050.181480304828
 20
-3365.433361437219
  0
LINE
  5
77DB
330
1F
100
AcDbEntity
  8
图例及图签
  6
ByBlock
 62
    30
370
    50
100
AcDbLine
 10
-3962.081203830744
 20
-3297.309283737166
 30
0.0
 11
-3912.520022181193
 21
-3297.30928373718
 31
0.0
  0
LINE
  5
77DC
330
1F
100
AcDbEntity
  8
图例及图签
  6
ByBlock
 62
    30
370
    50
100
AcDbLine
 10
-4037.603007075721
 20
-3343.278150541794
 30
0.0
 11
-4003.97219928854
 21
-3343.278150541794
 31
0.0
  0
LINE
  5
77DD
330
1F
100
AcDbEntity
  8
图例及图签
  6
ByBlock
 62
    30
370
    50
100
AcDbLine
 10
-3912.520022181193
 20
-3297.30928373718
 30
0.0
 11
-3941.430706826368
 21
-3326.187146898445
 31
0.0
  0
LINE
  5
77DE
330
1F
100
AcDbEntity
  8
图例及图签
  6
ByBlock
 62
    30
370
    50
100
AcDbLine
 10
-3966.2112976437
 20
-3320.293717140418
 30
0.0
 11
-3962.081203830744
 21
-3297.309283737166
 31
0.0
  0
ARC
  5
77DF
330
1F
100
AcDbEntity
  8
图例及图签
  6
ByBlock
 62
    30
370
    50
100
AcDbCircle
 10
-4004.562200782233
 20
-3271.61845309296
 30
0.0
 40
83.44655696549727
100
AcDbArc
 50
270.0
 51
319.1609914701215
  0
ARC
  5
77E0
330
1F
100
AcDbEntity
  8
图例及图签
  6
ByBlock
 62
    30
370
    50
100
AcDbCircle
 10
-4003.97219928854
 20
-3300.767425216821
 30
0.0
 40
42.51072532369508
100
AcDbArc
 50
270.0
 51
332.6563597520774
  0
LINE
  5
77E1
330
1F
100
AcDbEntity
  8
图例及图签
  6
ByBlock
 62
    30
370
    50
100
AcDbLine
 10
-4004.562200782233
 20
-3355.065010057849
 30
0.0
 11
-4037.922167864317
 21
-3355.065010057849
 31
0.0
  0
TEXT
  5
77E2
330
1F
100
AcDbEntity
  8
图例及图签
370
     0
100
AcDbText
 10
-4019.921719036438
 20
-3404.215476659006
 30
0.0
 40
20.0
  1
扩散器
 50
359.9999997865571
  7
样式 3
100
AcDbText
1001
ZWMCAD_GENSCA_13_
1070
     1
1040
1.0
1001
ZWMCAD_GENSTANDARDFRAME_13_
1070
   410
1000
GB
1070
   411
1000
ZwmFrameMain_
  0
LWPOLYLINE
  5
77E3
330
1F
100
AcDbEntity
  8
图例及图签
 48
1.000000000000000E+16
100
AcDbPolyline
 90
        4
 70
     1
 43
0.0
 10
-4050.181480304828
 20
-3434.961694962977
 10
-3895.274288738738
 20
-3434.961694962977
 10
-3895.274288738738
 20
-3515.433361437219
 10
-4050.181480304828
 20
-3515.433361437219
  0
TEXT
  5
77E4
330
1F
100
AcDbEntity
  8
图例及图签
370
     0
100
AcDbText
 10
-4057.823618158532
 20
-3554.215476659006
 30
0.0
 40
20.0
  1
临时单向风门
 50
359.9999997865571
  7
样式 3
100
AcDbText
1001
ZWMCAD_GENSCA_13_
1070
     1
1040
1.0
1001
ZWMCAD_GENSTANDARDFRAME_13_
1070
   410
1000
GB
1070
   411
1000
ZwmFrameMain_
  0
LWPOLYLINE
  5
77E5
330
1F
100
AcDbEntity
  8
图例及图签
 48
1.000000000000000E+16
100
AcDbPolyline
 90
        4
 70
     1
 43
0.0
 10
-4050.181480304828
 20
-3584.961694962977
 10
-3895.274288738738
 20
-3584.961694962977
 10
-3895.274288738738
 20
-3665.433361437218
 10
-4050.181480304828
 20
-3665.433361437218
  0
TEXT
  5
77E6
330
1F
100
AcDbEntity
  8
图例及图签
370
     0
100
AcDbText
 10
-4029.334002564321
 20
-3704.215476659006
 30
0.0
 40
20.0
  1
临时密闭
 50
359.9999997865571
  7
样式 3
100
AcDbText
1001
ZWMCAD_GENSCA_13_
1070
     1
1040
1.0
1001
ZWMCAD_GENSTANDARDFRAME_13_
1070
   410
1000
GB
1070
   411
1000
ZwmFrameMain_
  0
LWPOLYLINE
  5
77E7
330
1F
100
AcDbEntity
  8
图例及图签
 48
1.000000000000000E+16
100
AcDbPolyline
 90
        4
 70
     1
 43
0.0
 10
-3850.181480304828
 20
-3284.961694962977
 10
-3695.274288738738
 20
-3284.961694962977
 10
-3695.274288738738
 20
-3365.433361437219
 10
-3850.181480304828
 20
-3365.433361437219
  0
ARC
  5
77E8
330
1F
100
AcDbEntity
  8
图例及图签
 62
     4
 48
1.000000000000000E+16
100
AcDbCircle
 10
-3767.334250256006
 20
-3325.364556972235
 30
0.0
 40
19.92082388687595
100
AcDbArc
 50
270.0
 51
90.0
  0
LINE
  5
77E9
330
1F
100
AcDbEntity
  8
图例及图签
 62
     4
 48
1.000000000000000E+16
100
AcDbLine
 10
-3767.334250256006
 20
-3345.285380859094
 30
0.0
 11
-3767.334250256006
 21
-3365.178593535528
 31
0.0
  0
LINE
  5
77EA
330
1F
100
AcDbEntity
  8
图例及图签
 62
     4
 48
1.000000000000000E+16
100
AcDbLine
 10
-3767.334250256006
 20
-3285.55052040892
 30
0.0
 11
-3767.334250256006
 21
-3305.443733085353
 31
0.0
  0
TEXT
  5
77EB
330
1F
100
AcDbEntity
  8
图例及图签
370
     0
100
AcDbText
 10
-3856.884400062025
 20
-3404.215476659006
 30
0.0
 40
20.0
  1
临时调节风门
 50
359.9999997865571
  7
样式 3
100
AcDbText
1001
ZWMCAD_GENSCA_13_
1070
     1
1040
1.0
1001
ZWMCAD_GENSTANDARDFRAME_13_
1070
   410
1000
GB
1070
   411
1000
ZwmFrameMain_
  0
LINE
  5
77EC
330
1F
100
AcDbEntity
  8
图例及图签
  6
井田边界
 62
     4
 48
100.0
370
    -3
100
AcDbLine
 10
-3811.31910481951
 20
-3466.300701069823
 30
0.0
 11
-3728.282549290869
 21
-3465.923950187108
 31
0.0
  0
LWPOLYLINE
  5
77ED
330
1F
100
AcDbEntity
  8
图例及图签
  6
井田边界
 62
     4
 48
100.0
370
    -3
100
AcDbPolyline
 90
        4
 70
     0
 43
0.0
 10
-3745.669132082674
 20
-3465.991395387045
 10
-3757.360909505698
 20
-3483.93097709789
 10
-3781.964997558806
 20
-3484.019468787304
 10
-3793.755644156548
 20
-3466.209571845076
  0
LWPOLYLINE
  5
77EE
330
1F
100
AcDbEntity
  8
图例及图签
  6
井田边界
 62
     4
 48
100.0
370
    -3
100
AcDbPolyline
 90
        4
 70
     0
 43
0.0
 10
-3805.709080613169
 20
-3466.26908298879
 10
-3787.324749438975
 20
-3494.038810479632
 10
-3751.929225592825
 20
-3493.91150604113
 10
-3733.69742987952
 20
-3465.937077793471
  0
LINE
  5
77EF
330
1F
100
AcDbEntity
  8
图例及图签
  6
井田边界
 62
     4
 48
100.0
370
    -3
100
AcDbLine
 10
-3811.319104842836
 20
-3466.300701069823
 30
0.0
 11
-3728.282549314196
 21
-3465.923950187108
 31
0.0
  0
LWPOLYLINE
  5
77F0
330
1F
100
AcDbEntity
  8
图例及图签
  6
井田边界
 62
     4
 48
100.0
370
    -3
100
AcDbPolyline
 90
        4
 70
     0
 43
0.0
 10
-3745.669132106001
 20
-3465.991395387045
 10
-3757.360909529025
 20
-3483.93097709789
 10
-3781.964997582132
 20
-3484.019468787304
 10
-3793.755644179876
 20
-3466.209571845076
  0
LWPOLYLINE
  5
77F1
330
1F
100
AcDbEntity
  8
图例及图签
  6
井田边界
 62
     4
 48
100.0
370
    -3
100
AcDbPolyline
 90
        4
 70
     0
 43
0.0
 10
-3805.709080636496
 20
-3466.26908298879
 10
-3787.324749462301
 20
-3494.038810479632
 10
-3751.929225616152
 20
-3493.91150604113
 10
-3733.697429902846
 20
-3465.937077793471
  0
LWPOLYLINE
  5
77F2
330
1F
100
AcDbEntity
  8
图例及图签
 48
1.000000000000000E+16
100
AcDbPolyline
 90
        4
 70
     1
 43
0.0
 10
-3850.181480304828
 20
-3434.961694962977
 10
-3695.274288738738
 20
-3434.961694962977
 10
-3695.274288738738
 20
-3515.433361437219
 10
-3850.181480304828
 20
-3515.433361437219
  0
TEXT
  5
77F3
330
1F
100
AcDbEntity
  8
图例及图签
370
     0
100
AcDbText
 10
-3803.324886045523
 20
-3554.215476659006
 30
0.0
 40
20.0
  1
水仓
 50
359.9999997865571
  7
样式 3
100
AcDbText
1001
ZWMCAD_GENSCA_13_
1070
     1
1040
1.0
1001
ZWMCAD_GENSTANDARDFRAME_13_
1070
   410
1000
GB
1070
   411
1000
ZwmFrameMain_
  0
LWPOLYLINE
  5
77F4
330
1F
100
AcDbEntity
  8
图例及图签
 48
1.000000000000000E+16
100
AcDbPolyline
 90
        4
 70
     1
 43
0.0
 10
-3850.181480304828
 20
-3584.961694962977
 10
-3695.274288738738
 20
-3584.961694962977
 10
-3695.274288738738
 20
-3665.433361437218
 10
-3850.181480304828
 20
-3665.433361437218
  0
TEXT
  5
77F5
330
1F
100
AcDbEntity
  8
图例及图签
370
     0
100
AcDbText
 10
-3829.334002564321
 20
-3704.215476659006
 30
0.0
 40
20.0
  1
调节风窗
 50
359.9999997865571
  7
样式 3
100
AcDbText
1001
ZWMCAD_GENSCA_13_
1070
     1
1040
1.0
1001
ZWMCAD_GENSTANDARDFRAME_13_
1070
   410
1000
GB
1070
   411
1000
ZwmFrameMain_
  0
TEXT
  5
77F6
330
1F
100
AcDbEntity
  8
图例及图签
370
     0
100
AcDbText
 10
-3626.646093244878
 20
-3404.215476659006
 30
0.0
 40
20.0
  1
网络节点
 50
359.9999997865571
  7
样式 3
100
AcDbText
1001
ZWMCAD_GENSCA_13_
1070
     1
1040
1.0
1001
ZWMCAD_GENSTANDARDFRAME_13_
1070
   410
1000
GB
1070
   411
1000
ZwmFrameMain_
  0
CIRCLE
  5
77F7
330
1F
100
AcDbEntity
  8
图例及图签
 62
     6
370
    -3
100
AcDbCircle
 10
-3571.996120030426
 20
-3324.879106927058
 30
348.0
 40
34.32009048847645
  0
LWPOLYLINE
  5
77F8
330
1F
100
AcDbEntity
  8
图例及图签
 48
1.000000000000000E+16
100
AcDbPolyline
 90
        4
 70
     1
 43
0.0
 10
-3650.181480304828
 20
-3284.961694962977
 10
-3495.274288738738
 20
-3284.961694962977
 10
-3495.274288738738
 20
-3365.433361437219
 10
-3650.181480304828
 20
-3365.433361437219
  0
LWPOLYLINE
  5
77F9
330
1F
100
AcDbEntity
  8
图例及图签
 48
1.000000000000000E+16
100
AcDbPolyline
 90
        4
 70
     1
 43
0.0
 10
-3650.181480304828
 20
-3434.961694962977
 10
-3495.274288738738
 20
-3434.961694962977
 10
-3495.274288738738
 20
-3515.433361437219
 10
-3650.181480304828
 20
-3515.433361437219
  0
TEXT
  5
77FA
330
1F
100
AcDbEntity
  8
图例及图签
370
     0
100
AcDbText
 10
-3645.986504190596
 20
-3554.215476659006
 30
0.0
 40
20.0
  1
消防材料库
 50
359.9999997865571
  7
样式 3
100
AcDbText
1001
ZWMCAD_GENSCA_13_
1070
     1
1040
1.0
1001
ZWMCAD_GENSTANDARDFRAME_13_
1070
   410
1000
GB
1070
   411
1000
ZwmFrameMain_
  0
ARC
  5
77FB
330
1F
100
AcDbEntity
  8
图例及图签
 62
     4
370
     0
100
AcDbCircle
 10
-3572.872029998211
 20
-3479.166443974412
 30
0.0
 40
16.53915435355398
100
AcDbArc
 50
21.85456256474907
 51
152.4459081594935
1001
AcDbBlockRepETag
1000

  0
LINE
  5
77FC
330
1F
100
AcDbEntity
  8
图例及图签
 62
     4
 48
1.000000000000000E+16
370
    -3
100
AcDbLine
 10
-3587.535222664899
 20
-3471.515665742728
 30
0.0
 11
-3588.187834863888
 21
-3490.853519280397
 31
0.0
  0
LINE
  5
77FD
330
1F
100
AcDbEntity
  8
图例及图签
 62
     4
 48
1.000000000000000E+16
370
    -3
100
AcDbLine
 10
-3587.959946280333
 20
-3484.100847389359
 30
0.0
 11
-3580.554076027549
 21
-3484.552591789091
 31
0.0
  0
LINE
  5
77FE
330
1F
100
AcDbEntity
  8
图例及图签
 62
     4
 48
1.000000000000000E+16
370
    -3
100
AcDbLine
 10
-3580.554076027549
 20
-3484.552591789091
 30
0.0
 11
-3580.890014494175
 21
-3491.297998352252
 31
0.0
  0
LINE
  5
77FF
330
1F
100
AcDbEntity
  8
图例及图签
 62
     4
 48
1.000000000000000E+16
370
    -3
100
AcDbLine
 10
-3588.187834863888
 20
-3490.853519280397
 30
0.0
 11
-3558.132200302543
 21
-3492.012907216339
 31
0.0
  0
LINE
  5
7800
330
1F
100
AcDbEntity
  8
图例及图签
 62
     4
 48
1.000000000000000E+16
370
    -3
100
AcDbLine
 10
-3558.132200302543
 20
-3492.012907216339
 30
0.0
 11
-3557.521515663759
 21
-3473.009712991275
 31
0.0
  0
LWPOLYLINE
  5
7801
330
1F
100
AcDbEntity
  8
图例及图签
 48
1.000000000000000E+16
100
AcDbPolyline
 90
        4
 70
     1
 43
0.0
 10
-3650.181480304828
 20
-3584.961694962977
 10
-3495.274288738738
 20
-3584.961694962977
 10
-3495.274288738738
 20
-3665.433361437218
 10
-3650.181480304828
 20
-3665.433361437218
  0
TEXT
  5
7802
330
1F
100
AcDbEntity
  8
图例及图签
370
     0
100
AcDbText
 10
-3603.324886045522
 20
-3704.215476659006
 30
0.0
 40
20.0
  1
斜井
 50
359.9999997865571
  7
样式 3
100
AcDbText
1001
ZWMCAD_GENSCA_13_
1070
     1
1040
1.0
1001
ZWMCAD_GENSTANDARDFRAME_13_
1070
   410
1000
GB
1070
   411
1000
ZwmFrameMain_
  0
TEXT
  5
7803
330
1F
100
AcDbEntity
  8
图例及图签
370
     0
100
AcDbText
 10
-3405.506161270178
 20
-3404.215476659006
 30
0.0
 40
20.0
  1
岩巷
 50
359.9999997865571
  7
样式 3
100
AcDbText
1001
ZWMCAD_GENSCA_13_
1070
     1
1040
1.0
1001
ZWMCAD_GENSTANDARDFRAME_13_
1070
   410
1000
GB
1070
   411
1000
ZwmFrameMain_
  0
LINE
  5
7804
330
1F
100
AcDbEntity
  8
图例及图签
 62
    30
370
    -3
100
AcDbLine
 10
-3317.065617919734
 20
-3317.436774187044
 30
0.0
 11
-3426.567727980766
 21
-3317.436774187044
 31
0.0
  0
LINE
  5
7805
330
1F
100
AcDbEntity
  8
图例及图签
 62
    30
370
    -3
100
AcDbLine
 10
-3317.065617919734
 20
-3332.056902023977
 30
0.0
 11
-3426.567727980766
 21
-3332.056902023977
 31
0.0
  0
LWPOLYLINE
  5
7806
330
1F
100
AcDbEntity
  8
图例及图签
 48
1.000000000000000E+16
100
AcDbPolyline
 90
        4
 70
     1
 43
0.0
 10
-3450.181480304828
 20
-3284.961694962977
 10
-3295.274288738737
 20
-3284.961694962977
 10
-3295.274288738737
 20
-3365.433361437219
 10
-3450.181480304828
 20
-3365.433361437219
  0
LINE
  5
7807
330
1F
100
AcDbEntity
  8
图例及图签
 62
     4
 48
1.000000000000000E+16
370
    -3
100
AcDbLine
 10
-3395.285033547664
 20
-3458.033914687453
 30
0.0
 11
-3395.285033547664
 21
-3496.648852139791
 31
0.0
  0
LINE
  5
7808
330
1F
100
AcDbEntity
  8
图例及图签
 62
     4
 48
1.000000000000000E+16
370
    -3
100
AcDbLine
 10
-3355.870713692124
 20
-3496.648852139791
 30
0.0
 11
-3395.285033547664
 21
-3496.648852139791
 31
0.0
  0
LINE
  5
7809
330
1F
100
AcDbEntity
  8
图例及图签
 62
     4
 48
1.000000000000000E+16
370
    -3
100
AcDbLine
 10
-3355.870713692124
 20
-3458.033914687453
 30
0.0
 11
-3355.870713692124
 21
-3496.648852139791
 31
0.0
  0
ARC
  5
780A
330
1F
100
AcDbEntity
  8
图例及图签
 62
     4
 48
1.000000000000000E+16
100
AcDbCircle
 10
-3375.577873619909
 20
-3464.737946529428
 30
0.0
 40
20.81624834970603
100
AcDbArc
 50
18.78740803692733
 51
161.2125919630727
  0
LINE
  5
780B
330
1F
100
AcDbEntity
  8
图例及图签
 62
     4
 48
1.000000000000000E+16
370
    -3
100
AcDbLine
 10
-3350.818766217062
 20
-3502.989074905424
 30
0.0
 11
-3400.08666603645
 21
-3502.989074905424
 31
0.0
  0
LINE
  5
780C
330
1F
100
AcDbEntity
  8
图例及图签
 62
     4
 48
1.000000000000000E+16
370
    -3
100
AcDbLine
 10
-3400.08666603645
 20
-3454.720403089995
 30
0.0
 11
-3400.08666603645
 21
-3502.989074905424
 31
0.0
  0
LINE
  5
780D
330
1F
100
AcDbEntity
  8
图例及图签
 62
     4
 48
1.000000000000000E+16
370
    -3
100
AcDbLine
 10
-3350.818766217062
 20
-3454.720403089995
 30
0.0
 11
-3350.818766217062
 21
-3502.989074905424
 31
0.0
  0
ARC
  5
780E
330
1F
100
AcDbEntity
  8
图例及图签
 62
     4
 48
1.000000000000000E+16
100
AcDbCircle
 10
-3375.452716126742
 20
-3463.10044289247
 30
0.0
 40
26.02031043713254
100
AcDbArc
 50
18.78740803692733
 51
161.2125919630727
  0
LWPOLYLINE
  5
780F
330
1F
100
AcDbEntity
  8
图例及图签
 48
1.000000000000000E+16
100
AcDbPolyline
 90
        4
 70
     1
 43
0.0
 10
-3450.181480304828
 20
-3434.961694962977
 10
-3295.274288738737
 20
-3434.961694962977
 10
-3295.274288738737
 20
-3515.433361437219
 10
-3450.181480304828
 20
-3515.433361437219
  0
TEXT
  5
7810
330
1F
100
AcDbEntity
  8
图例及图签
370
     0
100
AcDbText
 10
-3457.510545459694
 20
-3554.215476659006
 30
0.0
 40
20.0
  1
永久避难硐室
 50
359.9999997865571
  7
样式 3
100
AcDbText
1001
ZWMCAD_GENSCA_13_
1070
     1
1040
1.0
1001
ZWMCAD_GENSTANDARDFRAME_13_
1070
   410
1000
GB
1070
   411
1000
ZwmFrameMain_
  0
LWPOLYLINE
  5
7811
330
1F
100
AcDbEntity
  8
图例及图签
 48
1.000000000000000E+16
100
AcDbPolyline
 90
        4
 70
     1
 43
0.0
 10
-3450.181480304828
 20
-3584.961694962977
 10
-3295.274288738737
 20
-3584.961694962977
 10
-3295.274288738737
 20
-3665.433361437218
 10
-3450.181480304828
 20
-3665.433361437218
  0
TEXT
  5
7812
330
1F
100
AcDbEntity
  8
图例及图签
370
     0
100
AcDbText
 10
-3429.334002564321
 20
-3704.215476659006
 30
0.0
 40
20.0
  1
永久密闭
 50
359.9999997865571
  7
样式 3
100
AcDbText
1001
ZWMCAD_GENSCA_13_
1070
     1
1040
1.0
1001
ZWMCAD_GENSTANDARDFRAME_13_
1070
   410
1000
GB
1070
   411
1000
ZwmFrameMain_
  0
LWPOLYLINE
  5
7813
330
1F
100
AcDbEntity
  8
图例及图签
 48
1.000000000000000E+16
100
AcDbPolyline
 90
        4
 70
     1
 43
0.0
 10
-3250.181480304828
 20
-3284.961694962977
 10
-3095.274288738738
 20
-3284.961694962977
 10
-3095.274288738738
 20
-3365.433361437219
 10
-3250.181480304828
 20
-3365.433361437219
  0
TEXT
  5
7814
330
1F
100
AcDbEntity
  8
图例及图签
370
     0
100
AcDbText
 10
-3255.832484692723
 20
-3404.215476659006
 30
0.0
 40
20.0
  1
永久双向风门
 50
359.9999997865571
  7
样式 3
100
AcDbText
1001
ZWMCAD_GENSCA_13_
1070
     1
1040
1.0
1001
ZWMCAD_GENSTANDARDFRAME_13_
1070
   410
1000
GB
1070
   411
1000
ZwmFrameMain_
  0
LINE
  5
7815
330
1F
100
AcDbEntity
  8
图例及图签
 62
     4
 48
1.000000000000000E+16
370
    -3
100
AcDbLine
 10
-3166.986414476722
 20
-3501.53537774572
 30
0.0
 11
-3167.671242333849
 21
-3449.993001067202
 31
0.0
  0
ARC
  5
7816
330
1F
100
AcDbEntity
  8
图例及图签
 62
     4
 48
1.000000000000000E+16
100
AcDbCircle
 10
-3159.100759562063
 20
-3475.911072757858
 30
0.0
 40
19.92082388687595
100
AcDbArc
 50
270.7612267750186
 51
90.76122677543578
  0
LINE
  5
7817
330
1F
100
AcDbEntity
  8
图例及图签
 62
     4
 48
1.000000000000000E+16
100
AcDbLine
 10
-3158.836101003619
 20
-3495.830138503486
 30
0.0
 11
-3158.571809274539
 21
-3515.721595475573
 31
0.0
  0
LINE
  5
7818
330
1F
100
AcDbEntity
  8
图例及图签
 62
     4
 48
1.000000000000000E+16
100
AcDbLine
 10
-3159.629709849558
 20
-3436.100550040143
 30
0.0
 11
-3159.365418120478
 21
-3455.992007012209
 31
0.0
  0
LWPOLYLINE
  5
7819
330
1F
100
AcDbEntity
  8
图例及图签
 48
1.000000000000000E+16
100
AcDbPolyline
 90
        4
 70
     1
 43
0.0
 10
-3250.181480304828
 20
-3434.961694962977
 10
-3095.274288738738
 20
-3434.961694962977
 10
-3095.274288738738
 20
-3515.433361437219
 10
-3250.181480304828
 20
-3515.433361437219
  0
TEXT
  5
781A
330
1F
100
AcDbEntity
  8
图例及图签
370
     0
100
AcDbText
 10
-3256.258254664333
 20
-3554.215476659006
 30
0.0
 40
20.0
  1
永久调节风门
 50
359.9999997865571
  7
样式 3
100
AcDbText
1001
ZWMCAD_GENSCA_13_
1070
     1
1040
1.0
1001
ZWMCAD_GENSTANDARDFRAME_13_
1070
   410
1000
GB
1070
   411
1000
ZwmFrameMain_
  0
TEXT
  5
781B
330
1F
100
AcDbEntity
  8
图例及图签
370
     0
100
AcDbText
 10
-3229.334002564321
 20
-3704.215476659006
 30
0.0
 40
20.0
  1
主通风机
 50
359.9999997865571
  7
样式 3
100
AcDbText
1001
ZWMCAD_GENSCA_13_
1070
     1
1040
1.0
1001
ZWMCAD_GENSTANDARDFRAME_13_
1070
   410
1000
GB
1070
   411
1000
ZwmFrameMain_
  0
LWPOLYLINE
  5
781C
330
1F
100
AcDbEntity
  8
图例及图签
 48
1.000000000000000E+16
100
AcDbPolyline
 90
        4
 70
     1
 43
0.0
 10
-3250.181480304828
 20
-3584.961694962977
 10
-3095.274288738738
 20
-3584.961694962977
 10
-3095.274288738738
 20
-3665.433361437218
 10
-3250.181480304828
 20
-3665.433361437218
  0
HATCH
  5
781D
330
1F
100
AcDbEntity
  8
图例及图签
 62
     4
100
AcDbHatch
 10
0.0
 20
0.0
 30
0.0
210
0.0
220
0.0
230
1.0
  2
SOLID
 70
     1
 71
     0
 91
        6
 92
        7
 72
     1
 73
     1
 93
        3
 10
-3002.564511125327
 20
-3314.201743566524
 42
0.0
 10
-3002.555009670441
 20
-3324.011040618744
 42
0.5328313658465285
 10
-2998.020497390566
 20
-3317.248788506141
 42
0.3047749703989014
 97
        0
 92
        7
 72
     1
 73
     1
 93
        3
 10
-3002.56451112524
 20
-3314.201743566517
 42
0.5328313658502275
 10
-3007.099023405203
 20
-3320.963995679114
 42
0.3047749704027205
 10
-3002.555009670383
 20
-3324.01104061873
 42
0.0
 97
        0
 92
        7
 72
     1
 73
     1
 93
        3
 10
-3002.540101980618
 20
-3339.401731719058
 42
0.0
 10
-3002.535351253204
 20
-3344.306380239431
 42
0.0456552623281088
 10
-2998.120942436626
 20
-3342.168953194617
 42
0.2877823778379751
 97
        0
 92
        7
 72
     1
 73
     1
 93
        3
 10
-3002.540101980618
 20
-3339.401731719073
 42
0.4142135633055914
 10
-3007.43999979491
 20
-3344.311130972636
 42
0.0
 10
-3002.535351253175
 20
-3344.306380245193
 42
0.0
 97
        0
 92
        7
 72
     1
 73
     1
 93
        4
 10
-2997.996088261514
 20
-3342.448776658696
 42
0.0156223712422233
 10
-2998.120942436685
 20
-3342.168953194486
 42
-0.0456552624830197
 10
-3002.535351268804
 20
-3344.306380245193
 42
0.0
 10
-2997.630702742727
 20
-3344.301629517758
 42
0.0971714774831682
 97
        0
 92
        7
 72
     1
 73
     1
 93
        3
 10
-2997.630702742727
 20
-3344.301629517758
 42
0.0
 10
-3007.43999979491
 20
-3344.311130972636
 42
0.0971714774825364
 10
-3007.074614276122
 20
-3346.163983831683
 42
0.822869114844493
 97
        0
 75
     0
 76
     1
 47
0.0038336387745525
 98
        6
 10
-3000.583771162959
 20
-3317.782929054883
 10
-3004.38475972388
 20
-3319.33840842932
 10
-3000.476294076247
 20
-3341.319319598587
 10
-3004.669594887122
 20
-3342.710860760569
 10
-2998.529625310506
 20
-3343.292505093369
 10
-3002.698442204945
 20
-3346.415277283681
1001
ACAD
1010
0.0
1020
0.0
1030
0.0
1001
AcDbBlockRepETag
1070
     1
1071
        0
1005
781D
  0
LINE
  5
781E
330
1F
100
AcDbEntity
  8
图例及图签
 62
     4
100
AcDbLine
 10
-3002.584169542506
 20
-3293.906403945802
 30
0.0
 11
-3002.535351253204
 21
-3344.306380239431
 31
0.0
1001
AcDbBlockRepETag
1070
     1
1071
        1
1005
781E
  0
ARC
  5
781F
330
1F
100
AcDbEntity
  8
图例及图签
 62
     4
100
AcDbCircle
 10
-3012.007916474892
 20
-3319.115543740051
 30
0.0
 40
26.91296593487618
100
AcDbArc
 50
290.6078761094228
 51
69.50311922335423
1001
AcDbBlockRepETag
1070
     1
1071
        2
1005
781F
  0
CIRCLE
  5
7820
330
1F
100
AcDbEntity
  8
图例及图签
 62
     4
100
AcDbCircle
 10
-3002.559760397884
 20
-3319.106392092631
 30
0.0
 40
4.904650826929251
1001
AcDbBlockRepETag
1070
     1
1071
        3
1005
7820
  0
CIRCLE
  5
7821
330
1F
100
AcDbEntity
  8
图例及图签
 62
     4
100
AcDbCircle
 10
-3002.535351268804
 20
-3344.306380245193
 30
0.0
 40
4.904650826929251
1001
AcDbBlockRepETag
1070
     1
1071
        4
1005
7821
  0
HATCH
  5
7822
330
1F
100
AcDbEntity
  8
图例及图签
 62
     4
100
AcDbHatch
 10
0.0
 20
0.0
 30
0.0
210
0.0
220
0.0
230
1.0
  2
SOLID
 70
     1
 71
     0
 91
        6
 92
        7
 72
     1
 73
     1
 93
        3
 10
-2958.290953221966
 20
-3314.966455171619
 42
0.0
 10
-2958.28145176708
 20
-3324.775752223838
 42
0.5328313658465285
 10
-2953.746939487233
 20
-3318.013500111235
 42
0.3047749703989014
 97
        0
 92
        7
 72
     1
 73
     1
 93
        3
 10
-2958.290953221908
 20
-3314.966455171612
 42
0.5328313658502275
 10
-2962.825465501841
 20
-3321.728707284208
 42
0.3047749704027205
 10
-2958.281451767021
 20
-3324.775752223824
 42
0.0
 97
        0
 92
        7
 72
     1
 73
     1
 93
        3
 10
-2958.266544077256
 20
-3340.166443324152
 42
0.0
 10
-2958.261793349842
 20
-3345.071091844525
 42
0.0456552623281088
 10
-2953.847384533265
 20
-3342.933664799711
 42
0.2877823778379751
 97
        0
 92
        7
 72
     1
 73
     1
 93
        3
 10
-2958.266544077256
 20
-3340.166443324167
 42
0.4142135633055914
 10
-2963.166441891577
 20
-3345.07584257773
 42
0.0
 10
-2958.261793349813
 20
-3345.071091850287
 42
0.0
 97
        0
 92
        7
 72
     1
 73
     1
 93
        4
 10
-2953.722530358153
 20
-3343.213488263791
 42
0.0156223712422233
 10
-2953.847384533323
 20
-3342.93366479958
 42
-0.0456552624830197
 10
-2958.261793365442
 20
-3345.071091850287
 42
0.0
 10
-2953.357144839365
 20
-3345.066341122852
 42
0.0971714774831682
 97
        0
 92
        7
 72
     1
 73
     1
 93
        3
 10
-2953.357144839365
 20
-3345.066341122852
 42
0.0
 10
-2963.166441891577
 20
-3345.07584257773
 42
0.0971714774825364
 10
-2962.801056372761
 20
-3346.928695436778
 42
0.822869114844493
 97
        0
 75
     0
 76
     1
 47
0.0038336387745525
 98
        6
 10
-2956.310213259598
 20
-3318.547640659976
 10
-2960.111201820519
 20
-3320.103120034414
 10
-2956.202736172885
 20
-3342.084031203681
 10
-2960.396036983789
 20
-3343.475572365663
 10
-2954.256067407145
 20
-3344.057216698463
 10
-2958.424884301583
 20
-3347.179988888775
1001
ACAD
1010
0.0
1020
0.0
1030
0.0
1001
AcDbBlockRepETag
1070
     1
1071
        0
1005
7822
  0
LINE
  5
7823
330
1F
100
AcDbEntity
  8
图例及图签
 62
     4
100
AcDbLine
 10
-2958.310611639145
 20
-3294.671115550896
 30
0.0
 11
-2958.261793349842
 21
-3345.071091844525
 31
0.0
1001
AcDbBlockRepETag
1070
     1
1071
        1
1005
7823
  0
ARC
  5
7824
330
1F
100
AcDbEntity
  8
图例及图签
 62
     4
100
AcDbCircle
 10
-2967.73435857153
 20
-3319.880255345145
 30
0.0
 40
26.91296593487618
100
AcDbArc
 50
290.6078761094228
 51
69.50311922335423
1001
AcDbBlockRepETag
1070
     1
1071
        2
1005
7824
  0
CIRCLE
  5
7825
330
1F
100
AcDbEntity
  8
图例及图签
 62
     4
100
AcDbCircle
 10
-2958.286202494523
 20
-3319.871103697725
 30
0.0
 40
4.904650826929251
1001
AcDbBlockRepETag
1070
     1
1071
        3
1005
7825
  0
CIRCLE
  5
7826
330
1F
100
AcDbEntity
  8
图例及图签
 62
     4
100
AcDbCircle
 10
-2958.261793365442
 20
-3345.071091850287
 30
0.0
 40
4.904650826929251
1001
AcDbBlockRepETag
1070
     1
1071
        4
1005
7826
  0
LWPOLYLINE
  5
7827
330
1F
100
AcDbEntity
  8
图例及图签
 48
1.000000000000000E+16
100
AcDbPolyline
 90
        4
 70
     1
 43
0.0
 10
-3050.181480304827
 20
-3282.973273411832
 10
-2895.274288738738
 20
-3282.973273411832
 10
-2895.274288738738
 20
-3363.444939886073
 10
-3050.181480304827
 20
-3363.444939886073
  0
TEXT
  5
7828
330
1F
100
AcDbEntity
  8
图例及图签
370
     0
100
AcDbText
 10
-3029.334002564321
 20
-3402.227055107861
 30
0.0
 40
20.0
  1
自动风门
 50
359.9999997865571
  7
样式 3
100
AcDbText
1001
ZWMCAD_GENSCA_13_
1070
     1
1040
1.0
1001
ZWMCAD_GENSTANDARDFRAME_13_
1070
   410
1000
GB
1070
   411
1000
ZwmFrameMain_
  0
LINE
  5
7829
330
1F
100
AcDbEntity
  8
图例及图签
 62
    30
370
    -3
100
AcDbLine
 10
-3527.95759975174
 20
-3617.19736395085
 30
0.0
 11
-3627.880718015573
 21
-3618.306442672801
 31
0.0
  0
LINE
  5
782A
330
1F
100
AcDbEntity
  8
图例及图签
 62
    30
370
    -3
100
AcDbLine
 10
-3527.713312480688
 20
-3633.395650305458
 30
0.0
 11
-3627.880718015573
 21
-3634.507440468347
 31
0.0
  0
LWPOLYLINE
  5
782B
330
1F
100
AcDbEntity
  8
图例及图签
 62
    30
370
    -3
100
AcDbPolyline
 90
        2
 70
     0
 43
0.0
 10
-3543.906443338931
 20
-3633.575383052789
 10
-3543.783158451408
 20
-3641.750199214162
  0
LWPOLYLINE
  5
782C
330
1F
100
AcDbEntity
  8
图例及图签
 62
    30
370
    -3
100
AcDbPolyline
 90
        2
 70
     0
 43
0.0
 10
-3535.809877887458
 20
-3633.48551660087
 10
-3535.503932878464
 20
-3653.772220887803
  0
LWPOLYLINE
  5
782D
330
1F
100
AcDbEntity
  8
图例及图签
 62
    30
370
    -3
100
AcDbPolyline
 90
        2
 70
     0
 43
0.0
 10
-3527.230149764039
 20
-3665.433361437218
 10
-3527.713312480688
 20
-3633.395650305458
  0
LWPOLYLINE
  5
782E
330
1F
100
AcDbEntity
  8
图例及图签
 62
    30
370
    -3
100
AcDbPolyline
 90
        2
 70
     0
 43
0.0
 10
-3544.150730665862
 20
-3617.377096675896
 10
-3544.271548312246
 20
-3609.365881719255
  0
LWPOLYLINE
  5
782F
330
1F
100
AcDbEntity
  8
图例及图签
 62
    30
370
    -3
100
AcDbPolyline
 90
        2
 70
     0
 43
0.0
 10
-3536.054165203213
 20
-3617.28723029101
 10
-3536.358615081847
 20
-3597.099665232584
  0
LWPOLYLINE
  5
7830
330
1F
100
AcDbEntity
  8
图例及图签
 62
    30
370
    -3
100
AcDbPolyline
 90
        2
 70
     0
 43
0.0
 10
-3528.443747851789
 20
-3584.961694962977
 10
-3527.95759975174
 20
-3617.19736395085
  0
LWPOLYLINE
  5
7831
330
1F
100
AcDbEntity
  8
图例及图签
 62
    30
370
    -3
100
AcDbPolyline
 90
        2
 70
     0
 43
0.0
 10
-3543.906443338931
 20
-3633.575383052767
 10
-3543.783158451408
 20
-3641.750199214162
  0
LWPOLYLINE
  5
7832
330
1F
100
AcDbEntity
  8
图例及图签
 62
    30
370
    -3
100
AcDbPolyline
 90
        2
 70
     0
 43
0.0
 10
-3535.809877887458
 20
-3633.485516600805
 10
-3535.503932878464
 20
-3653.772220887782
  0
LWPOLYLINE
  5
7833
330
1F
100
AcDbEntity
  8
图例及图签
 62
    30
370
    -3
100
AcDbPolyline
 90
        2
 70
     0
 43
0.0
 10
-3527.230149764039
 20
-3665.433361437218
 10
-3527.713312480688
 20
-3633.395650305391
  0
LWPOLYLINE
  5
7834
330
1F
100
AcDbEntity
  8
图例及图签
 62
    30
370
    -3
100
AcDbPolyline
 90
        2
 70
     0
 43
0.0
 10
-3544.150730665862
 20
-3617.377096675874
 10
-3544.271548312246
 20
-3609.365881719255
  0
LWPOLYLINE
  5
7835
330
1F
100
AcDbEntity
  8
图例及图签
 62
    30
370
    -3
100
AcDbPolyline
 90
        2
 70
     0
 43
0.0
 10
-3536.054165203213
 20
-3617.28723029101
 10
-3536.358615081847
 20
-3597.099665232584
  0
LWPOLYLINE
  5
7836
330
1F
100
AcDbEntity
  8
图例及图签
 62
    30
370
    -3
100
AcDbPolyline
 90
        2
 70
     0
 43
0.0
 10
-3528.443747851789
 20
-3584.961694962977
 10
-3527.95759975174
 20
-3617.19736395085
  0
LWPOLYLINE
  5
7837
330
1F
100
AcDbEntity
  8
图例及图签
 62
    30
370
    -3
100
AcDbPolyline
 90
        2
 70
     0
 43
0.0
 10
-3543.906443338931
 20
-3633.575383052767
 10
-3543.783158451408
 20
-3641.750199214118
  0
LWPOLYLINE
  5
7838
330
1F
100
AcDbEntity
  8
图例及图签
 62
    30
370
    -3
100
AcDbPolyline
 90
        2
 70
     0
 43
0.0
 10
-3535.809877887458
 20
-3633.485516600805
 10
-3535.503932878464
 20
-3653.772220887782
  0
LWPOLYLINE
  5
7839
330
1F
100
AcDbEntity
  8
图例及图签
 62
    30
370
    -3
100
AcDbPolyline
 90
        2
 70
     0
 43
0.0
 10
-3527.230149764039
 20
-3665.433361437218
 10
-3527.713312480688
 20
-3633.395650305348
  0
LWPOLYLINE
  5
783A
330
1F
100
AcDbEntity
  8
图例及图签
 62
    30
370
    -3
100
AcDbPolyline
 90
        2
 70
     0
 43
0.0
 10
-3544.150730665862
 20
-3617.377096675874
 10
-3544.271548312246
 20
-3609.365881719255
  0
LWPOLYLINE
  5
783B
330
1F
100
AcDbEntity
  8
图例及图签
 62
    30
370
    -3
100
AcDbPolyline
 90
        2
 70
     0
 43
0.0
 10
-3536.054165203213
 20
-3617.28723029101
 10
-3536.358615081847
 20
-3597.099665232541
  0
LWPOLYLINE
  5
783C
330
1F
100
AcDbEntity
  8
图例及图签
 62
    30
370
    -3
100
AcDbPolyline
 90
        2
 70
     0
 43
0.0
 10
-3528.443747851789
 20
-3584.961694962977
 10
-3527.95759975174
 20
-3617.19736395085
  0
MTEXT
  5
783D
330
1F
100
AcDbEntity
  8
图例及图签
 62
     6
370
    -3
100
AcDbMText
 10
-3542.335591693076
 20
-3345.539674382634
 30
348.0
 40
45.0
 41
0.0
 71
     9
 72
     1
  1
25
  7
HZ
 73
     1
 44
1.0
1001
ACAD
1000
MTEXTBEGIN
1070
    73
1070
     1
1070
    44
1040
1.0
1070
    74
1070
     0
1000
MTEXTEND
  0
MTEXT
  5
783E
330
1F
100
AcDbEntity
  8
图例及图签
 62
     4
370
    -3
100
AcDbMText
 10
-4340.220907245313
 20
-3476.83313390133
 30
0.0
 40
4.5
 41
0.0
 71
     9
 72
     1
  1
F
  7
HZ
 73
     1
 44
1.0
1001
ACAD
1000
MTEXTBEGIN
1070
    73
1070
     1
1070
    44
1040
1.0
1070
    74
1070
     0
1000
MTEXTEND
  0
MTEXT
  5
783F
330
1F
100
AcDbEntity
  8
图例及图签
 62
     4
370
    -3
100
AcDbMText
 10
-4376.699706922127
 20
-3476.802550530809
 30
0.0
 40
4.5
 41
0.0
 71
     9
 72
     1
  1
F
  7
HZ
 73
     1
 44
1.0
1001
ACAD
1000
MTEXTBEGIN
1070
    73
1070
     1
1070
    44
1040
1.0
1070
    74
1070
     0
1000
MTEXTEND
  0
LWPOLYLINE
  5
7840
330
1F
100
AcDbEntity
  8
图例及图签
 48
1.000000000000000E+16
100
AcDbPolyline
 90
        4
 70
     1
 43
0.0
 10
-5050.181480304828
 20
-3284.961694962977
 10
-4895.274288738738
 20
-3284.961694962977
 10
-4895.274288738738
 20
-3365.433361437219
 10
-5050.181480304828
 20
-3365.433361437219
  0
LINE
  5
7841
330
1F
100
AcDbEntity
  8
图例及图签
 62
     4
370
    -3
100
AcDbLine
 10
-4910.928075850695
 20
-3328.014338508829
 30
0.0
 11
-5020.430185911727
 21
-3328.158129779454
 31
0.0
  0
LINE
  5
7842
330
1F
100
AcDbEntity
  8
图例及图签
 62
     4
370
    -3
100
AcDbLine
 10
-4910.928075850695
 20
-3311.814322268415
 30
0.0
 11
-5020.430185911727
 21
-3311.958113497486
 31
0.0
  0
TEXT
  5
7843
330
1F
100
AcDbEntity
  8
图例及图签
370
     0
100
AcDbText
 10
-5029.334002564321
 20
-3404.215476659006
 30
0.0
 40
20.0
  1
42煤巷道
 50
359.9999997865571
  7
样式 3
100
AcDbText
1001
ZWMCAD_GENSCA_13_
1070
     1
1040
1.0
1001
ZWMCAD_GENSTANDARDFRAME_13_
1070
   410
1000
GB
1070
   411
1000
ZwmFrameMain_
  0
LWPOLYLINE
  5
7844
330
1F
100
AcDbEntity
  8
图例及图签
 48
1.000000000000000E+16
100
AcDbPolyline
 90
        4
 70
     1
 43
0.0
 10
-5050.181480304828
 20
-3434.961694962977
 10
-4895.274288738738
 20
-3434.961694962977
 10
-4895.274288738738
 20
-3515.433361437219
 10
-5050.181480304828
 20
-3515.433361437219
  0
TEXT
  5
7845
330
1F
100
AcDbEntity
  8
图例及图签
370
     0
100
AcDbText
 10
-5022.817806275782
 20
-3554.215476659006
 30
0.0
 40
20.0
  1
采空区
 50
359.9999997865571
  7
样式 3
100
AcDbText
1001
ZWMCAD_GENSCA_13_
1070
     1
1040
1.0
1001
ZWMCAD_GENSTANDARDFRAME_13_
1070
   410
1000
GB
1070
   411
1000
ZwmFrameMain_
  0
LWPOLYLINE
  5
7846
330
1F
100
AcDbEntity
  8
图例及图签
 48
1.000000000000000E+16
100
AcDbPolyline
 90
        4
 70
     1
 43
0.0
 10
-5050.181480304828
 20
-3584.961694962977
 10
-4895.274288738738
 20
-3584.961694962977
 10
-4895.274288738738
 20
-3665.433361437218
 10
-5050.181480304828
 20
-3665.433361437218
  0
INSERT
  5
7847
330
1F
100
AcDbEntity
  8
图例及图签
 62
     7
 48
1.000000000000000E+16
100
AcDbBlockReference
 66
     1
  2
A$C0F3E0099
 10
-4741.537631013181
 20
-3273.231534125909
 30
0.0
 41
3.0
 42
3.0
 43
3.0
 50
179.6781498592954
  0
SEQEND
  5
7848
330
7847
100
AcDbEntity
  8
0
 48
1.000000000000000E+16
  0
TEXT
  5
7849
330
1F
100
AcDbEntity
  8
图例及图签
370
     0
100
AcDbText
 10
-5016.076127257535
 20
-3704.215476659006
 30
0.0
 40
20.0
  1
测风站
 50
359.9999997865571
  7
样式 3
100
AcDbText
1001
ZWMCAD_GENSCA_13_
1070
     1
1040
1.0
1001
ZWMCAD_GENSTANDARDFRAME_13_
1070
   410
1000
GB
1070
   411
1000
ZwmFrameMain_
  0
LWPOLYLINE
  5
784A
330
1F
100
AcDbEntity
  8
图例及图签
 62
     1
 48
1.000000000000000E+16
370
    -3
100
AcDbPolyline
 90
        2
 70
     0
 43
0.0
 10
-4801.811379422225
 20
-3307.036654691262
 10
-4775.483634169004
 20
-3307.036654691262
  0
CIRCLE
  5
784B
330
1F
100
AcDbEntity
  8
图例及图签
 62
     1
 48
1.000000000000000E+16
100
AcDbCircle
 10
-4769.332949110213
 20
-3307.036654691262
 30
0.0
 40
6.1506850587769
  0
LWPOLYLINE
  5
784C
330
1F
100
AcDbEntity
  8
图例及图签
 62
     1
 48
1.000000000000000E+16
370
    -3
100
AcDbPolyline
 90
        5
 70
     0
 43
0.0
 10
-4763.182085259258
 20
-3307.036654691262
 10
-4736.914165228512
 20
-3307.036654691262
 10
-4736.914165228512
 20
-3348.138223680602
 10
-4801.811379422225
 20
-3348.138223680602
 10
-4801.811379422225
 20
-3307.036654691262
  0
LWPOLYLINE
  5
784D
330
1F
100
AcDbEntity
  8
图例及图签
 48
1.000000000000000E+16
100
AcDbPolyline
 90
        4
 70
     1
 43
0.0
 10
-4850.181480304827
 20
-3284.961694962977
 10
-4695.274288738738
 20
-3284.961694962977
 10
-4695.274288738738
 20
-3365.433361437219
 10
-4850.181480304827
 20
-3365.433361437219
  0
TEXT
  5
784E
330
1F
100
AcDbEntity
  8
图例及图签
370
     0
100
AcDbText
 10
-4855.381651107602
 20
-3404.215476659006
 30
0.0
 40
20.0
  1
抽采瓦斯泵站
 50
359.9999997865571
  7
样式 3
100
AcDbText
1001
ZWMCAD_GENSCA_13_
1070
     1
1040
1.0
1001
ZWMCAD_GENSTANDARDFRAME_13_
1070
   410
1000
GB
1070
   411
1000
ZwmFrameMain_
  0
LINE
  5
784F
330
1F
100
AcDbEntity
  8
图例及图签
 62
     6
370
    -3
100
AcDbLine
 10
-4761.901526876574
 20
-3477.124339893925
 30
0.0
 11
-4761.901526876574
 21
-3499.525773290835
 31
0.0
  0
LINE
  5
7850
330
1F
100
AcDbEntity
  8
图例及图签
 62
     6
370
    -3
100
AcDbLine
 10
-4779.304293317162
 20
-3477.124339893925
 30
0.0
 11
-4779.304293317162
 21
-3499.525773290835
 31
0.0
  0
ARC
  5
7851
330
1F
100
AcDbEntity
  8
图例及图签
 62
     6
370
    -3
100
AcDbCircle
 10
-4771.323875711731
 20
-3476.850593914387
 30
0.0
 40
19.19011783952273
100
AcDbArc
 50
359.1826511226778
 51
180.8173488773221
  0
LINE
  5
7852
330
1F
100
AcDbEntity
  8
图例及图签
 62
     6
370
    -3
100
AcDbLine
 10
-4799.227290634002
 20
-3477.124339893925
 30
0.0
 11
-4742.946003421931
 21
-3477.124339893925
 31
0.0
  0
LWPOLYLINE
  5
7853
330
1F
100
AcDbEntity
  8
图例及图签
 48
1.000000000000000E+16
100
AcDbPolyline
 90
        4
 70
     1
 43
0.0
 10
-4850.181480304827
 20
-3434.961694962977
 10
-4695.274288738738
 20
-3434.961694962977
 10
-4695.274288738738
 20
-3515.433361437219
 10
-4850.181480304827
 20
-3515.433361437219
  0
TEXT
  5
7854
330
1F
100
AcDbEntity
  8
图例及图签
370
     0
100
AcDbText
 10
-4811.426244190815
 20
-3554.215476659006
 30
0.0
 40
20.0
  1
防爆盖
 50
359.9999997865571
  7
样式 3
100
AcDbText
1001
ZWMCAD_GENSCA_13_
1070
     1
1040
1.0
1001
ZWMCAD_GENSTANDARDFRAME_13_
1070
   410
1000
GB
1070
   411
1000
ZwmFrameMain_
  0
ELLIPSE
  5
7855
330
1F
100
AcDbEntity
  8
图例及图签
  6
ByBlock
 62
    30
100
AcDbEllipse
 10
-4789.703717048107
 20
-3625.031767633241
 30
0.0
 11
14.5776474143317
 21
-15.68140772683316
 31
0.0
210
0.0
220
0.0
230
-1.0
 40
1.0
 41
2.711279077216926
 42
5.113541245381419
  0
LINE
  5
7856
330
1F
100
AcDbEntity
  8
图例及图签
  6
ByBlock
 62
    30
370
    -3
100
AcDbLine
 10
-4809.493983358845
 20
-3616.861106078321
 30
0.0
 11
-4823.018039290155
 21
-3616.700922602314
 31
0.0
  0
LINE
  5
7857
330
1F
100
AcDbEntity
  8
图例及图签
  6
ByBlock
 62
    30
370
    -3
100
AcDbLine
 10
-4729.655935081306
 20
-3618.608257717576
 30
0.0
 11
-4716.784768049141
 21
-3618.760708228968
 31
0.0
  0
ELLIPSE
  5
7858
330
1F
100
AcDbEntity
  8
图例及图签
  6
ByBlock
 62
    30
100
AcDbEllipse
 10
-4749.784692918942
 20
-3625.905343486177
 30
0.0
 11
14.5776474143317
 21
-15.68140772683316
 31
0.0
210
0.0
220
0.0
230
-1.0
 40
1.0
 41
2.711279077223664
 42
5.113541245371017
  0
LINE
  5
7859
330
1F
100
AcDbEntity
  8
图例及图签
 62
    30
370
    -3
100
AcDbLine
 10
-4716.791019466125
 20
-3624.744375895585
 30
0.0
 11
-4823.026326705936
 21
-3624.633386911118
 31
0.0
  0
ELLIPSE
  5
785A
330
1F
100
AcDbEntity
  8
图例及图签
  6
ByBlock
 62
    30
100
AcDbEllipse
 10
-4789.702957378062
 20
-3624.304634354098
 30
0.0
 11
14.61038175301261
 21
15.65091363029618
 31
0.0
210
0.0
220
0.0
230
1.0
 40
1.0
 41
2.711279077225788
 42
5.113541245376953
  0
LINE
  5
785B
330
1F
100
AcDbEntity
  8
图例及图签
  6
ByBlock
 62
    30
370
    -3
100
AcDbLine
 10
-4809.510253011135
 20
-3632.43392648777
 30
0.0
 11
-4823.03461412166
 21
-3632.565851219878
 31
0.0
  0
LINE
  5
785C
330
1F
100
AcDbEntity
  8
图例及图签
  6
ByBlock
 62
    30
370
    -3
100
AcDbLine
 10
-4729.66872836149
 20
-3630.853599551882
 30
0.0
 11
-4716.797270882993
 21
-3630.728043561982
 31
0.0
  0
ELLIPSE
  5
785D
330
1F
100
AcDbEntity
  8
图例及图签
  6
ByBlock
 62
    30
100
AcDbEllipse
 10
-4749.782195062727
 20
-3623.514470852933
 30
0.0
 11
14.61038175301261
 21
15.65091363029618
 31
0.0
210
0.0
220
0.0
230
1.0
 40
1.0
 41
2.711279077224137
 42
5.113541245378568
  0
LWPOLYLINE
  5
785E
330
1F
100
AcDbEntity
  8
图例及图签
 48
1.000000000000000E+16
100
AcDbPolyline
 90
        4
 70
     1
 43
0.0
 10
-4850.181480304827
 20
-3584.961694962977
 10
-4695.274288738738
 20
-3584.961694962977
 10
-4695.274288738738
 20
-3665.433361437218
 10
-4850.181480304827
 20
-3665.433361437218
  0
TEXT
  5
785F
330
1F
100
AcDbEntity
  8
图例及图签
370
     0
100
AcDbText
 10
-4811.426244190815
 20
-3704.215476659006
 30
0.0
 40
20.0
  1
防爆门
 50
359.9999997865571
  7
样式 3
100
AcDbText
1001
ZWMCAD_GENSCA_13_
1070
     1
1040
1.0
1001
ZWMCAD_GENSTANDARDFRAME_13_
1070
   410
1000
GB
1070
   411
1000
ZwmFrameMain_
  0
ARC
  5
7860
330
1F
100
AcDbEntity
  8
图例及图签
 62
     4
 48
1.000000000000000E+16
100
AcDbCircle
 10
-4567.209872111884
 20
-3327.52512100412
 30
0.0
 40
29.40163518002032
100
AcDbArc
 50
0.0
 51
180.0
  0
LINE
  5
7861
330
1F
100
AcDbEntity
  8
图例及图签
 62
     4
 48
1.000000000000000E+16
100
AcDbLine
 10
-4508.447353818193
 20
-3327.52512100412
 30
0.0
 11
-4537.808236931859
 21
-3327.52512100412
 31
0.0
  0
LINE
  5
7862
330
1F
100
AcDbEntity
  8
图例及图签
 62
     4
 48
1.000000000000000E+16
100
AcDbLine
 10
-4596.611507291907
 20
-3327.52512100412
 30
0.0
 11
-4625.972390405602
 21
-3327.52512100412
 31
0.0
  0
LINE
  5
7863
330
1F
100
AcDbEntity
  8
图例及图签
 62
     4
 48
1.000000000000000E+16
370
    -3
100
AcDbLine
 10
-4508.447353818193
 20
-3312.844679447272
 30
0.0
 11
-4508.447353818193
 21
-3342.205562560945
 31
0.0
  0
LINE
  5
7864
330
1F
100
AcDbEntity
  8
图例及图签
 62
     4
 48
1.000000000000000E+16
100
AcDbLine
 10
-4625.972390405602
 20
-3312.844679447272
 30
0.0
 11
-4625.972390405602
 21
-3342.205562560945
 31
0.0
  0
TEXT
  5
7865
330
1F
100
AcDbEntity
  8
图例及图签
370
     0
100
AcDbText
 10
-4611.426244190815
 20
-3404.215476659006
 30
0.0
 40
20.0
  1
防火门
 50
359.9999997865571
  7
样式 3
100
AcDbText
1001
ZWMCAD_GENSCA_13_
1070
     1
1040
1.0
1001
ZWMCAD_GENSTANDARDFRAME_13_
1070
   410
1000
GB
1070
   411
1000
ZwmFrameMain_
  0
TEXT
  5
7866
330
1F
100
AcDbEntity
  8
图例及图签
370
     0
100
AcDbText
 10
-4629.334002564321
 20
-3704.215476659006
 30
0.0
 40
20.0
  1
防火密闭
 50
359.9999997865571
  7
样式 3
100
AcDbText
1001
ZWMCAD_GENSCA_13_
1070
     1
1040
1.0
1001
ZWMCAD_GENSTANDARDFRAME_13_
1070
   410
1000
GB
1070
   411
1000
ZwmFrameMain_
  0
MTEXT
  5
7867
330
1F
100
AcDbEntity
  8
图例及图签
 62
     1
370
    -3
100
AcDbMText
 10
-4773.487994288379
 20
-3301.135134525676
 30
0.0
 40
12.0
 41
782.2600059540473
 71
     1
 72
     5
  1
G
 11
0.999999348195781
 21
-0.0011417565471901
 31
0.0
 73
     1
 44
1.0
1001
ACAD
1000
MTEXTBEGIN
1070
    73
1070
     1
1070
    44
1040
1.0
1070
    74
1070
     0
1000
MTEXTEND
1000
ACAD_MTEXT_DEFINED_HEIGHT_BEGIN
1070
    46
1040
74.44417949326717
1000
ACAD_MTEXT_DEFINED_HEIGHT_END
  0
MTEXT
  5
7868
330
1F
100
AcDbEntity
  8
图例及图签
100
AcDbMText
 10
-5162.591290165992
 20
-3426.428286423269
 30
0.0
 40
29.99999999999998
 41
52.1059642797081
 71
     1
 72
     5
  1
{\C256;\U+56FE\P\P\U+4F8B}
  7
HZ
 73
     1
 44
1.0
1001
ACAD
1000
MTEXTBEGIN
1070
    73
1070
     1
1070
    44
1040
1.0
1070
    74
1070
     0
1000
MTEXTEND
1000
ACAD_MTEXT_DEFINED_HEIGHT_BEGIN
1070
    46
1040
540.9404201908374
1000
ACAD_MTEXT_DEFINED_HEIGHT_END
  0
LINE
  5
7869
330
1F
100
AcDbEntity
  8
图例及图签
 62
     4
370
    -3
100
AcDbLine
 10
-4516.211063179917
 20
-3613.479439617094
 30
0.0
 11
-4625.713173240978
 21
-3613.623230846158
 31
0.0
  0
LINE
  5
786A
330
1F
100
AcDbEntity
  8
图例及图签
 62
     4
370
    -3
100
AcDbLine
 10
-4516.211063179917
 20
-3629.679455857509
 30
0.0
 11
-4625.713173240978
 21
-3629.823247128133
 31
0.0
  0
LINE
  5
786B
330
1F
100
AcDbEntity
  8
图例及图签
 62
     4
370
    -3
100
AcDbLine
 10
-4912.750321969857
 20
-3630.553555011305
 30
0.0
 11
-5022.252432030889
 21
-3630.697346281929
 31
0.0
  0
LINE
  5
786C
330
1F
100
AcDbEntity
  8
图例及图签
 62
     4
370
    -3
100
AcDbLine
 10
-3912.772365875675
 20
-3628.733841215645
 30
0.0
 11
-4022.274475936735
 21
-3628.877632486277
 31
0.0
  0
LINE
  5
786D
330
1F
100
AcDbEntity
  8
图例及图签
 62
     4
370
    -3
100
AcDbLine
 10
-3912.772365875675
 20
-3612.533824975237
 30
0.0
 11
-4022.274475936735
 21
-3612.677616204301
 31
0.0
  0
LINE
  5
786E
330
1F
100
AcDbEntity
  8
图例及图签
  6
ByBlock
 62
     4
370
    -3
100
AcDbLine
 10
-3969.669356642657
 20
-3593.323394550956
 30
0.0
 11
-3969.669356642657
 21
-3647.62002143172
 31
0.0
1001
AcDbBlockRepETag
1000

  0
LINE
  5
786F
330
1F
100
AcDbEntity
  8
图例及图签
 62
     4
370
    -3
100
AcDbLine
 10
-3322.369559870038
 20
-3634.554244263548
 30
0.0
 11
-3431.871669931099
 21
-3634.698035534172
 31
0.0
  0
LINE
  5
7870
330
1F
100
AcDbEntity
  8
图例及图签
 62
     4
370
    -3
100
AcDbLine
 10
-3322.369559870038
 20
-3618.354228023141
 30
0.0
 11
-3431.871669931099
 21
-3618.498019252197
 31
0.0
  0
LINE
  5
7871
330
1F
100
AcDbEntity
  8
图例及图签
 62
     4
 48
1.000000000000000E+16
100
AcDbLine
 10
-3380.347388365534
 20
-3603.657911565401
 30
0.0
 11
-3380.440427755058
 21
-3643.499450704832
 31
0.0
  0
LINE
  5
7872
330
1F
100
AcDbEntity
  8
图例及图签
 62
     4
 48
1.000000000000000E+16
100
AcDbLine
 10
-3361.960639924708
 20
-3603.700842154096
 30
0.0
 11
-3362.053679314233
 21
-3643.542381293525
 31
0.0
  0
LINE
  5
7873
330
1F
100
AcDbEntity
  8
图例及图签
 62
     4
370
    -3
100
AcDbLine
 10
-3821.517903858274
 20
-3613.256300681419
 30
0.0
 11
-3712.015793797242
 21
-3613.112509410773
 31
0.0
  0
LINE
  5
7874
330
1F
100
AcDbEntity
  8
图例及图签
 62
     4
370
    -3
100
AcDbLine
 10
-3821.517903858274
 20
-3629.45631692182
 30
0.0
 11
-3712.015793797242
 21
-3629.312525692756
 31
0.0
  0
LINE
  5
7875
330
1F
100
AcDbEntity
  8
图例及图签
 62
     4
 48
1.000000000000000E+16
100
AcDbLine
 10
-3760.886998936827
 20
-3601.496574501306
 30
-0.0000000041892671
 11
-3760.879778069096
 21
-3644.708016114727
 31
-0.0000000041892671
  0
LINE
  5
7876
330
1F
100
AcDbEntity
  8
图例及图签
 62
     4
 48
1.000000000000000E+16
100
AcDbLine
 10
-3777.110738784426
 20
-3601.496574501328
 30
-0.0000000041892671
 11
-3777.103517916667
 21
-3644.708016114727
 31
-0.0000000041892671
  0
LINE
  5
7877
330
1F
100
AcDbEntity
  8
图例及图签
 62
     4
 48
1.000000000000000E+16
100
AcDbLine
 10
-3760.885499527796
 20
-3610.469405431121
 30
-0.0000000041892671
 11
-3777.116514413562
 21
-3610.469405432758
 31
-0.0000000041892671
  0
LINE
  5
7878
330
1F
100
AcDbEntity
  8
图例及图签
 62
     4
 48
1.000000000000000E+16
100
AcDbLine
 10
-3760.886998936827
 20
-3616.008331669156
 30
-0.0000000041892671
 11
-3765.059535944575
 21
-3613.069886273103
 31
-0.0000000041892671
  0
LINE
  5
7879
330
1F
100
AcDbEntity
  8
图例及图签
 62
     4
 48
1.000000000000000E+16
100
AcDbLine
 10
-3765.059535944575
 20
-3613.069886273103
 30
-0.0000000041892671
 11
-3777.108803743382
 21
-3613.076334181863
 31
-0.0000000041892671
  0
LINE
  5
787A
330
1F
100
AcDbEntity
  8
图例及图签
 62
     4
 48
1.000000000000000E+16
100
AcDbLine
 10
-3777.108803743382
 20
-3613.076334181863
 30
-0.0000000041892671
 11
-3772.94542264438
 21
-3616.008331669156
 31
-0.0000000041892671
  0
LINE
  5
787B
330
1F
100
AcDbEntity
  8
图例及图签
 62
     4
 48
1.000000000000000E+16
100
AcDbLine
 10
-3772.94542264438
 20
-3616.008331669156
 30
-0.0000000041892671
 11
-3760.886998936827
 21
-3616.008331669156
 31
-0.0000000041892671
  0
LINE
  5
787C
330
1F
100
AcDbEntity
  8
图例及图签
 62
     4
 48
1.000000000000000E+16
100
AcDbLine
 10
-3772.94542264438
 20
-3621.717122560334
 30
-0.0000000041892671
 11
-3760.886998936827
 21
-3621.717122560377
 31
-0.0000000041892671
  0
LINE
  5
787D
330
1F
100
AcDbEntity
  8
图例及图签
 62
     4
 48
1.000000000000000E+16
100
AcDbLine
 10
-3760.886998936827
 20
-3621.717122560377
 30
-0.0000000041892671
 11
-3765.059535944575
 21
-3618.778677164281
 31
-0.0000000041892671
  0
LINE
  5
787E
330
1F
100
AcDbEntity
  8
图例及图签
 62
     4
 48
1.000000000000000E+16
100
AcDbLine
 10
-3765.059535944575
 20
-3618.778677164281
 30
-0.0000000041892671
 11
-3777.108803743382
 21
-3618.785125073041
 31
-0.0000000041892671
  0
LINE
  5
787F
330
1F
100
AcDbEntity
  8
图例及图签
 62
     4
 48
1.000000000000000E+16
100
AcDbLine
 10
-3777.108803743382
 20
-3618.785125073041
 30
-0.0000000041892671
 11
-3772.94542264438
 21
-3621.717122560334
 31
-0.0000000041892671
  0
LINE
  5
7880
330
1F
100
AcDbEntity
  8
图例及图签
 62
     4
 48
1.000000000000000E+16
100
AcDbLine
 10
-3772.941090050214
 20
-3627.423879429148
 30
-0.0000000041892671
 11
-3760.882666342661
 21
-3627.423879429148
 31
-0.0000000041892671
  0
LINE
  5
7881
330
1F
100
AcDbEntity
  8
图例及图签
 62
     4
 48
1.000000000000000E+16
100
AcDbLine
 10
-3760.882666342661
 20
-3627.423879429148
 30
-0.0000000041892671
 11
-3765.055203350409
 21
-3624.485434033096
 31
-0.0000000041892671
  0
LINE
  5
7882
330
1F
100
AcDbEntity
  8
图例及图签
 62
     4
 48
1.000000000000000E+16
100
AcDbLine
 10
-3765.055203350409
 20
-3624.485434033096
 30
-0.0000000041892671
 11
-3777.104471149187
 21
-3624.491881941855
 31
-0.0000000041892671
  0
LINE
  5
7883
330
1F
100
AcDbEntity
  8
图例及图签
 62
     4
 48
1.000000000000000E+16
100
AcDbLine
 10
-3777.104471149187
 20
-3624.491881941855
 30
-0.0000000041892671
 11
-3772.941090050214
 21
-3627.423879429148
 31
-0.0000000041892671
  0
LINE
  5
7884
330
1F
100
AcDbEntity
  8
图例及图签
 62
     4
 48
1.000000000000000E+16
100
AcDbLine
 10
-3772.966016104592
 20
-3633.13470434293
 30
-0.0000000041892671
 11
-3760.907592397069
 21
-3633.13470434293
 31
-0.0000000041892671
  0
LINE
  5
7885
330
1F
100
AcDbEntity
  8
图例及图签
 62
     4
 48
1.000000000000000E+16
100
AcDbLine
 10
-3760.907592397069
 20
-3633.13470434293
 30
-0.0000000041892671
 11
-3765.080129404787
 21
-3630.196258946878
 31
-0.0000000041892671
  0
LINE
  5
7886
330
1F
100
AcDbEntity
  8
图例及图签
 62
     4
 48
1.000000000000000E+16
100
AcDbLine
 10
-3765.080129404787
 20
-3630.196258946878
 30
-0.0000000041892671
 11
-3777.129397203566
 21
-3630.202706855637
 31
-0.0000000041892671
  0
LINE
  5
7887
330
1F
100
AcDbEntity
  8
图例及图签
 62
     4
 48
1.000000000000000E+16
100
AcDbLine
 10
-3777.129397203566
 20
-3630.202706855637
 30
-0.0000000041892671
 11
-3772.966016104592
 21
-3633.13470434293
 31
-0.0000000041892671
  0
LINE
  5
7888
330
1F
100
AcDbEntity
  8
图例及图签
 62
     4
 48
1.000000000000000E+16
100
AcDbLine
 10
-3760.881136977378
 20
-3636.575975987765
 30
-0.0000000041892671
 11
-3777.112151863172
 21
-3636.575975989402
 31
-0.0000000041892671
  0
HATCH
  5
7889
330
1F
100
AcDbEntity
  8
图例及图签
 62
     4
370
     0
100
AcDbHatch
 10
0.0
 20
0.0
 30
0.0
210
0.0
220
0.0
230
1.0
  2
SOLID
 70
     1
 71
     0
 91
        1
 92
        7
 72
     0
 73
     1
 93
        4
 10
-4576.868475748518
 20
-3630.381487659712
 10
-4567.088118645684
 20
-3630.283133917404
 10
-4567.256723861707
 20
-3613.516927142994
 10
-4577.037080973796
 20
-3613.615280889153
 97
        0
 75
     0
 76
     1
 47
0.4108958283621086
 98
        1
 10
-4568.785370577535
 20
-3623.992697463243
1001
ACAD
1010
0.0
1020
0.0
1030
0.0
  0
LINE
  5
788A
330
1F
100
AcDbEntity
  8
图例及图签
 62
     4
370
    -3
100
AcDbLine
 10
-4912.750321969857
 20
-3614.35353877089
 30
0.0
 11
-5022.252432030889
 21
-3614.497329999954
 31
0.0
  0
LINE
  5
788B
330
1F
100
AcDbEntity
  8
图例及图签
  6
井田边界
370
   100
100
AcDbLine
 10
-3026.760447717827
 20
-3623.122953810968
 30
0.0
 11
-2925.516524184752
 21
-3623.122953810968
 31
0.0
  0
TEXT
  5
788C
330
1F
100
AcDbEntity
  8
图例及图签
370
     0
100
AcDbText
 10
-3028.328896448302
 20
-3704.215476659006
 30
0.0
 40
20.0
  1
井田边界
 50
359.9999997865571
  7
样式 3
100
AcDbText
1001
ZWMCAD_GENSCA_13_
1070
     1
1040
1.0
1001
ZWMCAD_GENSTANDARDFRAME_13_
1070
   410
1000
GB
1070
   411
1000
ZwmFrameMain_
  0
LWPOLYLINE
  5
788D
330
1F
100
AcDbEntity
  8
图例及图签
 48
1.000000000000000E+16
100
AcDbPolyline
 90
        4
 70
     1
 43
0.0
 10
-3050.181480304827
 20
-3436.563755554761
 10
-2895.274288738738
 20
-3436.563755554761
 10
-2895.274288738738
 20
-3517.035422029002
 10
-3050.181480304827
 20
-3517.035422029002
  0
LINE
  5
788E
330
1F
100
AcDbEntity
  8
图例及图签
  6
CENTER
370
    50
100
AcDbLine
 10
-3027.763770428706
 20
-3476.616359428437
 30
0.0
 11
-2916.919130008888
 21
-3476.616359428437
 31
0.0
  0
TEXT
  5
788F
330
1F
100
AcDbEntity
  8
图例及图签
370
     0
100
AcDbText
 10
-3029.334002564321
 20
-3555.81753725079
 30
0.0
 40
20.0
  1
盘区边界
 50
359.9999997865571
  7
样式 3
100
AcDbText
1001
ZWMCAD_GENSCA_13_
1070
     1
1040
1.0
1001
ZWMCAD_GENSTANDARDFRAME_13_
1070
   410
1000
GB
1070
   411
1000
ZwmFrameMain_
  0
LWPOLYLINE
  5
7890
330
1F
100
AcDbEntity
  8
图例及图签
 48
1.000000000000000E+16
100
AcDbPolyline
 90
        4
 70
     1
 43
0.0
 10
-3050.181480304827
 20
-3584.961694962977
 10
-2895.274288738738
 20
-3584.961694962977
 10
-2895.274288738738
 20
-3665.433361437218
 10
-3050.181480304827
 20
-3665.433361437218
  0
HATCH
  5
7891
330
1F
100
AcDbEntity
  8
图例及图签
  6
井田边界
 62
     4
 48
1.000000000000000E+16
370
     0
100
AcDbHatch
 10
0.0
 20
0.0
 30
0.0
210
0.0
220
0.0
230
1.0
  2
ANSI31
 70
     0
 71
     0
 91
        1
 92
        7
 72
     0
 73
     1
 93
        4
 10
-5050.181480304828
 20
-3515.433361437219
 10
-5050.181480304828
 20
-3434.961694962977
 10
-4895.274288738738
 20
-3434.961694962977
 10
-4895.274288738738
 20
-3515.433361437219
 97
        0
 75
     0
 76
     1
 52
0.0
 41
200.0
 77
     0
 78
     1
 53
45.0
 43
-42063.10941595516
 44
9171.438697285097
 45
-17.67766952966368
 46
17.67766952966369
 79
     0
 47
0.0
 98
        1
 10
-4959.773439559171
 20
-3457.858204745079
1001
ACAD
1010
0.0
1020
0.0
1030
0.0
  0
SPLINE
  5
7892
330
1F
100
AcDbEntity
  8
图例及图签
  6
DASH
 62
     4
 48
1.000000000000000E+16
370
     0
100
AcDbSpline
210
0.0
220
0.0
230
1.0
 70
     8
 71
     3
 72
     9
 73
     5
 74
     0
 42
0.000000001
 43
0.0000000001
 40
0.0
 40
0.0
 40
0.0
 40
0.0
 40
23.3540276333111
 40
57.94036313952496
 40
57.94036313952496
 40
57.94036313952496
 40
57.94036313952496
 10
-2828.203446924158
 20
-3318.77838454175
 30
0.0
 10
-2822.962084575463
 20
-3326.039207274646
 30
0.0
 10
-2809.958484400044
 20
-3344.053003971352
 30
0.0
 10
-2792.094133745
 20
-3329.637288791062
 30
0.0
 10
-2781.227861628622
 20
-3321.658024492581
 30
0.0
  0
LWPOLYLINE
  5
7893
330
1F
100
AcDbEntity
  8
图例及图签
 48
1.000000000000000E+16
100
AcDbPolyline
 90
        4
 70
     1
 43
0.0
 10
-2851.153443271304
 20
-3284.108122549677
 10
-2696.246251705213
 20
-3284.108122549677
 10
-2696.246251705213
 20
-3364.579789023918
 10
-2851.153443271304
 20
-3364.579789023918
  0
TEXT
  5
7894
330
1F
100
AcDbEntity
  8
图例及图签
 62
     4
100
AcDbText
 10
-2778.116314352136
 20
-3325.753632075254
 30
0.0
 40
12.5
  1
985
 50
27.11643097572459
  7
宋体
100
AcDbText
  0
TEXT
  5
7895
330
1F
100
AcDbEntity
  8
图例及图签
370
     0
100
AcDbText
 10
-2894.485425024652
 20
-3403.32558185394
 30
0.0
 40
20.0
  1
42煤煤层底板等高线
 50
359.9999997865571
  7
样式 3
100
AcDbText
1001
ZWMCAD_GENSCA_13_
1070
     1
1040
1.0
1001
ZWMCAD_GENSTANDARDFRAME_13_
1070
   410
1000
GB
1070
   411
1000
ZwmFrameMain_
  0
SPLINE
  5
7896
330
1F
100
AcDbEntity
  8
图例及图签
  6
DASH
 62
     4
 48
1.000000000000000E+16
370
     0
100
AcDbSpline
210
0.0
220
0.0
230
1.0
 70
     8
 71
     3
 72
     8
 73
     4
 74
     0
 42
0.000000001
 43
0.0000000001
 40
84.19734838517394
 40
84.19734838517394
 40
84.19734838517394
 40
84.19734838517394
 40
124.4355322222021
 40
124.4355322222021
 40
124.4355322222021
 40
124.4355322222021
 10
-2756.798250842237
 20
-3309.892126549416
 30
0.0
 10
-2744.813592600558
 20
-3309.789877063089
 30
0.0
 10
-2733.934000497555
 20
-3321.361469934221
 30
0.0
 10
-2723.054408394566
 20
-3332.93306280535
 30
0.0
  0
TEXT
  5
7897
330
1F
100
AcDbEntity
  8
图例及图签
370
     0
100
AcDbText
 10
-4656.256448355476
 20
-3554.084378973162
 30
0.0
 40
20.0
  1
临时双向风门
 50
359.9999997865571
  7
样式 3
100
AcDbText
1001
ZWMCAD_GENSCA_13_
1070
     1
1040
1.0
1001
ZWMCAD_GENSTANDARDFRAME_13_
1070
   410
1000
GB
1070
   411
1000
ZwmFrameMain_
  0
LWPOLYLINE
  5
7898
330
1F
100
AcDbEntity
  8
图例及图签
 48
1.000000000000000E+16
100
AcDbPolyline
 90
        4
 70
     1
 43
0.0
 10
-4650.60544396758
 20
-3434.830597277134
 10
-4495.698252401491
 20
-3434.830597277134
 10
-4495.698252401491
 20
-3515.302263751375
 10
-4650.60544396758
 20
-3515.302263751375
  0
LINE
  5
7899
330
1F
100
AcDbEntity
  8
图例及图签
 62
     4
370
    -3
100
AcDbLine
 10
-4631.04141353108
 20
-3466.65293560042
 30
0.0
 11
-4521.539303470019
 21
-3466.509144329796
 31
0.0
  0
LINE
  5
789A
330
1F
100
AcDbEntity
  8
图例及图签
 62
     4
370
    -3
100
AcDbLine
 10
-4631.04141353108
 20
-3482.852951840821
 30
0.0
 11
-4521.539303470019
 21
-3482.709160611757
 31
0.0
  0
LINE
  5
789B
330
1F
100
AcDbEntity
  8
图例及图签
 62
     4
370
    -3
100
AcDbLine
 10
-3821.841855923058
 20
-3316.322552509496
 30
0.0000000041892671
 11
-3712.339745861997
 21
-3316.17876123885
 31
0.0000000041892671
  0
LINE
  5
789C
330
1F
100
AcDbEntity
  8
图例及图签
 62
     4
370
    -3
100
AcDbLine
 10
-3821.841855923058
 20
-3332.522568749896
 30
0.0000000041892671
 11
-3712.339745861997
 21
-3332.378777520832
 31
0.0000000041892671
  0
LINE
  5
789D
330
1F
100
AcDbEntity
  8
图例及图签
 62
     4
370
    -3
100
AcDbLine
 10
-3223.170286155141
 20
-3316.131069329617
 30
0.0000000041892671
 11
-3113.668176094109
 21
-3315.987278058972
 31
0.0000000041892671
  0
LINE
  5
789E
330
1F
100
AcDbEntity
  8
图例及图签
 62
     4
370
    -3
100
AcDbLine
 10
-3223.170286155141
 20
-3332.331085570017
 30
0.0000000041892671
 11
-3113.668176094109
 21
-3332.187294340954
 31
0.0000000041892671
  0
LINE
  5
789F
330
1F
100
AcDbEntity
  8
图例及图签
 62
     4
370
    -3
100
AcDbLine
 10
-3224.608047321775
 20
-3470.008965976776
 30
0.0000000041892671
 11
-3115.105937260743
 21
-3469.86517470613
 31
0.0000000041892671
  0
LINE
  5
78A0
330
1F
100
AcDbEntity
  8
图例及图签
 62
     4
370
    -3
100
AcDbLine
 10
-3224.608047321775
 20
-3486.208982217176
 30
0.0000000041892671
 11
-3115.105937260743
 21
-3486.065190988112
 31
0.0000000041892671
  0
LINE
  5
78A1
330
1F
100
AcDbEntity
  8
图例及图签
 62
     4
370
    -3
100
AcDbLine
 10
-2921.386567444368
 20
-3310.781568905119
 30
0.0
 11
-3030.8886775054
 21
-3310.925360134183
 31
0.0
  0
LINE
  5
78A2
330
1F
100
AcDbEntity
  8
图例及图签
 62
     4
370
    -3
100
AcDbLine
 10
-2921.386567444368
 20
-3326.981585145527
 30
0.0
 11
-3030.8886775054
 21
-3327.125376416152
 31
0.0
  0
LINE
  5
78A3
330
1F
100
AcDbEntity
  8
图例及图签
 62
     4
 48
1.000000000000000E+16
370
    -3
100
AcDbLine
 10
-3206.157110473361
 20
-3502.949637155259
 30
0.0
 11
-3206.841938330459
 21
-3451.407260476742
 31
0.0
  0
ARC
  5
78A4
330
1F
100
AcDbEntity
  8
图例及图签
 62
     4
 48
1.000000000000000E+16
100
AcDbCircle
 10
-3198.271455558673
 20
-3477.325332167398
 30
0.0
 40
19.92082388687595
100
AcDbArc
 50
270.7612267750186
 51
90.76122677501858
  0
LINE
  5
78A5
330
1F
100
AcDbEntity
  8
图例及图签
 62
     4
 48
1.000000000000000E+16
100
AcDbLine
 10
-3198.006797000259
 20
-3497.244397913025
 30
0.0
 11
-3197.765125782973
 21
-3515.433361437219
 31
0.0
  0
LINE
  5
78A6
330
1F
100
AcDbEntity
  8
图例及图签
 62
     4
 48
1.000000000000000E+16
100
AcDbLine
 10
-3198.800405846168
 20
-3437.514809449683
 30
0.0
 11
-3198.536114117089
 21
-3457.406266421748
 31
0.0
  0
ARC
  5
78A7
330
1F
100
AcDbEntity
  8
图例及图签
 62
     4
 48
1.000000000000000E+16
100
AcDbCircle
 10
-3787.255074142851
 20
-3325.364556972235
 30
0.0
 40
19.92082388687595
100
AcDbArc
 50
270.0
 51
90.0
  0
LINE
  5
78A8
330
1F
100
AcDbEntity
  8
图例及图签
 62
     4
 48
1.000000000000000E+16
100
AcDbLine
 10
-3787.255074142851
 20
-3345.285380859094
 30
0.0
 11
-3787.255074142851
 21
-3365.178593535528
 31
0.0
  0
LINE
  5
78A9
330
1F
100
AcDbEntity
  8
图例及图签
 62
     4
 48
1.000000000000000E+16
100
AcDbLine
 10
-3787.255074142851
 20
-3285.55052040892
 30
0.0
 11
-3787.255074142851
 21
-3305.443733085353
 31
0.0
  0
LINE
  5
78AA
330
1F
100
AcDbEntity
  8
图例及图签
 62
     4
370
    -3
100
AcDbLine
 10
-3921.819534069817
 20
-3484.355843170396
 30
0.0
 11
-4031.321644130849
 21
-3484.499634441013
 31
0.0
  0
LINE
  5
78AB
330
1F
100
AcDbEntity
  8
图例及图签
 62
     4
370
    -3
100
AcDbLine
 10
-3921.819534069817
 20
-3468.155826929982
 30
0.0
 11
-4031.321644130849
 21
-3468.299618159046
 31
0.0
  0
ARC
  5
78AE
330
1F
100
AcDbEntity
  8
图例及图签
 62
     4
 48
1.000000000000000E+16
100
AcDbCircle
 10
-3767.334250256006
 20
-3325.364556972235
 30
0.0
 40
19.92082388687595
100
AcDbArc
 50
270.0
 51
90.0
  0
LINE
  5
78AF
330
1F
100
AcDbEntity
  8
图例及图签
 62
     4
 48
1.000000000000000E+16
100
AcDbLine
 10
-3767.334250256006
 20
-3345.285380859094
 30
0.0
 11
-3767.334250256006
 21
-3365.178593535528
 31
0.0
  0
LINE
  5
78B0
330
1F
100
AcDbEntity
  8
图例及图签
 62
     4
 48
1.000000000000000E+16
100
AcDbLine
 10
-3767.334250256006
 20
-3285.55052040892
 30
0.0
 11
-3767.334250256006
 21
-3305.443733085353
 31
0.0
  0
ARC
  5
78B4
330
1F
100
AcDbEntity
  8
图例及图签
 62
     4
 48
1.000000000000000E+16
100
AcDbCircle
 10
-3787.255074142851
 20
-3325.364556972235
 30
0.0
 40
19.92082388687595
100
AcDbArc
 50
270.0
 51
90.0
  0
LINE
  5
78B5
330
1F
100
AcDbEntity
  8
图例及图签
 62
     4
 48
1.000000000000000E+16
100
AcDbLine
 10
-3787.255074142851
 20
-3345.285380859094
 30
0.0
 11
-3787.255074142851
 21
-3365.178593535528
 31
0.0
  0
LINE
  5
78B6
330
1F
100
AcDbEntity
  8
图例及图签
 62
     4
 48
1.000000000000000E+16
100
AcDbLine
 10
-3787.255074142851
 20
-3285.55052040892
 30
0.0
 11
-3787.255074142851
 21
-3305.443733085353
 31
0.0
  0
ENDSEC
  0
SECTION
  2
OBJECTS
  0
DICTIONARY
  5
C
330
0
100
AcDbDictionary
281
     1
  3
ACAD_CIP_PREVIOUS_PRODUCT_INFO
350
143
  3
ACAD_COLOR
350
6C
  3
ACAD_DETAILVIEWSTYLE
350
19F
  3
ACAD_GROUP
350
D
  3
ACAD_LAYOUT
350
1A
  3
ACAD_MATERIAL
350
6B
  3
ACAD_MLEADERSTYLE
350
CC
  3
ACAD_MLINESTYLE
350
17
  3
ACAD_PLOTSETTINGS
350
19
  3
ACAD_PLOTSTYLENAME
350
E
  3
ACAD_SCALELIST
350
A6
  3
ACAD_SECTIONVIEWSTYLE
350
19C
  3
ACAD_TABLESTYLE
350
92
  3
ACAD_VISUALSTYLE
350
109
  3
ACDB_RECOMPOSE_DATA
350
7CEB
  3
ACDBHEADERROUNDTRIPXREC
350
7C9B
  3
AcDbVariableDictionary
350
59
  3
DWGPROPS
350
7C9E
  0
DICTIONARY
  5
7CAA
330
8
100
AcDbDictionary
280
     1
281
     1
  3
ACAD_XREC_ROUNDTRIP
360
7CAB
  0
DICTIONARY
  5
124
330
2
100
AcDbDictionary
280
     1
281
     1
  3
ACAD_LAYERSTATES
360
125
  0
DICTIONARY
  5
7CA1
330
10
100
AcDbDictionary
280
     1
281
     1
  3
ACAD_XREC_ROUNDTRIP
360
7CA2
  0
DICTIONARY
  5
7CA3
330
205
100
AcDbDictionary
280
     1
281
     1
  3
ACAD_XREC_ROUNDTRIP
360
7CA4
  0
DICTIONARY
  5
7CA5
330
21A
100
AcDbDictionary
280
     1
281
     1
  3
ACAD_XREC_ROUNDTRIP
360
7CA6
  0
DICTIONARY
  5
1D8
330
1D7
100
AcDbDictionary
280
     1
281
     1
  3
ACAD_XREC_ROUNDTRIP
360
7CA7
  3
ADSK_XREC_LAYER_RECONCILED
360
1D9
  0
DICTIONARY
  5
212
330
211
100
AcDbDictionary
280
     1
281
     1
  3
ACAD_XREC_ROUNDTRIP
360
7CA8
  3
ADSK_XREC_LAYER_RECONCILED
360
213
  0
DICTIONARY
  5
1F6
330
1F5
100
AcDbDictionary
280
     1
281
     1
  3
ACAD_XREC_ROUNDTRIP
360
7CA9
  3
ADSK_XREC_LAYER_RECONCILED
360
1F7
  0
DICTIONARY
  5
93A
330
939
100
AcDbDictionary
280
     1
281
     1
  3
ACAD_SORTENTS
360
93B
  0
DICTIONARY
  5
D26
330
D25
100
AcDbDictionary
280
     1
281
     1
  3
ACAD_SORTENTS
360
D27
  0
DICTIONARY
  5
F34
330
F33
100
AcDbDictionary
280
     1
281
     1
  3
ACAD_SORTENTS
360
F35
  0
DICTIONARY
  5
15AE
330
15AD
100
AcDbDictionary
280
     1
281
     1
  3
ACAD_SORTENTS
360
15AF
  0
DICTIONARY
  5
17D4
330
17D3
100
AcDbDictionary
280
     1
281
     1
  3
ACAD_SORTENTS
360
17D5
  0
DICTIONARY
  5
3924
330
3923
100
AcDbDictionary
280
     1
281
     1
  3
ACAD_SORTENTS
360
3925
  0
DICTIONARY
  5
3B80
330
3B7F
100
AcDbDictionary
280
     1
281
     1
  3
ACAD_SORTENTS
360
3B81
  0
DICTIONARY
  5
3C1A
330
3C19
100
AcDbDictionary
280
     1
281
     1
  3
ACAD_SORTENTS
360
3C1B
  0
DICTIONARY
  5
3C25
330
3C24
100
AcDbDictionary
280
     1
281
     1
  3
ACAD_SORTENTS
360
3C26
  0
DICTIONARY
  5
3CBD
330
3CBC
100
AcDbDictionary
280
     1
281
     1
  3
ACAD_SORTENTS
360
3CBE
  0
DICTIONARY
  5
2B94
330
2B93
100
AcDbDictionary
280
     1
281
     1
  3
ACAD_SORTENTS
360
2B95
  0
DICTIONARY
  5
7C9F
330
2C20
100
AcDbDictionary
280
     1
281
     1
  3
ACAD_XREC_ROUNDTRIP
360
7CA0
  0
DICTIONARY
  5
5817
330
5816
100
AcDbDictionary
280
     1
281
     1
  0
XRECORD
  5
143
102
{ACAD_REACTORS
330
C
102
}
330
C
100
AcDbXrecord
280
     1
300
ACD
300
2013
300
ACD_F_S
  0
DICTIONARY
  5
6C
102
{ACAD_REACTORS
330
C
102
}
330
C
100
AcDbDictionary
281
     1
  0
DICTIONARY
  5
19F
102
{ACAD_REACTORS
330
C
102
}
330
C
100
AcDbDictionary
281
     1
  3
Imperial24
350
1A0
  0
DICTIONARY
  5
D
102
{ACAD_REACTORS
330
C
102
}
330
C
100
AcDbDictionary
281
     1
  0
DICTIONARY
  5
1A
102
{ACAD_REACTORS
330
C
102
}
330
C
100
AcDbDictionary
281
     1
  3
Model
350
22
  3
布局1
350
193
  3
布局2
350
198
  0
DICTIONARY
  5
6B
102
{ACAD_REACTORS
330
C
102
}
330
C
100
AcDbDictionary
281
     1
  3
ByBlock
350
F9
  3
ByLayer
350
F1
  3
Global
350
101
  0
DICTIONARY
  5
CC
102
{ACAD_REACTORS
330
C
102
}
330
C
100
AcDbDictionary
281
     1
  3
Annotative
350
1C1
  3
Standard
350
CF
  0
DICTIONARY
  5
17
102
{ACAD_REACTORS
330
C
102
}
330
C
100
AcDbDictionary
281
     1
  3
Standard
350
18
  0
DICTIONARY
  5
19
102
{ACAD_REACTORS
330
C
102
}
330
C
100
AcDbDictionary
281
     1
  0
ACDBDICTIONARYWDFLT
  5
E
102
{ACAD_REACTORS
330
C
102
}
330
C
100
AcDbDictionary
281
     1
  3
Color_4
350
234
  3
Color_7
350
235
  3
Normal
350
F
100
AcDbDictionaryWithDefault
340
F
  0
DICTIONARY
  5
A6
102
{ACAD_REACTORS
330
C
102
}
330
C
100
AcDbDictionary
281
     1
  3
A0
350
A7
  3
A1
350
A8
  3
A2
350
A9
  3
A3
350
AA
  3
A4
350
AB
  3
A5
350
AC
  3
A6
350
AD
  3
A7
350
AE
  3
A8
350
AF
  3
A9
350
B0
  3
B0
350
B1
  3
B1
350
B2
  3
B2
350
B3
  3
B3
350
B4
  3
B4
350
B5
  3
B5
350
B6
  3
B6
350
B7
  3
B7
350
B8
  3
B8
350
B9
  3
B9
350
BA
  3
C0
350
BB
  3
C1
350
BC
  3
C2
350
BD
  3
C3
350
BE
  3
C4
350
BF
  3
C5
350
C0
  3
C6
350
C1
  3
C7
350
C2
  3
C8
350
C3
  3
C9
350
C4
  3
D0
350
C5
  3
D1
350
C6
  3
D2
350
C7
  0
DICTIONARY
  5
19C
102
{ACAD_REACTORS
330
C
102
}
330
C
100
AcDbDictionary
281
     1
  3
Imperial24
350
19E
  0
DICTIONARY
  5
92
102
{ACAD_REACTORS
330
C
102
}
330
C
100
AcDbDictionary
281
     1
  3
Standard
350
93
  0
DICTIONARY
  5
109
102
{ACAD_REACTORS
330
C
102
}
330
C
100
AcDbDictionary
281
     1
  3
2dWireframe
350
10F
  3
3D Hidden
350
111
  3
3dWireframe
350
110
  3
Basic
350
10E
  3
Brighten
350
115
  3
ColorChange
350
119
  3
Conceptual
350
112
  3
Dim
350
114
  3
EdgeColorOff
350
11C
  3
Facepattern
350
118
  3
Flat
350
10A
  3
FlatWithEdges
350
10B
  3
Gouraud
350
10C
  3
GouraudWithEdges
350
10D
  3
Hidden
350
13A
  3
JitterOff
350
11A
  3
Linepattern
350
117
  3
OverhangOff
350
11B
  3
Realistic
350
113
  3
Shaded
350
13F
  3
Shaded with edges
350
13E
  3
Shades of Gray
350
13B
  3
Sketchy
350
13C
  3
Thicken
350
116
  3
Wireframe
350
139
  3
X-Ray
350
13D
  0
XRECORD
  5
7CEB
102
{ACAD_REACTORS
330
C
102
}
330
C
100
AcDbXrecord
280
     1
 90
        1
330
93
  0
DICTIONARY
  5
7C9B
102
{ACAD_REACTORS
330
C
102
}
330
C
100
AcDbDictionary
281
     1
  3
COLORDICT
350
7C9C
  3
MATERIALDICT
350
7C9D
  0
DICTIONARY
  5
59
102
{ACAD_REACTORS
330
C
102
}
330
C
100
AcDbDictionary
281
     1
  3
CANNOSCALE
350
CB
  3
CMLEADERSTYLE
350
DA
  3
CTABLESTYLE
350
98
  3
CVIEWDETAILSTYLE
350
1AD
  3
CVIEWSECTIONSTYLE
350
1AE
  3
DIMASSOC
350
9A
  3
HIDETEXT
350
5E
  3
XCLIPFRAME
350
D0
  0
XRECORD
  5
7C9E
102
{ACAD_REACTORS
330
C
102
}
330
C
100
AcDbXrecord
280
     1
  1
DWGPROPS COOKIE
  2

  3

  4

  6

  7

  8
localuser
  9

300
=
301
=
302
=
303
=
304
=
305
=
306
=
307
=
308
=
309
=
 40
0.0
 41
2460581.44650566
 42
2460581.474996516
  1

 90
        0
  0
XRECORD
  5
7CAB
102
{ACAD_REACTORS
330
7CAA
102
}
330
7CAA
100
AcDbXrecord
280
     1
102
VTR_0.000_0.000_1.000_1.000_VISUALSTYLE
340
10F
102
VTR_0.000_0.000_1.000_1.000_GRIDDISPLAY
 70
     3
102
VTR_0.000_0.000_1.000_1.000_GRIDMAJOR
 70
     5
102
VTR_0.000_0.000_1.000_1.000_DEFAULTLIGHTING
280
     1
102
VTR_0.000_0.000_1.000_1.000_DEFAULTLIGHTINGTYPE
 70
     1
102
VTR_0.000_0.000_1.000_1.000_BRIGHTNESS
141
0.0
102
VTR_0.000_0.000_1.000_1.000_CONTRAST
142
0.0
  0
DICTIONARY
  5
125
102
{ACAD_REACTORS
330
124
102
}
330
124
100
AcDbDictionary
281
     1
  0
XRECORD
  5
7CA2
102
{ACAD_REACTORS
330
7CA1
102
}
330
7CA1
100
AcDbXrecord
280
     1
102
MATERIAL
340
101
  0
XRECORD
  5
7CA4
102
{ACAD_REACTORS
330
7CA3
102
}
330
7CA3
100
AcDbXrecord
280
     1
102
MATERIAL
340
101
  0
XRECORD
  5
7CA6
102
{ACAD_REACTORS
330
7CA5
102
}
330
7CA5
100
AcDbXrecord
280
     1
102
MATERIAL
340
101
  0
XRECORD
  5
7CA7
102
{ACAD_REACTORS
330
1D8
102
}
330
1D8
100
AcDbXrecord
280
     1
102
MATERIAL
340
101
  0
XRECORD
  5
1D9
102
{ACAD_REACTORS
330
1D8
102
}
330
1D8
100
AcDbXrecord
280
     1
290
     1
  0
XRECORD
  5
7CA8
102
{ACAD_REACTORS
330
212
102
}
330
212
100
AcDbXrecord
280
     1
102
MATERIAL
340
101
  0
XRECORD
  5
213
102
{ACAD_REACTORS
330
212
102
}
330
212
100
AcDbXrecord
280
     1
290
     1
  0
XRECORD
  5
7CA9
102
{ACAD_REACTORS
330
1F6
102
}
330
1F6
100
AcDbXrecord
280
     1
102
MATERIAL
340
101
  0
XRECORD
  5
1F7
102
{ACAD_REACTORS
330
1F6
102
}
330
1F6
100
AcDbXrecord
280
     1
290
     1
  0
SORTENTSTABLE
  5
93B
102
{ACAD_REACTORS
330
93A
102
}
330
93A
100
AcDbSortentsTable
330
939
  0
SORTENTSTABLE
  5
D27
102
{ACAD_REACTORS
330
D26
102
}
330
D26
100
AcDbSortentsTable
330
D25
  0
SORTENTSTABLE
  5
F35
102
{ACAD_REACTORS
330
F34
102
}
330
F34
100
AcDbSortentsTable
330
F33
  0
SORTENTSTABLE
  5
15AF
102
{ACAD_REACTORS
330
15AE
102
}
330
15AE
100
AcDbSortentsTable
330
15AD
  0
SORTENTSTABLE
  5
17D5
102
{ACAD_REACTORS
330
17D4
102
}
330
17D4
100
AcDbSortentsTable
330
17D3
331
17D7
  5
17D8
331
17D8
  5
17D9
331
17D9
  5
17DA
331
17DA
  5
17DB
331
17DB
  5
17DC
331
17DC
  5
17D7
  0
SORTENTSTABLE
  5
3925
102
{ACAD_REACTORS
330
3924
102
}
330
3924
100
AcDbSortentsTable
330
3923
  0
SORTENTSTABLE
  5
3B81
102
{ACAD_REACTORS
330
3B80
102
}
330
3B80
100
AcDbSortentsTable
330
3B7F
  0
SORTENTSTABLE
  5
3C1B
102
{ACAD_REACTORS
330
3C1A
102
}
330
3C1A
100
AcDbSortentsTable
330
3C19
  0
SORTENTSTABLE
  5
3C26
102
{ACAD_REACTORS
330
3C25
102
}
330
3C25
100
AcDbSortentsTable
330
3C24
  0
SORTENTSTABLE
  5
3CBE
102
{ACAD_REACTORS
330
3CBD
102
}
330
3CBD
100
AcDbSortentsTable
330
3CBC
  0
SORTENTSTABLE
  5
2B95
102
{ACAD_REACTORS
330
2B94
102
}
330
2B94
100
AcDbSortentsTable
330
2B93
  0
XRECORD
  5
7CA0
102
{ACAD_REACTORS
330
7C9F
102
}
330
7C9F
100
AcDbXrecord
280
     1
102
Gradient1
1004
7E00000002000000010000000000000075A7BBE9BBFD1540000000000000F03F00000000000000000000F03F02000000000000000000000018000000010000002019C1C2000000000000000000000000000000000000F03F180000000100000000ACF7C20000000000000000000000000A00000053504845524943414C00
  0
ACDBDETAILVIEWSTYLE
  5
1A0
102
{ACAD_REACTORS
330
19F
102
}
330
19F
100
AcDbModelDocViewStyle
 70
     0
  3
Imperial24
290
     1
100
AcDbDetailViewStyle
 70
     0
 71
     0
 90
        3
 71
     1
340
11
 40
0.24
340
0
 40
0.24
300

 40
0.36
280
     3
 71
     2
340
16
 90
       25
 71
     3
340
11
 40
0.24
 90
        1
 40
0.75
 90
        1
300
%<\AcVar ViewType \f "%tc1">% %<\AcVar ViewDetailId>%\PSCALE %<\AcVar ViewScale \f "%sn">%
 71
     4
340
16
 90
       25
340
16
 90
       25
280
     0
  0
LAYOUT
  5
22
102
{ACAD_XDICTIONARY
360
12A
102
}
102
{ACAD_REACTORS
330
1A
102
}
330
1A
100
AcDbPlotSettings
  1

  2
none_device
  4
Letter_(8.50_x_11.00_Inches)
  6

 40
6.349999904632568
 41
6.349999904632568
 42
6.350006103515625
 43
6.350006103515625
 44
215.8999938964844
 45
279.3999938964844
 46
0.0
 47
0.0
 48
0.0
 49
0.0
140
0.0
141
0.0
142
1.0
143
3.856645880694191
 70
 11952
 72
     0
 73
     0
 74
     0
  7

 75
     0
147
0.2592926680164893
148
0.0579160791065316
149
0.0376503347311434
100
AcDbLayout
  1
Model
 70
     1
 71
     0
 10
0.0
 20
0.0
 11
12.0
 21
9.0
 12
0.0
 22
0.0
 32
0.0
 14
0.0
 24
0.0
 34
0.0
 15
12.0
 25
9.0
 35
0.0
146
0.0
 13
0.0
 23
0.0
 33
0.0
 16
1.0
 26
0.0
 36
0.0
 17
0.0
 27
1.0
 37
0.0
 76
     0
330
1F
331
185
  0
LAYOUT
  5
193
102
{ACAD_REACTORS
330
1A
102
}
330
1A
100
AcDbPlotSettings
  1

  2
Microsoft XPS Document Writer#:1
  4

  6

 40
0.0
 41
0.0
 42
0.0
 43
0.0
 44
0.0
 45
0.0
 46
0.0
 47
0.0
 48
0.0
 49
0.0
140
0.0
141
0.0
142
1.0
143
1.0
 70
   688
 72
     0
 73
     0
 74
     5
  7

 75
    16
147
1.0
148
0.0
149
0.0
100
AcDbLayout
  1
布局1
 70
     1
 71
     1
 10
0.0
 20
0.0
 11
12.0
 21
9.0
 12
0.0
 22
0.0
 32
0.0
 14
0.0
 24
0.0
 34
0.0
 15
0.0
 25
0.0
 35
0.0
146
0.0
 13
0.0
 23
0.0
 33
0.0
 16
1.0
 26
0.0
 36
0.0
 17
0.0
 27
1.0
 37
0.0
 76
     0
330
192
  0
LAYOUT
  5
198
102
{ACAD_REACTORS
330
1A
102
}
330
1A
100
AcDbPlotSettings
  1

  2
Microsoft XPS Document Writer#:1
  4

  6

 40
0.0
 41
0.0
 42
0.0
 43
0.0
 44
0.0
 45
0.0
 46
0.0
 47
0.0
 48
0.0
 49
0.0
140
0.0
141
0.0
142
1.0
143
1.0
 70
   688
 72
     0
 73
     0
 74
     5
  7

 75
    16
147
1.0
148
0.0
149
0.0
100
AcDbLayout
  1
布局2
 70
     1
 71
     2
 10
0.0
 20
0.0
 11
12.0
 21
9.0
 12
0.0
 22
0.0
 32
0.0
 14
0.0
 24
0.0
 34
0.0
 15
0.0
 25
0.0
 35
0.0
146
0.0
 13
0.0
 23
0.0
 33
0.0
 16
1.0
 26
0.0
 36
0.0
 17
0.0
 27
1.0
 37
0.0
 76
     0
330
197
  0
MATERIAL
  5
F9
102
{ACAD_XDICTIONARY
360
FA
102
}
102
{ACAD_REACTORS
330
6B
102
}
330
6B
100
AcDbMaterial
  1
ByBlock
 72
     0
 73
     2
 43
0.0208333333333333
 43
0.0
 43
0.0
 43
0.0
 43
0.0
 43
0.0208333333333333
 43
0.0
 43
0.0
 43
0.0
 43
0.0
 43
1.0
 43
0.0
 43
0.0
 43
0.0
 43
0.0
 43
1.0
 77
     0
 78
     2
 47
0.0208333333333333
 47
0.0
 47
0.0
 47
0.0
 47
0.0
 47
0.0208333333333333
 47
0.0
 47
0.0
 47
0.0
 47
0.0
 47
1.0
 47
0.0
 47
0.0
 47
0.0
 47
0.0
 47
1.0
171
     0
172
     2
 49
0.0208333333333333
 49
0.0
 49
0.0
 49
0.0
 49
0.0
 49
0.0208333333333333
 49
0.0
 49
0.0
 49
0.0
 49
0.0
 49
1.0
 49
0.0
 49
0.0
 49
0.0
 49
0.0
 49
1.0
175
     0
176
     2
142
0.0208333333333333
142
0.0
142
0.0
142
0.0
142
0.0
142
0.0208333333333333
142
0.0
142
0.0
142
0.0
142
0.0
142
1.0
142
0.0
142
0.0
142
0.0
142
0.0
142
1.0
179
     0
270
     2
144
0.0208333333333333
144
0.0
144
0.0
144
0.0
144
0.0
144
0.0208333333333333
144
0.0
144
0.0
144
0.0
144
0.0
144
1.0
144
0.0
144
0.0
144
0.0
144
0.0
144
1.0
274
     2
147
0.0208333333333333
147
0.0
147
0.0
147
0.0
147
0.0
147
0.0208333333333333
147
0.0
147
0.0
147
0.0
147
0.0
147
1.0
147
0.0
147
0.0
147
0.0
147
0.0
147
1.0
  0
MATERIAL
  5
F1
102
{ACAD_XDICTIONARY
360
F2
102
}
102
{ACAD_REACTORS
330
6B
102
}
330
6B
100
AcDbMaterial
  1
ByLayer
 72
     0
 73
     2
 43
0.0208333333333333
 43
0.0
 43
0.0
 43
0.0
 43
0.0
 43
0.0208333333333333
 43
0.0
 43
0.0
 43
0.0
 43
0.0
 43
1.0
 43
0.0
 43
0.0
 43
0.0
 43
0.0
 43
1.0
 77
     0
 78
     2
 47
0.0208333333333333
 47
0.0
 47
0.0
 47
0.0
 47
0.0
 47
0.0208333333333333
 47
0.0
 47
0.0
 47
0.0
 47
0.0
 47
1.0
 47
0.0
 47
0.0
 47
0.0
 47
0.0
 47
1.0
171
     0
172
     2
 49
0.0208333333333333
 49
0.0
 49
0.0
 49
0.0
 49
0.0
 49
0.0208333333333333
 49
0.0
 49
0.0
 49
0.0
 49
0.0
 49
1.0
 49
0.0
 49
0.0
 49
0.0
 49
0.0
 49
1.0
175
     0
176
     2
142
0.0208333333333333
142
0.0
142
0.0
142
0.0
142
0.0
142
0.0208333333333333
142
0.0
142
0.0
142
0.0
142
0.0
142
1.0
142
0.0
142
0.0
142
0.0
142
0.0
142
1.0
179
     0
270
     2
144
0.0208333333333333
144
0.0
144
0.0
144
0.0
144
0.0
144
0.0208333333333333
144
0.0
144
0.0
144
0.0
144
0.0
144
1.0
144
0.0
144
0.0
144
0.0
144
0.0
144
1.0
274
     2
147
0.0208333333333333
147
0.0
147
0.0
147
0.0
147
0.0
147
0.0208333333333333
147
0.0
147
0.0
147
0.0
147
0.0
147
1.0
147
0.0
147
0.0
147
0.0
147
0.0
147
1.0
  0
MATERIAL
  5
101
102
{ACAD_XDICTIONARY
360
102
102
}
102
{ACAD_REACTORS
330
6B
102
}
330
6B
100
AcDbMaterial
  1
Global
 72
     0
 73
     2
 43
0.0208333333333333
 43
0.0
 43
0.0
 43
0.0
 43
0.0
 43
0.0208333333333333
 43
0.0
 43
0.0
 43
0.0
 43
0.0
 43
1.0
 43
0.0
 43
0.0
 43
0.0
 43
0.0
 43
1.0
 77
     0
 78
     2
 47
0.0208333333333333
 47
0.0
 47
0.0
 47
0.0
 47
0.0
 47
0.0208333333333333
 47
0.0
 47
0.0
 47
0.0
 47
0.0
 47
1.0
 47
0.0
 47
0.0
 47
0.0
 47
0.0
 47
1.0
171
     0
172
     2
 49
0.0208333333333333
 49
0.0
 49
0.0
 49
0.0
 49
0.0
 49
0.0208333333333333
 49
0.0
 49
0.0
 49
0.0
 49
0.0
 49
1.0
 49
0.0
 49
0.0
 49
0.0
 49
0.0
 49
1.0
175
     0
176
     2
142
0.0208333333333333
142
0.0
142
0.0
142
0.0
142
0.0
142
0.0208333333333333
142
0.0
142
0.0
142
0.0
142
0.0
142
1.0
142
0.0
142
0.0
142
0.0
142
0.0
142
1.0
179
     0
270
     2
144
0.0208333333333333
144
0.0
144
0.0
144
0.0
144
0.0
144
0.0208333333333333
144
0.0
144
0.0
144
0.0
144
0.0
144
1.0
144
0.0
144
0.0
144
0.0
144
0.0
144
1.0
274
     2
147
0.0208333333333333
147
0.0
147
0.0
147
0.0
147
0.0
147
0.0208333333333333
147
0.0
147
0.0
147
0.0
147
0.0
147
1.0
147
0.0
147
0.0
147
0.0
147
0.0
147
1.0
  0
MLEADERSTYLE
  5
1C1
102
{ACAD_XDICTIONARY
360
7CB1
102
}
102
{ACAD_REACTORS
330
CC
102
}
330
CC
100
AcDbMLeaderStyle
170
     2
171
     1
172
     0
 90
        2
 40
0.0
 41
0.0
173
     1
 91
-1056964608
340
14
 92
       -2
290
     1
 42
0.09
291
     1
 43
0.36
  3
Standard
 44
0.18
300

342
11
174
     1
178
     1
175
     1
176
     0
 93
-1056964608
 45
0.18
292
     0
297
     0
 46
0.18
 94
-1056964608
 47
1.0
 49
1.0
140
1.0
293
     1
141
0.0
294
     1
177
     0
142
1.0
295
     0
296
     1
143
0.125
1001
ACAD_MLEADERVER
1070
     2
  0
MLEADERSTYLE
  5
CF
102
{ACAD_XDICTIONARY
360
7CB3
102
}
102
{ACAD_REACTORS
330
CC
102
}
330
CC
100
AcDbMLeaderStyle
170
     2
171
     1
172
     0
 90
        2
 40
0.0
 41
0.0
173
     1
 91
-1056964608
340
14
 92
       -2
290
     1
 42
0.09
291
     1
 43
0.36
  3
Standard
 44
0.18
300

342
11
174
     1
178
     1
175
     1
176
     0
 93
-1056964608
 45
0.18
292
     0
297
     0
 46
0.18
 94
-1056964608
 47
1.0
 49
1.0
140
1.0
293
     1
141
0.0
294
     1
177
     0
142
1.0
295
     0
296
     0
143
0.125
1001
ACAD_MLEADERVER
1070
     2
  0
MLINESTYLE
  5
18
102
{ACAD_REACTORS
330
17
102
}
330
17
100
AcDbMlineStyle
  2
STANDARD
 70
     0
  3

 62
   256
 51
90.0
 52
90.0
 71
     2
 49
0.5
 62
   256
  6
BYLAYER
 49
-0.5
 62
   256
  6
BYLAYER
  0
ACDBPLACEHOLDER
  5
234
102
{ACAD_REACTORS
330
E
102
}
330
E
  0
ACDBPLACEHOLDER
  5
235
102
{ACAD_REACTORS
330
E
102
}
330
E
  0
ACDBPLACEHOLDER
  5
F
102
{ACAD_REACTORS
330
E
102
}
330
E
  0
SCALE
  5
A7
102
{ACAD_REACTORS
330
A6
102
}
330
A6
100
AcDbScale
 70
     0
300
1:1
140
1.0
141
1.0
290
     1
  0
SCALE
  5
A8
102
{ACAD_REACTORS
330
A6
102
}
330
A6
100
AcDbScale
 70
     0
300
1:2
140
1.0
141
2.0
290
     0
  0
SCALE
  5
A9
102
{ACAD_REACTORS
330
A6
102
}
330
A6
100
AcDbScale
 70
     0
300
1:4
140
1.0
141
4.0
290
     0
  0
SCALE
  5
AA
102
{ACAD_REACTORS
330
A6
102
}
330
A6
100
AcDbScale
 70
     0
300
1:5
140
1.0
141
5.0
290
     0
  0
SCALE
  5
AB
102
{ACAD_REACTORS
330
A6
102
}
330
A6
100
AcDbScale
 70
     0
300
1:8
140
1.0
141
8.0
290
     0
  0
SCALE
  5
AC
102
{ACAD_REACTORS
330
A6
102
}
330
A6
100
AcDbScale
 70
     0
300
1:10
140
1.0
141
10.0
290
     0
  0
SCALE
  5
AD
102
{ACAD_REACTORS
330
A6
102
}
330
A6
100
AcDbScale
 70
     0
300
1:16
140
1.0
141
16.0
290
     0
  0
SCALE
  5
AE
102
{ACAD_REACTORS
330
A6
102
}
330
A6
100
AcDbScale
 70
     0
300
1:20
140
1.0
141
20.0
290
     0
  0
SCALE
  5
AF
102
{ACAD_REACTORS
330
A6
102
}
330
A6
100
AcDbScale
 70
     0
300
1:30
140
1.0
141
30.0
290
     0
  0
SCALE
  5
B0
102
{ACAD_REACTORS
330
A6
102
}
330
A6
100
AcDbScale
 70
     0
300
1:40
140
1.0
141
40.0
290
     0
  0
SCALE
  5
B1
102
{ACAD_REACTORS
330
A6
102
}
330
A6
100
AcDbScale
 70
     0
300
1:50
140
1.0
141
50.0
290
     0
  0
SCALE
  5
B2
102
{ACAD_REACTORS
330
A6
102
}
330
A6
100
AcDbScale
 70
     0
300
1:100
140
1.0
141
100.0
290
     0
  0
SCALE
  5
B3
102
{ACAD_REACTORS
330
A6
102
}
330
A6
100
AcDbScale
 70
     0
300
2:1
140
2.0
141
1.0
290
     0
  0
SCALE
  5
B4
102
{ACAD_REACTORS
330
A6
102
}
330
A6
100
AcDbScale
 70
     0
300
4:1
140
4.0
141
1.0
290
     0
  0
SCALE
  5
B5
102
{ACAD_REACTORS
330
A6
102
}
330
A6
100
AcDbScale
 70
     0
300
8:1
140
8.0
141
1.0
290
     0
  0
SCALE
  5
B6
102
{ACAD_REACTORS
330
A6
102
}
330
A6
100
AcDbScale
 70
     0
300
10:1
140
10.0
141
1.0
290
     0
  0
SCALE
  5
B7
102
{ACAD_REACTORS
330
A6
102
}
330
A6
100
AcDbScale
 70
     0
300
100:1
140
100.0
141
1.0
290
     0
  0
SCALE
  5
B8
102
{ACAD_REACTORS
330
A6
102
}
330
A6
100
AcDbScale
 70
     0
300
1/128" = 1'-0"
140
0.0078125
141
12.0
290
     0
  0
SCALE
  5
B9
102
{ACAD_REACTORS
330
A6
102
}
330
A6
100
AcDbScale
 70
     0
300
1/64" = 1'-0"
140
0.015625
141
12.0
290
     0
  0
SCALE
  5
BA
102
{ACAD_REACTORS
330
A6
102
}
330
A6
100
AcDbScale
 70
     0
300
1/32" = 1'-0"
140
0.03125
141
12.0
290
     0
  0
SCALE
  5
BB
102
{ACAD_REACTORS
330
A6
102
}
330
A6
100
AcDbScale
 70
     0
300
1/16" = 1'-0"
140
0.0625
141
12.0
290
     0
  0
SCALE
  5
BC
102
{ACAD_REACTORS
330
A6
102
}
330
A6
100
AcDbScale
 70
     0
300
3/32" = 1'-0"
140
0.09375
141
12.0
290
     0
  0
SCALE
  5
BD
102
{ACAD_REACTORS
330
A6
102
}
330
A6
100
AcDbScale
 70
     0
300
1/8" = 1'-0"
140
0.125
141
12.0
290
     0
  0
SCALE
  5
BE
102
{ACAD_REACTORS
330
A6
102
}
330
A6
100
AcDbScale
 70
     0
300
3/16" = 1'-0"
140
0.1875
141
12.0
290
     0
  0
SCALE
  5
BF
102
{ACAD_REACTORS
330
A6
102
}
330
A6
100
AcDbScale
 70
     0
300
1/4" = 1'-0"
140
0.25
141
12.0
290
     0
  0
SCALE
  5
C0
102
{ACAD_REACTORS
330
A6
102
}
330
A6
100
AcDbScale
 70
     0
300
3/8" = 1'-0"
140
0.375
141
12.0
290
     0
  0
SCALE
  5
C1
102
{ACAD_REACTORS
330
A6
102
}
330
A6
100
AcDbScale
 70
     0
300
1/2" = 1'-0"
140
0.5
141
12.0
290
     0
  0
SCALE
  5
C2
102
{ACAD_REACTORS
330
A6
102
}
330
A6
100
AcDbScale
 70
     0
300
3/4" = 1'-0"
140
0.75
141
12.0
290
     0
  0
SCALE
  5
C3
102
{ACAD_REACTORS
330
A6
102
}
330
A6
100
AcDbScale
 70
     0
300
1" = 1'-0"
140
1.0
141
12.0
290
     0
  0
SCALE
  5
C4
102
{ACAD_REACTORS
330
A6
102
}
330
A6
100
AcDbScale
 70
     0
300
1-1/2" = 1'-0"
140
1.5
141
12.0
290
     0
  0
SCALE
  5
C5
102
{ACAD_REACTORS
330
A6
102
}
330
A6
100
AcDbScale
 70
     0
300
3" = 1'-0"
140
3.0
141
12.0
290
     0
  0
SCALE
  5
C6
102
{ACAD_REACTORS
330
A6
102
}
330
A6
100
AcDbScale
 70
     0
300
6" = 1'-0"
140
6.0
141
12.0
290
     0
  0
SCALE
  5
C7
102
{ACAD_REACTORS
330
A6
102
}
330
A6
100
AcDbScale
 70
     0
300
1'-0" = 1'-0"
140
12.0
141
12.0
290
     0
  0
ACDBSECTIONVIEWSTYLE
  5
19E
102
{ACAD_REACTORS
330
19C
102
}
330
19C
100
AcDbModelDocViewStyle
 70
     0
  3
Imperial24
290
     1
100
AcDbSectionViewStyle
 70
     0
 71
     0
 90
       78
 71
     1
340
11
 40
0.24
340
0
340
0
 40
0.24
300
I, O, Q, S, X, Z
 40
0.48
 90
        3
 40
0.18
 90
        1
 71
     2
340
19D
 90
       25
340
16
 90
       50
 40
0.24
 40
0.0
 40
0.24
 71
     3
340
11
 40
0.24
 90
        1
 40
0.75
 90
        1
300
%<\AcVar ViewType \f "%tc1">% %<\AcVar ViewSectionStartId>%-%<\AcVar ViewSectionEndId>%\PSCALE %<\AcVar ViewScale \f "%sn">%
 71
     4
300
ANSI31
 40
1.0
 90
        0
290
     0
290
     0
 90
        6
 40
0.0
 40
1.570796326794896
 40
0.2617993877991494
 40
1.308996938995747
 40
-0.2617993877991494
 40
1.832595714594046
  0
TABLESTYLE
  5
93
102
{ACAD_XDICTIONARY
360
D7
102
}
102
{ACAD_REACTORS
330
92
102
}
330
92
100
AcDbTableStyle
  3
Standard
 70
     0
 71
     0
 40
0.06
 41
0.06
280
     0
281
     0
  7
Standard
140
0.18
170
     2
 62
     0
 63
   257
283
     0
274
    -2
284
     1
 64
     0
275
    -2
285
     1
 65
     0
276
    -2
286
     1
 66
     0
277
    -2
287
     1
 67
     0
278
    -2
288
     1
 68
     0
279
    -2
289
     1
 69
     0
  7
Standard
140
0.25
170
     5
 62
     0
 63
   257
283
     0
274
    -2
284
     1
 64
     0
275
    -2
285
     1
 65
     0
276
    -2
286
     1
 66
     0
277
    -2
287
     1
 67
     0
278
    -2
288
     1
 68
     0
279
    -2
289
     1
 69
     0
  7
Standard
140
0.18
170
     5
 62
     0
 63
   257
283
     0
274
    -2
284
     1
 64
     0
275
    -2
285
     1
 65
     0
276
    -2
286
     1
 66
     0
277
    -2
287
     1
 67
     0
278
    -2
288
     1
 68
     0
279
    -2
289
     1
 69
     0
  0
VISUALSTYLE
  5
10F
102
{ACAD_XDICTIONARY
360
7CB7
102
}
102
{ACAD_REACTORS
330
109
102
}
330
109
100
AcDbVisualStyle
  2
2dWireframe
 70
     4
 71
     0
 72
     2
 73
     0
 90
        0
 40
0.6
 41
30.0
 62
     5
 63
     7
 74
     1
 91
        4
 64
     7
 65
   257
 75
     1
175
     1
 42
1.0
 92
        0
 66
   257
 43
1.0
 76
     1
 77
     6
 78
     2
 67
     7
 79
     5
170
     0
171
     0
290
     0
174
     0
 93
        1
 44
0.0
173
     0
291
     0
 45
0.0
1001
ACAD
1000
AcDbSavedByObjectVersion
1070
     0
  0
VISUALSTYLE
  5
111
102
{ACAD_XDICTIONARY
360
7CB9
102
}
102
{ACAD_REACTORS
330
109
102
}
330
109
100
AcDbVisualStyle
  2
3D Hidden
 70
     6
 71
     1
 72
     2
 73
     2
 90
        0
 40
0.6
 41
30.0
 62
     5
 63
     7
 74
     2
 91
        2
 64
     7
 65
   257
 75
     2
175
     1
 42
179.0
 92
        0
 66
   257
 43
1.0
 76
     1
 77
     6
 78
     2
 67
     7
 79
     3
170
     0
171
     0
290
     0
174
     0
 93
        1
 44
0.0
173
     0
291
     0
 45
0.0
1001
ACAD
1000
AcDbSavedByObjectVersion
1070
     0
  0
VISUALSTYLE
  5
110
102
{ACAD_XDICTIONARY
360
7CBB
102
}
102
{ACAD_REACTORS
330
109
102
}
330
109
100
AcDbVisualStyle
  2
3dWireframe
 70
     5
 71
     0
 72
     2
 73
     0
 90
        0
 40
0.6
 41
30.0
 62
     5
 63
     7
 74
     1
 91
        4
 64
     7
 65
   257
 75
     1
175
     1
 42
1.0
 92
        0
 66
   257
 43
1.0
 76
     1
 77
     6
 78
     2
 67
     7
 79
     5
170
     0
171
     0
290
     0
174
     0
 93
        1
 44
0.0
173
     0
291
     0
 45
0.0
1001
ACAD
1000
AcDbSavedByObjectVersion
1070
     0
  0
VISUALSTYLE
  5
10E
102
{ACAD_XDICTIONARY
360
7CBD
102
}
102
{ACAD_REACTORS
330
109
102
}
330
109
100
AcDbVisualStyle
  2
Basic
 70
     7
 71
     1
 72
     0
 73
     1
 90
        0
 40
0.6
 41
30.0
 62
     5
 63
     7
 74
     0
 91
        4
 64
     7
 65
   257
 75
     1
175
     1
 42
1.0
 92
        8
 66
     7
 43
1.0
 76
     1
 77
     6
 78
     2
 67
     7
 79
     5
170
     0
171
     0
290
     0
174
     0
 93
        1
 44
0.0
173
     0
291
     1
 45
0.0
1001
ACAD
1000
AcDbSavedByObjectVersion
1070
     0
  0
VISUALSTYLE
  5
115
102
{ACAD_XDICTIONARY
360
7CBF
102
}
102
{ACAD_REACTORS
330
109
102
}
330
109
100
AcDbVisualStyle
  2
Brighten
 70
    12
 71
     2
 72
     2
 73
     0
 90
        0
 40
0.6
 41
30.0
 62
     5
 63
     7
 74
     1
 91
        4
 64
     7
 65
   257
 75
     1
175
     1
 42
1.0
 92
        8
 66
     7
 43
1.0
 76
     1
 77
     6
 78
     2
 67
     7
 79
     5
170
     0
171
     0
290
     0
174
     0
 93
        1
 44
50.0
173
     0
291
     1
 45
0.0
1001
ACAD
1000
AcDbSavedByObjectVersion
1070
     0
  0
VISUALSTYLE
  5
119
102
{ACAD_XDICTIONARY
360
7CC1
102
}
102
{ACAD_REACTORS
330
109
102
}
330
109
100
AcDbVisualStyle
  2
ColorChange
 70
    16
 71
     2
 72
     2
 73
     3
 90
        0
 40
0.6
 41
30.0
 62
     5
 63
     8
 74
     1
 91
        4
 64
     7
 65
   257
 75
     1
175
     1
 42
1.0
 92
        8
 66
     8
 43
1.0
 76
     1
 77
     6
 78
     2
 67
     7
 79
     5
170
     0
171
     0
290
     0
174
     0
 93
        1
 44
0.0
173
     0
291
     1
 45
0.0
1001
ACAD
1000
AcDbSavedByObjectVersion
1070
     0
  0
VISUALSTYLE
  5
112
102
{ACAD_XDICTIONARY
360
7CC3
102
}
102
{ACAD_REACTORS
330
109
102
}
330
109
100
AcDbVisualStyle
  2
Conceptual
 70
     9
 71
     3
 72
     2
 73
     0
 90
        0
 40
0.6
 41
30.0
 62
     5
 63
     7
 74
     2
 91
        2
 64
     7
 65
   257
 75
     1
175
     1
 42
179.0
 92
        8
 66
     7
 43
1.0
 76
     1
 77
     6
 78
     2
 67
     7
 79
     3
170
     0
171
     0
290
     0
174
     0
 93
        1
 44
0.0
173
     0
291
     0
 45
0.0
1001
ACAD
1000
AcDbSavedByObjectVersion
1070
     0
  0
VISUALSTYLE
  5
114
102
{ACAD_XDICTIONARY
360
7CC5
102
}
102
{ACAD_REACTORS
330
109
102
}
330
109
100
AcDbVisualStyle
  2
Dim
 70
    11
 71
     2
 72
     2
 73
     0
 90
        0
 40
0.6
 41
30.0
 62
     5
 63
     7
 74
     1
 91
        4
 64
     7
 65
   257
 75
     1
175
     1
 42
1.0
 92
        8
 66
     7
 43
1.0
 76
     1
 77
     6
 78
     2
 67
     7
 79
     5
170
     0
171
     0
290
     0
174
     0
 93
        1
 44
-50.0
173
     0
291
     1
 45
0.0
1001
ACAD
1000
AcDbSavedByObjectVersion
1070
     0
  0
VISUALSTYLE
  5
11C
102
{ACAD_XDICTIONARY
360
7CC7
102
}
102
{ACAD_REACTORS
330
109
102
}
330
109
100
AcDbVisualStyle
  2
EdgeColorOff
 70
    22
 71
     2
 72
     2
 73
     0
 90
        0
 40
0.6
 41
30.0
 62
     5
 63
     7
 74
     1
 91
        4
 64
     7
 65
   257
 75
     1
175
     1
 42
1.0
 92
        8
 66
     7
 43
1.0
 76
     1
 77
     6
 78
     2
 67
     7
 79
     5
170
     0
171
     0
290
     0
174
     0
 93
        1
 44
0.0
173
     0
291
     1
 45
0.0
1001
ACAD
1000
AcDbSavedByObjectVersion
1070
     0
  0
VISUALSTYLE
  5
118
102
{ACAD_XDICTIONARY
360
7CC9
102
}
102
{ACAD_REACTORS
330
109
102
}
330
109
100
AcDbVisualStyle
  2
Facepattern
 70
    15
 71
     2
 72
     2
 73
     0
 90
        0
 40
0.6
 41
30.0
 62
     5
 63
     7
 74
     1
 91
        4
 64
     7
 65
   257
 75
     1
175
     1
 42
1.0
 92
        8
 66
     7
 43
1.0
 76
     1
 77
     6
 78
     2
 67
     7
 79
     5
170
     0
171
     0
290
     0
174
     0
 93
        1
 44
0.0
173
     0
291
     1
 45
0.0
1001
ACAD
1000
AcDbSavedByObjectVersion
1070
     0
  0
VISUALSTYLE
  5
10A
102
{ACAD_XDICTIONARY
360
7CCB
102
}
102
{ACAD_REACTORS
330
109
102
}
330
109
100
AcDbVisualStyle
  2
Flat
 70
     0
 71
     2
 72
     1
 73
     1
 90
        2
 40
0.6
 41
30.0
 62
     5
 63
     7
 74
     0
 91
        4
 64
     7
 65
   257
 75
     1
175
     1
 42
1.0
 92
        8
 66
     7
 43
1.0
 76
     1
 77
     6
 78
     2
 67
     7
 79
     5
170
     0
171
     0
290
     0
174
     0
 93
       13
 44
0.0
173
     0
291
     1
 45
0.0
1001
ACAD
1000
AcDbSavedByObjectVersion
1070
     0
  0
VISUALSTYLE
  5
10B
102
{ACAD_XDICTIONARY
360
7CCD
102
}
102
{ACAD_REACTORS
330
109
102
}
330
109
100
AcDbVisualStyle
  2
FlatWithEdges
 70
     1
 71
     2
 72
     1
 73
     1
 90
        2
 40
0.6
 41
30.0
 62
     5
 63
     7
 74
     1
 91
        4
 64
     7
 65
   257
 75
     1
175
     1
 42
1.0
 92
        0
 66
   257
 43
1.0
 76
     1
 77
     6
 78
     2
 67
     7
 79
     5
170
     0
171
     0
290
     0
174
     0
 93
       13
 44
0.0
173
     0
291
     1
 45
0.0
1001
ACAD
1000
AcDbSavedByObjectVersion
1070
     0
  0
VISUALSTYLE
  5
10C
102
{ACAD_XDICTIONARY
360
7CCF
102
}
102
{ACAD_REACTORS
330
109
102
}
330
109
100
AcDbVisualStyle
  2
Gouraud
 70
     2
 71
     2
 72
     2
 73
     1
 90
        2
 40
0.6
 41
30.0
 62
     5
 63
     7
 74
     0
 91
        4
 64
     7
 65
   257
 75
     1
175
     1
 42
1.0
 92
        0
 66
     7
 43
1.0
 76
     1
 77
     6
 78
     2
 67
     7
 79
     5
170
     0
171
     0
290
     0
174
     0
 93
       13
 44
0.0
173
     0
291
     1
 45
0.0
1001
ACAD
1000
AcDbSavedByObjectVersion
1070
     0
  0
VISUALSTYLE
  5
10D
102
{ACAD_XDICTIONARY
360
7CD1
102
}
102
{ACAD_REACTORS
330
109
102
}
330
109
100
AcDbVisualStyle
  2
GouraudWithEdges
 70
     3
 71
     2
 72
     2
 73
     1
 90
        2
 40
0.6
 41
30.0
 62
     5
 63
     7
 74
     1
 91
        4
 64
     7
 65
   257
 75
     1
175
     1
 42
1.0
 92
        0
 66
   257
 43
1.0
 76
     1
 77
     6
 78
     2
 67
     7
 79
     5
170
     0
171
     0
290
     0
174
     0
 93
       13
 44
0.0
173
     0
291
     1
 45
0.0
1001
ACAD
1000
AcDbSavedByObjectVersion
1070
     0
  0
VISUALSTYLE
  5
13A
102
{ACAD_XDICTIONARY
360
7CD3
102
}
102
{ACAD_REACTORS
330
109
102
}
330
109
100
AcDbVisualStyle
  2
Hidden
 70
     6
 71
     1
 72
     2
 73
     2
 90
        0
 40
0.6
 41
30.0
 62
     5
 63
     7
 74
     2
 91
        2
 64
     7
 65
   257
 75
     2
175
     1
 42
40.0
 92
        0
 66
   257
 43
1.0
 76
     1
 77
     6
 78
     2
 67
     7
 79
     3
170
     0
171
     0
290
     0
174
     0
 93
        1
 44
0.0
173
     0
291
     0
 45
0.0
1001
ACAD
1000
AcDbSavedByObjectVersion
1070
     0
  0
VISUALSTYLE
  5
11A
102
{ACAD_XDICTIONARY
360
7CD5
102
}
102
{ACAD_REACTORS
330
109
102
}
330
109
100
AcDbVisualStyle
  2
JitterOff
 70
    20
 71
     2
 72
     2
 73
     0
 90
        0
 40
0.6
 41
30.0
 62
     5
 63
     7
 74
     1
 91
        4
 64
     7
 65
   257
 75
     1
175
     1
 42
1.0
 92
       10
 66
     7
 43
1.0
 76
     1
 77
     6
 78
     2
 67
     7
 79
     5
170
     0
171
     0
290
     0
174
     0
 93
        1
 44
0.0
173
     0
291
     1
 45
0.0
1001
ACAD
1000
AcDbSavedByObjectVersion
1070
     0
  0
VISUALSTYLE
  5
117
102
{ACAD_XDICTIONARY
360
7CD7
102
}
102
{ACAD_REACTORS
330
109
102
}
330
109
100
AcDbVisualStyle
  2
Linepattern
 70
    14
 71
     2
 72
     2
 73
     0
 90
        0
 40
0.6
 41
30.0
 62
     5
 63
     7
 74
     1
 91
        4
 64
     7
 65
   257
 75
     7
175
     7
 42
1.0
 92
        8
 66
     7
 43
1.0
 76
     1
 77
     6
 78
     2
 67
     7
 79
     5
170
     0
171
     0
290
     0
174
     0
 93
        1
 44
0.0
173
     0
291
     1
 45
0.0
1001
ACAD
1000
AcDbSavedByObjectVersion
1070
     0
  0
VISUALSTYLE
  5
11B
102
{ACAD_XDICTIONARY
360
7CD9
102
}
102
{ACAD_REACTORS
330
109
102
}
330
109
100
AcDbVisualStyle
  2
OverhangOff
 70
    21
 71
     2
 72
     2
 73
     0
 90
        0
 40
0.6
 41
30.0
 62
     5
 63
     7
 74
     1
 91
        4
 64
     7
 65
   257
 75
     1
175
     1
 42
1.0
 92
        9
 66
     7
 43
1.0
 76
     1
 77
     6
 78
     2
 67
     7
 79
     5
170
     0
171
     0
290
     0
174
     0
 93
        1
 44
0.0
173
     0
291
     1
 45
0.0
1001
ACAD
1000
AcDbSavedByObjectVersion
1070
     0
  0
VISUALSTYLE
  5
113
102
{ACAD_XDICTIONARY
360
7CDB
102
}
102
{ACAD_REACTORS
330
109
102
}
330
109
100
AcDbVisualStyle
  2
Realistic
 70
     8
 71
     2
 72
     2
 73
     0
 90
        0
 40
0.6
 41
30.0
 62
     5
 63
     7
 74
     1
 91
        0
 64
     7
 65
   257
 75
     1
175
     1
 42
1.0
 92
        8
 66
     8
 43
1.0
 76
     1
 77
     6
 78
     2
 67
     7
 79
     5
170
     0
171
     0
290
     0
174
     0
 93
       13
 44
0.0
173
     0
291
     0
 45
0.0
1001
ACAD
1000
AcDbSavedByObjectVersion
1070
     0
  0
VISUALSTYLE
  5
13F
102
{ACAD_XDICTIONARY
360
7CDD
102
}
102
{ACAD_REACTORS
330
109
102
}
330
109
100
AcDbVisualStyle
  2
Shaded
 70
    27
 71
     2
 72
     2
 73
     1
 90
        2
 40
0.6
 41
30.0
 62
     5
 63
     7
 74
     0
 91
        4
 64
     7
 65
   257
 75
     1
175
     1
 42
1.0
 92
        8
 66
   257
 43
1.0
 76
     1
 77
     6
 78
     2
 67
     8
 79
     3
170
     0
171
     0
290
     0
174
     0
 93
        5
 44
0.0
173
     0
291
     0
 45
0.0
1001
ACAD
1000
AcDbSavedByObjectVersion
1070
     0
  0
VISUALSTYLE
  5
13E
102
{ACAD_XDICTIONARY
360
7CDF
102
}
102
{ACAD_REACTORS
330
109
102
}
330
109
100
AcDbVisualStyle
  2
Shaded with edges
 70
    26
 71
     2
 72
     2
 73
     1
 90
        2
 40
0.6
 41
30.0
 62
     5
 63
     7
 74
     1
 91
       10
 64
     7
 65
   257
 75
     2
175
     1
 42
1.0
 92
        8
 66
   257
 43
1.0
 76
     1
 77
     6
 78
     2
 67
     7
 79
     3
170
     0
171
     0
290
     0
174
     0
 93
        5
 44
0.0
173
     0
291
     0
 45
0.0
1001
ACAD
1000
AcDbSavedByObjectVersion
1070
     0
  0
VISUALSTYLE
  5
13B
102
{ACAD_XDICTIONARY
360
7CE1
102
}
102
{ACAD_REACTORS
330
109
102
}
330
109
100
AcDbVisualStyle
  2
Shades of Gray
 70
    23
 71
     2
 72
     2
 73
     3
 90
        0
 40
0.6
 41
30.0
 62
     5
 63
     7
 74
     2
 91
        2
 64
     7
 65
     7
 75
     1
175
     1
 42
40.0
 92
        8
 66
     7
 43
1.0
 76
     1
 77
     6
 78
     2
 67
     7
 79
     3
170
     0
171
     0
290
     0
174
     0
 93
        1
 44
0.0
173
     0
291
     0
 45
0.0
1001
ACAD
1000
AcDbSavedByObjectVersion
1070
     0
  0
VISUALSTYLE
  5
13C
102
{ACAD_XDICTIONARY
360
7CE3
102
}
102
{ACAD_REACTORS
330
109
102
}
330
109
100
AcDbVisualStyle
  2
Sketchy
 70
    24
 71
     1
 72
     2
 73
     2
 90
        0
 40
0.6
 41
30.0
 62
     5
 63
     7
 74
     2
 91
        2
 64
     7
 65
     7
 75
     1
175
     1
 42
40.0
 92
       11
 66
     7
 43
1.0
 76
     1
 77
     6
 78
     2
 67
     7
 79
     6
170
     0
171
     0
290
     0
174
     0
 93
        1
 44
0.0
173
     0
291
     0
 45
0.0
1001
ACAD
1000
AcDbSavedByObjectVersion
1070
     0
  0
VISUALSTYLE
  5
116
102
{ACAD_XDICTIONARY
360
7CE5
102
}
102
{ACAD_REACTORS
330
109
102
}
330
109
100
AcDbVisualStyle
  2
Thicken
 70
    13
 71
     2
 72
     2
 73
     0
 90
        0
 40
0.6
 41
30.0
 62
     5
 63
     7
 74
     1
 91
        4
 64
     7
 65
   257
 75
     1
175
     1
 42
1.0
 92
       12
 66
     7
 43
1.0
 76
     1
 77
     6
 78
     2
 67
     7
 79
     5
170
     0
171
     0
290
     0
174
     0
 93
        1
 44
0.0
173
     0
291
     1
 45
0.0
1001
ACAD
1000
AcDbSavedByObjectVersion
1070
     0
  0
VISUALSTYLE
  5
139
102
{ACAD_XDICTIONARY
360
7CE7
102
}
102
{ACAD_REACTORS
330
109
102
}
330
109
100
AcDbVisualStyle
  2
Wireframe
 70
     5
 71
     0
 72
     2
 73
     0
 90
        0
 40
0.6
 41
30.0
 62
     5
 63
     7
 74
     1
 91
        4
 64
     7
 65
   257
 75
     1
175
     1
 42
1.0
 92
        0
 66
   257
 43
1.0
 76
     1
 77
     6
 78
     2
 67
     7
 79
     3
170
     0
171
     0
290
     0
174
     0
 93
        1
 44
0.0
173
     0
291
     0
 45
0.0
1001
ACAD
1000
AcDbSavedByObjectVersion
1070
     0
  0
VISUALSTYLE
  5
13D
102
{ACAD_XDICTIONARY
360
7CE9
102
}
102
{ACAD_REACTORS
330
109
102
}
330
109
100
AcDbVisualStyle
  2
X-Ray
 70
    25
 71
     2
 72
     2
 73
     1
 90
        1
 40
0.5
 41
30.0
 62
     5
 63
     7
 74
     1
 91
        0
 64
     7
 65
   257
 75
     1
175
     1
 42
1.0
 92
        8
 66
     7
 43
1.0
 76
     1
 77
     6
 78
     2
 67
     7
 79
     3
170
     0
171
     0
290
     0
174
     0
 93
       13
 44
0.0
173
     0
291
     0
 45
0.0
1001
ACAD
1000
AcDbSavedByObjectVersion
1070
     0
  0
XRECORD
  5
7C9C
102
{ACAD_REACTORS
330
7C9B
102
}
330
7C9B
100
AcDbXrecord
280
     1
340
6C
  0
XRECORD
  5
7C9D
102
{ACAD_REACTORS
330
7C9B
102
}
330
7C9B
100
AcDbXrecord
280
     1
340
6B
  0
DICTIONARYVAR
  5
CB
102
{ACAD_REACTORS
330
59
102
}
330
59
100
DictionaryVariables
280
     0
  1
1:1
  0
DICTIONARYVAR
  5
DA
102
{ACAD_REACTORS
330
59
102
}
330
59
100
DictionaryVariables
280
     0
  1
STANDARD
  0
DICTIONARYVAR
  5
98
102
{ACAD_REACTORS
330
59
102
}
330
59
100
DictionaryVariables
280
     0
  1
STANDARD
  0
DICTIONARYVAR
  5
1AD
102
{ACAD_REACTORS
330
59
102
}
330
59
100
DictionaryVariables
280
     0
  1
Imperial24
  0
DICTIONARYVAR
  5
1AE
102
{ACAD_REACTORS
330
59
102
}
330
59
100
DictionaryVariables
280
     0
  1
Imperial24
  0
DICTIONARYVAR
  5
9A
102
{ACAD_REACTORS
330
59
102
}
330
59
100
DictionaryVariables
280
     0
  1
2
  0
DICTIONARYVAR
  5
5E
102
{ACAD_REACTORS
330
59
102
}
330
59
100
DictionaryVariables
280
     0
  1
1
  0
DICTIONARYVAR
  5
D0
102
{ACAD_REACTORS
330
59
102
}
330
59
100
DictionaryVariables
280
     0
  1
2
  0
DICTIONARY
  5
12A
330
22
100
AcDbDictionary
280
     1
281
     1
  3
ADSK_XREC_LAYOUTTHUMBNAIL
360
7CAC
  0
DICTIONARY
  5
FA
330
F9
100
AcDbDictionary
280
     1
281
     1
  3
ACAD_XREC_ROUNDTRIP
360
7CAD
  0
DICTIONARY
  5
F2
330
F1
100
AcDbDictionary
280
     1
281
     1
  3
ACAD_XREC_ROUNDTRIP
360
7CAE
  0
DICTIONARY
  5
102
330
101
100
AcDbDictionary
280
     1
281
     1
  3
ACAD_XREC_ROUNDTRIP
360
7CAF
  0
DICTIONARY
  5
7CB1
330
1C1
100
AcDbDictionary
280
     1
281
     1
  3
ACAD_XREC_ROUNDTRIP
360
7CB2
  0
DICTIONARY
  5
7CB3
330
CF
100
AcDbDictionary
280
     1
281
     1
  3
ACAD_XREC_ROUNDTRIP
360
7CB4
  0
DICTIONARY
  5
D7
330
93
100
AcDbDictionary
280
     1
281
     1
  3
ACAD_ROUNDTRIP_2008_TABLESTYLE_CELLSTYLEMAP
360
7CB6
  3
ACAD_XREC_ROUNDTRIP
360
7CB5
  0
DICTIONARY
  5
7CB7
330
10F
100
AcDbDictionary
280
     1
281
     1
  3
ACAD_XREC_ROUNDTRIP
360
7CB8
  0
DICTIONARY
  5
7CB9
330
111
100
AcDbDictionary
280
     1
281
     1
  3
ACAD_XREC_ROUNDTRIP
360
7CBA
  0
DICTIONARY
  5
7CBB
330
110
100
AcDbDictionary
280
     1
281
     1
  3
ACAD_XREC_ROUNDTRIP
360
7CBC
  0
DICTIONARY
  5
7CBD
330
10E
100
AcDbDictionary
280
     1
281
     1
  3
ACAD_XREC_ROUNDTRIP
360
7CBE
  0
DICTIONARY
  5
7CBF
330
115
100
AcDbDictionary
280
     1
281
     1
  3
ACAD_XREC_ROUNDTRIP
360
7CC0
  0
DICTIONARY
  5
7CC1
330
119
100
AcDbDictionary
280
     1
281
     1
  3
ACAD_XREC_ROUNDTRIP
360
7CC2
  0
DICTIONARY
  5
7CC3
330
112
100
AcDbDictionary
280
     1
281
     1
  3
ACAD_XREC_ROUNDTRIP
360
7CC4
  0
DICTIONARY
  5
7CC5
330
114
100
AcDbDictionary
280
     1
281
     1
  3
ACAD_XREC_ROUNDTRIP
360
7CC6
  0
DICTIONARY
  5
7CC7
330
11C
100
AcDbDictionary
280
     1
281
     1
  3
ACAD_XREC_ROUNDTRIP
360
7CC8
  0
DICTIONARY
  5
7CC9
330
118
100
AcDbDictionary
280
     1
281
     1
  3
ACAD_XREC_ROUNDTRIP
360
7CCA
  0
DICTIONARY
  5
7CCB
330
10A
100
AcDbDictionary
280
     1
281
     1
  3
ACAD_XREC_ROUNDTRIP
360
7CCC
  0
DICTIONARY
  5
7CCD
330
10B
100
AcDbDictionary
280
     1
281
     1
  3
ACAD_XREC_ROUNDTRIP
360
7CCE
  0
DICTIONARY
  5
7CCF
330
10C
100
AcDbDictionary
280
     1
281
     1
  3
ACAD_XREC_ROUNDTRIP
360
7CD0
  0
DICTIONARY
  5
7CD1
330
10D
100
AcDbDictionary
280
     1
281
     1
  3
ACAD_XREC_ROUNDTRIP
360
7CD2
  0
DICTIONARY
  5
7CD3
330
13A
100
AcDbDictionary
280
     1
281
     1
  3
ACAD_XREC_ROUNDTRIP
360
7CD4
  0
DICTIONARY
  5
7CD5
330
11A
100
AcDbDictionary
280
     1
281
     1
  3
ACAD_XREC_ROUNDTRIP
360
7CD6
  0
DICTIONARY
  5
7CD7
330
117
100
AcDbDictionary
280
     1
281
     1
  3
ACAD_XREC_ROUNDTRIP
360
7CD8
  0
DICTIONARY
  5
7CD9
330
11B
100
AcDbDictionary
280
     1
281
     1
  3
ACAD_XREC_ROUNDTRIP
360
7CDA
  0
DICTIONARY
  5
7CDB
330
113
100
AcDbDictionary
280
     1
281
     1
  3
ACAD_XREC_ROUNDTRIP
360
7CDC
  0
DICTIONARY
  5
7CDD
330
13F
100
AcDbDictionary
280
     1
281
     1
  3
ACAD_XREC_ROUNDTRIP
360
7CDE
  0
DICTIONARY
  5
7CDF
330
13E
100
AcDbDictionary
280
     1
281
     1
  3
ACAD_XREC_ROUNDTRIP
360
7CE0
  0
DICTIONARY
  5
7CE1
330
13B
100
AcDbDictionary
280
     1
281
     1
  3
ACAD_XREC_ROUNDTRIP
360
7CE2
  0
DICTIONARY
  5
7CE3
330
13C
100
AcDbDictionary
280
     1
281
     1
  3
ACAD_XREC_ROUNDTRIP
360
7CE4
  0
DICTIONARY
  5
7CE5
330
116
100
AcDbDictionary
280
     1
281
     1
  3
ACAD_XREC_ROUNDTRIP
360
7CE6
  0
DICTIONARY
  5
7CE7
330
139
100
AcDbDictionary
280
     1
281
     1
  3
ACAD_XREC_ROUNDTRIP
360
7CE8
  0
DICTIONARY
  5
7CE9
330
13D
100
AcDbDictionary
280
     1
281
     1
  3
ACAD_XREC_ROUNDTRIP
360
7CEA
  0
XRECORD
  5
7CAC
102
{ACAD_REACTORS
330
12A
102
}
330
12A
100
AcDbXrecord
280
     1
310
89504E470D0A1A0A0000000D49484452000001000000005F08030000003003E9C200000300504C5445212830000000C8C8C80000000000000000000000000000000000000000000000000000330000660000990000CC0000FF0033000033330033660033990033CC0033FF0066000066330066660066990066CC0066FF0099
310
000099330099660099990099CC0099FF00CC0000CC3300CC6600CC9900CCCC00CCFF00FF0000FF3300FF6600FF9900FFCC00FFFF3300003300333300663300993300CC3300FF3333003333333333663333993333CC3333FF3366003366333366663366993366CC3366FF3399003399333399663399993399CC3399FF33CC00
310
33CC3333CC6633CC9933CCCC33CCFF33FF0033FF3333FF6633FF9933FFCC33FFFF6600006600336600666600996600CC6600FF6633006633336633666633996633CC6633FF6666006666336666666666996666CC6666FF6699006699336699666699996699CC6699FF66CC0066CC3366CC6666CC9966CCCC66CCFF66FF0066
310
FF3366FF6666FF9966FFCC66FFFF9900009900339900669900999900CC9900FF9933009933339933669933999933CC9933FF9966009966339966669966999966CC9966FF9999009999339999669999999999CC9999FF99CC0099CC3399CC6699CC9999CCCC99CCFF99FF0099FF3399FF6699FF9999FFCC99FFFFCC0000CC00
310
33CC0066CC0099CC00CCCC00FFCC3300CC3333CC3366CC3399CC33CCCC33FFCC6600CC6633CC6666CC6699CC66CCCC66FFCC9900CC9933CC9966CC9999CC99CCCC99FFCCCC00CCCC33CCCC66CCCC99CCCCCCCCCCFFCCFF00CCFF33CCFF66CCFF99CCFFCCCCFFFFFF0000FF0033FF0066FF0099FF00CCFF00FFFF3300FF3333
310
FF3366FF3399FF33CCFF33FFFF6600FF6633FF6666FF6699FF66CCFF66FFFF9900FF9933FF9966FF9999FF99CCFF99FFFFCC00FFCC33FFCC66FFCC99FFCCCCFFCCFFFFFF00FFFF33FFFF66FFFF99FFFFCCFFFFFF0000000D0D0D1A1A1A2828283535354343435050505D5D5D6B6B6B787878868686939393A1A1A1AEAEAEBB
310
BBBBC9C9C9D6D6D6E4E4E4F1F1F1FFFFFF000000000000000000000000000000000000000000000000000000000000B21171F60000002F4944415478DAEDC13101000000C2A0F54F6D0D0FA00000000000000000000000000000000000000000000000E0DE005F5F0001B38822CD0000000049454E44AE426082
  0
XRECORD
  5
7CAD
102
{ACAD_REACTORS
330
FA
102
}
330
FA
100
AcDbXrecord
280
     1
102
MATERIAL
148
0.0
149
0.0
149
0.0
 93
        0
 94
      127
282
     0
 72
     0
 77
     0
171
     0
175
     0
179
     0
273
     0
  0
XRECORD
  5
7CAE
102
{ACAD_REACTORS
330
F2
102
}
330
F2
100
AcDbXrecord
280
     1
102
MATERIAL
148
0.0
149
0.0
149
0.0
 93
        0
 94
      127
282
     0
 72
     0
 77
     0
171
     0
175
     0
179
     0
273
     0
  0
XRECORD
  5
7CAF
102
{ACAD_REACTORS
330
102
102
}
330
102
100
AcDbXrecord
280
     1
102
MATERIAL
148
0.0
149
0.0
149
0.0
 93
        0
 94
      127
282
     0
 72
     0
 77
     0
171
     0
175
     0
179
     0
273
     0
  0
XRECORD
  5
7CB2
102
{ACAD_REACTORS
330
7CB1
102
}
330
7CB1
100
AcDbXrecord
280
     1
102
ACAD_ROUNDTRIP_2010_MLEADER_STYLE
  0
XRECORD
  5
7CB4
102
{ACAD_REACTORS
330
7CB3
102
}
330
7CB3
100
AcDbXrecord
280
     1
102
ACAD_ROUNDTRIP_2010_MLEADER_STYLE
  0
CELLSTYLEMAP
  5
7CB6
102
{ACAD_REACTORS
330
D7
102
}
330
D7
100
AcDbCellStyleMap
 90
        3
300
CELLSTYLE
  1
TABLEFORMAT_BEGIN
 90
        5
170
     1
 91
        0
 92
    32768
 62
   257
 93
        1
300
CONTENTFORMAT
  1
CONTENTFORMAT_BEGIN
 90
        0
 91
        0
 92
      512
 93
        0
300

 40
0.0
140
1.0
 94
        5
 62
     0
340
11
144
0.25
309
CONTENTFORMAT_END
171
     1
301
MARGIN
  1
CELLMARGIN_BEGIN
 40
0.06
 40
0.06
 40
0.06
 40
0.06
 40
0.06
 40
0.06
309
CELLMARGIN_END
 94
        6
 95
        1
302
GRIDFORMAT
  1
GRIDFORMAT_BEGIN
 90
        0
 91
        1
 62
     0
 92
       -2
340
0
 93
        0
 40
0.045
309
GRIDFORMAT_END
 95
        2
302
GRIDFORMAT
  1
GRIDFORMAT_BEGIN
 90
        0
 91
        1
 62
     0
 92
       -2
340
0
 93
        0
 40
0.045
309
GRIDFORMAT_END
 95
        4
302
GRIDFORMAT
  1
GRIDFORMAT_BEGIN
 90
        0
 91
        1
 62
     0
 92
       -2
340
0
 93
        0
 40
0.045
309
GRIDFORMAT_END
 95
        8
302
GRIDFORMAT
  1
GRIDFORMAT_BEGIN
 90
        0
 91
        1
 62
     0
 92
       -2
340
0
 93
        0
 40
0.045
309
GRIDFORMAT_END
 95
       16
302
GRIDFORMAT
  1
GRIDFORMAT_BEGIN
 90
        0
 91
        1
 62
     0
 92
       -2
340
0
 93
        0
 40
0.045
309
GRIDFORMAT_END
 95
       32
302
GRIDFORMAT
  1
GRIDFORMAT_BEGIN
 90
        0
 91
        1
 62
     0
 92
       -2
340
0
 93
        0
 40
0.045
309
GRIDFORMAT_END
309
TABLEFORMAT_END
  1
CELLSTYLE_BEGIN
 90
        1
 91
        1
300
_TITLE
309
CELLSTYLE_END
300
CELLSTYLE
  1
TABLEFORMAT_BEGIN
 90
        5
170
     1
 91
        0
 92
        0
 62
   257
 93
        1
300
CONTENTFORMAT
  1
CONTENTFORMAT_BEGIN
 90
        0
 91
        0
 92
      512
 93
        0
300

 40
0.0
140
1.0
 94
        5
 62
     0
340
11
144
0.18
309
CONTENTFORMAT_END
171
     1
301
MARGIN
  1
CELLMARGIN_BEGIN
 40
0.06
 40
0.06
 40
0.06
 40
0.06
 40
0.06
 40
0.06
309
CELLMARGIN_END
 94
        6
 95
        1
302
GRIDFORMAT
  1
GRIDFORMAT_BEGIN
 90
        0
 91
        1
 62
     0
 92
       -2
340
0
 93
        0
 40
0.045
309
GRIDFORMAT_END
 95
        2
302
GRIDFORMAT
  1
GRIDFORMAT_BEGIN
 90
        0
 91
        1
 62
     0
 92
       -2
340
0
 93
        0
 40
0.045
309
GRIDFORMAT_END
 95
        4
302
GRIDFORMAT
  1
GRIDFORMAT_BEGIN
 90
        0
 91
        1
 62
     0
 92
       -2
340
0
 93
        0
 40
0.045
309
GRIDFORMAT_END
 95
        8
302
GRIDFORMAT
  1
GRIDFORMAT_BEGIN
 90
        0
 91
        1
 62
     0
 92
       -2
340
0
 93
        0
 40
0.045
309
GRIDFORMAT_END
 95
       16
302
GRIDFORMAT
  1
GRIDFORMAT_BEGIN
 90
        0
 91
        1
 62
     0
 92
       -2
340
0
 93
        0
 40
0.045
309
GRIDFORMAT_END
 95
       32
302
GRIDFORMAT
  1
GRIDFORMAT_BEGIN
 90
        0
 91
        1
 62
     0
 92
       -2
340
0
 93
        0
 40
0.045
309
GRIDFORMAT_END
309
TABLEFORMAT_END
  1
CELLSTYLE_BEGIN
 90
        2
 91
        1
300
_HEADER
309
CELLSTYLE_END
300
CELLSTYLE
  1
TABLEFORMAT_BEGIN
 90
        5
170
     1
 91
        0
 92
        0
 62
   257
 93
        1
300
CONTENTFORMAT
  1
CONTENTFORMAT_BEGIN
 90
        0
 91
        0
 92
      512
 93
        0
300

 40
0.0
140
1.0
 94
        2
 62
     0
340
11
144
0.18
309
CONTENTFORMAT_END
171
     1
301
MARGIN
  1
CELLMARGIN_BEGIN
 40
0.06
 40
0.06
 40
0.06
 40
0.06
 40
0.06
 40
0.06
309
CELLMARGIN_END
 94
        6
 95
        1
302
GRIDFORMAT
  1
GRIDFORMAT_BEGIN
 90
        0
 91
        1
 62
     0
 92
       -2
340
0
 93
        0
 40
0.045
309
GRIDFORMAT_END
 95
        2
302
GRIDFORMAT
  1
GRIDFORMAT_BEGIN
 90
        0
 91
        1
 62
     0
 92
       -2
340
0
 93
        0
 40
0.045
309
GRIDFORMAT_END
 95
        4
302
GRIDFORMAT
  1
GRIDFORMAT_BEGIN
 90
        0
 91
        1
 62
     0
 92
       -2
340
0
 93
        0
 40
0.045
309
GRIDFORMAT_END
 95
        8
302
GRIDFORMAT
  1
GRIDFORMAT_BEGIN
 90
        0
 91
        1
 62
     0
 92
       -2
340
0
 93
        0
 40
0.045
309
GRIDFORMAT_END
 95
       16
302
GRIDFORMAT
  1
GRIDFORMAT_BEGIN
 90
        0
 91
        1
 62
     0
 92
       -2
340
0
 93
        0
 40
0.045
309
GRIDFORMAT_END
 95
       32
302
GRIDFORMAT
  1
GRIDFORMAT_BEGIN
 90
        0
 91
        1
 62
     0
 92
       -2
340
0
 93
        0
 40
0.045
309
GRIDFORMAT_END
309
TABLEFORMAT_END
  1
CELLSTYLE_BEGIN
 90
        3
 91
        2
300
_DATA
309
CELLSTYLE_END
  0
XRECORD
  5
7CB5
102
{ACAD_REACTORS
330
D7
102
}
330
D7
100
AcDbXrecord
280
     1
102
ACAD_ROUNDTRIP_PRE2007_TABLESTYLE
 90
      512
 91
        0
  1

 92
      512
 93
        0
  2

 94
      512
 95
        0
  3

  0
XRECORD
  5
7CB8
102
{ACAD_REACTORS
330
7CB7
102
}
330
7CB7
100
AcDbXrecord
280
     1
102
RTVSPropertyOp0
 70
     1
102
RTVSPropertyOp1
 70
     1
102
RTVSPropertyOp2
 70
     1
102
RTVSPropertyOp3
 70
     1
102
RTVSPropertyOp4
 70
     1
102
RTVSPropertyOp5
 70
     1
102
RTVSPropertyOp6
 70
     1
102
RTVSPropertyOp7
 70
     1
102
RTVSPropertyOp8
 70
     1
102
RTVSPropertyOp9
 70
     1
102
RTVSPropertyOp10
 70
     1
102
RTVSPropertyOp11
 70
     1
102
RTVSPropertyOp12
 70
     1
102
RTVSPropertyOp13
 70
     1
102
RTVSPropertyOp14
 70
     1
102
RTVSPropertyOp15
 70
     1
102
RTVSPropertyOp16
 70
     1
102
RTVSPropertyOp17
 70
     1
102
RTVSPropertyOp18
 70
     1
102
RTVSPropertyOp19
 70
     1
102
RTVSPropertyOp20
 70
     1
102
RTVSPropertyOp21
 70
     1
102
RTVSPropertyOp22
 70
     1
102
RTVSPropertyOp23
 70
     1
102
RTVSPropertyOp24
 70
     1
102
RTVSPropertyOp25
 70
     1
102
RTVSPropertyOp26
 70
     1
102
RTVSPropertyOp27
 70
     1
102
RTVSPropertyOp28
 70
     1
102
RTVSPropertyOp29
 70
     1
102
RTVSPropertyOp30
 70
     1
102
RTVSPropertyOp31
 70
     1
102
RTVSPropertyOp32
 70
     1
102
RTVSPropertyOp33
 70
     1
102
RTVSPropertyOp34
 70
     1
102
RTVSPropertyOp35
 70
     1
102
RTVSPropertyOp36
 70
     1
102
RTVSPropertyOp37
 70
     1
102
RTVSPropertyOp38
 70
     1
102
RTVSPropertyOp39
 70
     1
102
RTVSPropertyOp40
 70
     1
102
RTVSPropertyOp41
 70
     1
102
RTVSPropertyOp42
 70
     1
102
RTVSPropertyOp43
 70
     1
102
RTVSPropertyOp44
 70
     1
102
RTVSPropertyOp45
 70
     1
102
RTVSPropertyOp46
 70
     1
102
RTVSPropertyOp47
 70
     1
102
RTVSPropertyOp48
 70
     1
102
RTVSPropertyOp49
 70
     1
102
RTVSPropertyOp50
 70
     1
102
RTVSPropertyOp51
 70
     0
102
RTVSPropertyOp52
 70
     0
102
RTVSPropertyOp53
 70
     1
102
RTVSPropertyOp54
 70
     1
102
RTVSPropertyOp55
 70
     1
102
RTVSPropertyOp56
 70
     1
102
RTVSPropertyOp57
 70
     1
102
RTVSPost2010Prop28
280
     1
102
RTVSPost2010PropOp28
 70
     1
102
RTVSPost2010Prop29
280
     1
102
RTVSPost2010PropOp29
 70
     1
102
RTVSPost2010Prop30
280
     0
102
RTVSPost2010PropOp30
 70
     1
102
RTVSPost2010Prop31
280
     0
102
RTVSPost2010PropOp31
 70
     1
102
RTVSPost2010Prop32
280
     0
102
RTVSPost2010PropOp32
 70
     1
102
RTVSPost2010Prop33
280
     0
102
RTVSPost2010PropOp33
 70
     1
102
RTVSPost2010Prop34
280
     0
102
RTVSPost2010PropOp34
 70
     1
102
RTVSPost2010Prop35
280
     0
102
RTVSPost2010PropOp35
 70
     1
102
RTVSPost2010Prop36
280
     0
102
RTVSPost2010PropOp36
 70
     1
102
RTVSPost2010Prop37
 90
       50
102
RTVSPost2010PropOp37
 70
     1
102
RTVSPost2010Prop38
140
0.0
102
RTVSPost2010PropOp38
 70
     1
102
RTVSPost2010Prop39
140
1.0
102
RTVSPost2010PropOp39
 70
     1
102
RTVSPost2010Prop40
 90
        0
102
RTVSPost2010PropOp40
 70
     1
102
RTVSPost2010Prop41ColorIndex
 90
       18
102
RTVSPost2010Prop41ColorRGB
 90
        0
102
RTVSPost2010PropOp41
 70
     1
102
RTVSPost2010Prop42
 90
       50
102
RTVSPost2010PropOp42
 70
     1
102
RTVSPost2010Prop43
 90
        3
102
RTVSPost2010PropOp43
 70
     1
102
RTVSPost2010Prop44ColorIndex
 90
        5
102
RTVSPost2010Prop44ColorRGB
 90
      255
102
RTVSPost2010PropOp44
 70
     1
102
RTVSPost2010Prop45
280
     0
102
RTVSPost2010PropOp45
 70
     1
102
RTVSPost2010Prop46
 90
       50
102
RTVSPost2010PropOp46
 70
     1
102
RTVSPost2010Prop47
 90
       50
102
RTVSPost2010PropOp47
 70
     1
102
RTVSPost2010Prop48
 90
       50
102
RTVSPost2010PropOp48
 70
     1
102
RTVSPost2010Prop49
280
     0
102
RTVSPost2010PropOp49
 70
     1
102
RTVSPost2010Prop50
 90
       50
102
RTVSPost2010PropOp50
 70
     1
102
RTVSPost2010Prop51ColorIndex
 90
      256
102
RTVSPost2010Prop51ColorRGB
 90
-16777216
102
RTVSPost2010PropOp51
 70
     0
102
RTVSPost2010Prop52
140
1.0
102
RTVSPost2010PropOp52
 70
     0
102
RTVSPost2010Prop53
 90
        0
102
RTVSPost2010PropOp53
 70
     1
102
RTVSPost2010Prop54
  1
strokes_ogs.tif
102
RTVSPost2010PropOp54
 70
     1
102
RTVSPost2010Prop55
280
     0
102
RTVSPost2010PropOp55
 70
     1
102
RTVSPost2010Prop56
140
1.0
102
RTVSPost2010PropOp56
 70
     1
102
RTVSPost2010Prop57
140
1.0
102
RTVSPost2010PropOp57
 70
     1
  0
XRECORD
  5
7CBA
102
{ACAD_REACTORS
330
7CB9
102
}
330
7CB9
100
AcDbXrecord
280
     1
102
RTVSPropertyOp0
 70
     1
102
RTVSPropertyOp1
 70
     1
102
RTVSPropertyOp2
 70
     1
102
RTVSPropertyOp3
 70
     1
102
RTVSPropertyOp4
 70
     1
102
RTVSPropertyOp5
 70
     1
102
RTVSPropertyOp6
 70
     1
102
RTVSPropertyOp7
 70
     1
102
RTVSPropertyOp8
 70
     1
102
RTVSPropertyOp9
 70
     1
102
RTVSPropertyOp10
 70
     1
102
RTVSPropertyOp11
 70
     1
102
RTVSPropertyOp12
 70
     1
102
RTVSPropertyOp13
 70
     1
102
RTVSPropertyOp14
 70
     1
102
RTVSPropertyOp15
 70
     1
102
RTVSPropertyOp16
 70
     1
102
RTVSPropertyOp17
 70
     1
102
RTVSPropertyOp18
 70
     1
102
RTVSPropertyOp19
 70
     1
102
RTVSPropertyOp20
 70
     1
102
RTVSPropertyOp21
 70
     1
102
RTVSPropertyOp22
 70
     1
102
RTVSPropertyOp23
 70
     1
102
RTVSPropertyOp24
 70
     1
102
RTVSPropertyOp25
 70
     1
102
RTVSPropertyOp26
 70
     1
102
RTVSPropertyOp27
 70
     1
102
RTVSPropertyOp28
 70
     1
102
RTVSPropertyOp29
 70
     1
102
RTVSPropertyOp30
 70
     1
102
RTVSPropertyOp31
 70
     1
102
RTVSPropertyOp32
 70
     1
102
RTVSPropertyOp33
 70
     1
102
RTVSPropertyOp34
 70
     1
102
RTVSPropertyOp35
 70
     1
102
RTVSPropertyOp36
 70
     1
102
RTVSPropertyOp37
 70
     1
102
RTVSPropertyOp38
 70
     1
102
RTVSPropertyOp39
 70
     1
102
RTVSPropertyOp40
 70
     1
102
RTVSPropertyOp41
 70
     1
102
RTVSPropertyOp42
 70
     1
102
RTVSPropertyOp43
 70
     1
102
RTVSPropertyOp44
 70
     1
102
RTVSPropertyOp45
 70
     1
102
RTVSPropertyOp46
 70
     1
102
RTVSPropertyOp47
 70
     1
102
RTVSPropertyOp48
 70
     1
102
RTVSPropertyOp49
 70
     1
102
RTVSPropertyOp50
 70
     1
102
RTVSPropertyOp51
 70
     0
102
RTVSPropertyOp52
 70
     0
102
RTVSPropertyOp53
 70
     1
102
RTVSPropertyOp54
 70
     1
102
RTVSPropertyOp55
 70
     1
102
RTVSPropertyOp56
 70
     1
102
RTVSPropertyOp57
 70
     1
102
RTVSPost2010Prop28
280
     0
102
RTVSPost2010PropOp28
 70
     1
102
RTVSPost2010Prop29
280
     1
102
RTVSPost2010PropOp29
 70
     1
102
RTVSPost2010Prop30
280
     1
102
RTVSPost2010PropOp30
 70
     1
102
RTVSPost2010Prop31
280
     0
102
RTVSPost2010PropOp31
 70
     1
102
RTVSPost2010Prop32
280
     0
102
RTVSPost2010PropOp32
 70
     1
102
RTVSPost2010Prop33
280
     0
102
RTVSPost2010PropOp33
 70
     1
102
RTVSPost2010Prop34
280
     0
102
RTVSPost2010PropOp34
 70
     1
102
RTVSPost2010Prop35
280
     0
102
RTVSPost2010PropOp35
 70
     1
102
RTVSPost2010Prop36
280
     0
102
RTVSPost2010PropOp36
 70
     1
102
RTVSPost2010Prop37
 90
       50
102
RTVSPost2010PropOp37
 70
     1
102
RTVSPost2010Prop38
140
0.0
102
RTVSPost2010PropOp38
 70
     1
102
RTVSPost2010Prop39
140
1.0
102
RTVSPost2010PropOp39
 70
     1
102
RTVSPost2010Prop40
 90
        0
102
RTVSPost2010PropOp40
 70
     1
102
RTVSPost2010Prop41ColorIndex
 90
       18
102
RTVSPost2010Prop41ColorRGB
 90
        0
102
RTVSPost2010PropOp41
 70
     1
102
RTVSPost2010Prop42
 90
       50
102
RTVSPost2010PropOp42
 70
     1
102
RTVSPost2010Prop43
 90
        3
102
RTVSPost2010PropOp43
 70
     1
102
RTVSPost2010Prop44ColorIndex
 90
        5
102
RTVSPost2010Prop44ColorRGB
 90
      255
102
RTVSPost2010PropOp44
 70
     1
102
RTVSPost2010Prop45
280
     0
102
RTVSPost2010PropOp45
 70
     1
102
RTVSPost2010Prop46
 90
       50
102
RTVSPost2010PropOp46
 70
     1
102
RTVSPost2010Prop47
 90
       50
102
RTVSPost2010PropOp47
 70
     1
102
RTVSPost2010Prop48
 90
       50
102
RTVSPost2010PropOp48
 70
     1
102
RTVSPost2010Prop49
280
     0
102
RTVSPost2010PropOp49
 70
     1
102
RTVSPost2010Prop50
 90
       50
102
RTVSPost2010PropOp50
 70
     1
102
RTVSPost2010Prop51ColorIndex
 90
      256
102
RTVSPost2010Prop51ColorRGB
 90
-16777216
102
RTVSPost2010PropOp51
 70
     0
102
RTVSPost2010Prop52
140
1.0
102
RTVSPost2010PropOp52
 70
     0
102
RTVSPost2010Prop53
 90
        0
102
RTVSPost2010PropOp53
 70
     1
102
RTVSPost2010Prop54
  1
strokes_ogs.tif
102
RTVSPost2010PropOp54
 70
     1
102
RTVSPost2010Prop55
280
     0
102
RTVSPost2010PropOp55
 70
     1
102
RTVSPost2010Prop56
140
1.0
102
RTVSPost2010PropOp56
 70
     1
102
RTVSPost2010Prop57
140
1.0
102
RTVSPost2010PropOp57
 70
     1
  0
XRECORD
  5
7CBC
102
{ACAD_REACTORS
330
7CBB
102
}
330
7CBB
100
AcDbXrecord
280
     1
102
RTVSPropertyOp0
 70
     1
102
RTVSPropertyOp1
 70
     1
102
RTVSPropertyOp2
 70
     1
102
RTVSPropertyOp3
 70
     1
102
RTVSPropertyOp4
 70
     1
102
RTVSPropertyOp5
 70
     1
102
RTVSPropertyOp6
 70
     1
102
RTVSPropertyOp7
 70
     1
102
RTVSPropertyOp8
 70
     1
102
RTVSPropertyOp9
 70
     1
102
RTVSPropertyOp10
 70
     1
102
RTVSPropertyOp11
 70
     1
102
RTVSPropertyOp12
 70
     1
102
RTVSPropertyOp13
 70
     1
102
RTVSPropertyOp14
 70
     1
102
RTVSPropertyOp15
 70
     1
102
RTVSPropertyOp16
 70
     1
102
RTVSPropertyOp17
 70
     1
102
RTVSPropertyOp18
 70
     1
102
RTVSPropertyOp19
 70
     1
102
RTVSPropertyOp20
 70
     1
102
RTVSPropertyOp21
 70
     1
102
RTVSPropertyOp22
 70
     1
102
RTVSPropertyOp23
 70
     1
102
RTVSPropertyOp24
 70
     1
102
RTVSPropertyOp25
 70
     1
102
RTVSPropertyOp26
 70
     1
102
RTVSPropertyOp27
 70
     1
102
RTVSPropertyOp28
 70
     1
102
RTVSPropertyOp29
 70
     1
102
RTVSPropertyOp30
 70
     1
102
RTVSPropertyOp31
 70
     1
102
RTVSPropertyOp32
 70
     1
102
RTVSPropertyOp33
 70
     1
102
RTVSPropertyOp34
 70
     1
102
RTVSPropertyOp35
 70
     1
102
RTVSPropertyOp36
 70
     1
102
RTVSPropertyOp37
 70
     1
102
RTVSPropertyOp38
 70
     1
102
RTVSPropertyOp39
 70
     1
102
RTVSPropertyOp40
 70
     1
102
RTVSPropertyOp41
 70
     1
102
RTVSPropertyOp42
 70
     1
102
RTVSPropertyOp43
 70
     1
102
RTVSPropertyOp44
 70
     1
102
RTVSPropertyOp45
 70
     1
102
RTVSPropertyOp46
 70
     1
102
RTVSPropertyOp47
 70
     1
102
RTVSPropertyOp48
 70
     1
102
RTVSPropertyOp49
 70
     1
102
RTVSPropertyOp50
 70
     1
102
RTVSPropertyOp51
 70
     0
102
RTVSPropertyOp52
 70
     0
102
RTVSPropertyOp53
 70
     1
102
RTVSPropertyOp54
 70
     1
102
RTVSPropertyOp55
 70
     1
102
RTVSPropertyOp56
 70
     1
102
RTVSPropertyOp57
 70
     1
102
RTVSPost2010Prop28
280
     0
102
RTVSPost2010PropOp28
 70
     1
102
RTVSPost2010Prop29
280
     1
102
RTVSPost2010PropOp29
 70
     1
102
RTVSPost2010Prop30
280
     1
102
RTVSPost2010PropOp30
 70
     1
102
RTVSPost2010Prop31
280
     0
102
RTVSPost2010PropOp31
 70
     1
102
RTVSPost2010Prop32
280
     0
102
RTVSPost2010PropOp32
 70
     1
102
RTVSPost2010Prop33
280
     0
102
RTVSPost2010PropOp33
 70
     1
102
RTVSPost2010Prop34
280
     0
102
RTVSPost2010PropOp34
 70
     1
102
RTVSPost2010Prop35
280
     0
102
RTVSPost2010PropOp35
 70
     1
102
RTVSPost2010Prop36
280
     0
102
RTVSPost2010PropOp36
 70
     1
102
RTVSPost2010Prop37
 90
       50
102
RTVSPost2010PropOp37
 70
     1
102
RTVSPost2010Prop38
140
0.0
102
RTVSPost2010PropOp38
 70
     1
102
RTVSPost2010Prop39
140
1.0
102
RTVSPost2010PropOp39
 70
     1
102
RTVSPost2010Prop40
 90
        0
102
RTVSPost2010PropOp40
 70
     1
102
RTVSPost2010Prop41ColorIndex
 90
       18
102
RTVSPost2010Prop41ColorRGB
 90
        0
102
RTVSPost2010PropOp41
 70
     1
102
RTVSPost2010Prop42
 90
       50
102
RTVSPost2010PropOp42
 70
     1
102
RTVSPost2010Prop43
 90
        3
102
RTVSPost2010PropOp43
 70
     1
102
RTVSPost2010Prop44ColorIndex
 90
        5
102
RTVSPost2010Prop44ColorRGB
 90
      255
102
RTVSPost2010PropOp44
 70
     1
102
RTVSPost2010Prop45
280
     0
102
RTVSPost2010PropOp45
 70
     1
102
RTVSPost2010Prop46
 90
       50
102
RTVSPost2010PropOp46
 70
     1
102
RTVSPost2010Prop47
 90
       50
102
RTVSPost2010PropOp47
 70
     1
102
RTVSPost2010Prop48
 90
       50
102
RTVSPost2010PropOp48
 70
     1
102
RTVSPost2010Prop49
280
     0
102
RTVSPost2010PropOp49
 70
     1
102
RTVSPost2010Prop50
 90
       50
102
RTVSPost2010PropOp50
 70
     1
102
RTVSPost2010Prop51ColorIndex
 90
      256
102
RTVSPost2010Prop51ColorRGB
 90
-16777216
102
RTVSPost2010PropOp51
 70
     0
102
RTVSPost2010Prop52
140
1.0
102
RTVSPost2010PropOp52
 70
     0
102
RTVSPost2010Prop53
 90
        0
102
RTVSPost2010PropOp53
 70
     1
102
RTVSPost2010Prop54
  1
strokes_ogs.tif
102
RTVSPost2010PropOp54
 70
     1
102
RTVSPost2010Prop55
280
     0
102
RTVSPost2010PropOp55
 70
     1
102
RTVSPost2010Prop56
140
1.0
102
RTVSPost2010PropOp56
 70
     1
102
RTVSPost2010Prop57
140
1.0
102
RTVSPost2010PropOp57
 70
     1
  0
XRECORD
  5
7CBE
102
{ACAD_REACTORS
330
7CBD
102
}
330
7CBD
100
AcDbXrecord
280
     1
102
RTVSPropertyOp0
 70
     1
102
RTVSPropertyOp1
 70
     1
102
RTVSPropertyOp2
 70
     1
102
RTVSPropertyOp3
 70
     1
102
RTVSPropertyOp4
 70
     1
102
RTVSPropertyOp5
 70
     1
102
RTVSPropertyOp6
 70
     1
102
RTVSPropertyOp7
 70
     1
102
RTVSPropertyOp8
 70
     1
102
RTVSPropertyOp9
 70
     1
102
RTVSPropertyOp10
 70
     1
102
RTVSPropertyOp11
 70
     1
102
RTVSPropertyOp12
 70
     1
102
RTVSPropertyOp13
 70
     1
102
RTVSPropertyOp14
 70
     1
102
RTVSPropertyOp15
 70
     1
102
RTVSPropertyOp16
 70
     1
102
RTVSPropertyOp17
 70
     1
102
RTVSPropertyOp18
 70
     1
102
RTVSPropertyOp19
 70
     1
102
RTVSPropertyOp20
 70
     1
102
RTVSPropertyOp21
 70
     1
102
RTVSPropertyOp22
 70
     1
102
RTVSPropertyOp23
 70
     1
102
RTVSPropertyOp24
 70
     1
102
RTVSPropertyOp25
 70
     1
102
RTVSPropertyOp26
 70
     1
102
RTVSPropertyOp27
 70
     1
102
RTVSPropertyOp28
 70
     1
102
RTVSPropertyOp29
 70
     1
102
RTVSPropertyOp30
 70
     1
102
RTVSPropertyOp31
 70
     1
102
RTVSPropertyOp32
 70
     1
102
RTVSPropertyOp33
 70
     1
102
RTVSPropertyOp34
 70
     1
102
RTVSPropertyOp35
 70
     1
102
RTVSPropertyOp36
 70
     1
102
RTVSPropertyOp37
 70
     1
102
RTVSPropertyOp38
 70
     1
102
RTVSPropertyOp39
 70
     1
102
RTVSPropertyOp40
 70
     1
102
RTVSPropertyOp41
 70
     1
102
RTVSPropertyOp42
 70
     1
102
RTVSPropertyOp43
 70
     1
102
RTVSPropertyOp44
 70
     1
102
RTVSPropertyOp45
 70
     1
102
RTVSPropertyOp46
 70
     1
102
RTVSPropertyOp47
 70
     1
102
RTVSPropertyOp48
 70
     1
102
RTVSPropertyOp49
 70
     1
102
RTVSPropertyOp50
 70
     1
102
RTVSPropertyOp51
 70
     0
102
RTVSPropertyOp52
 70
     0
102
RTVSPropertyOp53
 70
     1
102
RTVSPropertyOp54
 70
     1
102
RTVSPropertyOp55
 70
     1
102
RTVSPropertyOp56
 70
     1
102
RTVSPropertyOp57
 70
     1
102
RTVSPost2010Prop28
280
     0
102
RTVSPost2010PropOp28
 70
     1
102
RTVSPost2010Prop29
280
     1
102
RTVSPost2010PropOp29
 70
     1
102
RTVSPost2010Prop30
280
     1
102
RTVSPost2010PropOp30
 70
     1
102
RTVSPost2010Prop31
280
     0
102
RTVSPost2010PropOp31
 70
     1
102
RTVSPost2010Prop32
280
     0
102
RTVSPost2010PropOp32
 70
     1
102
RTVSPost2010Prop33
280
     0
102
RTVSPost2010PropOp33
 70
     1
102
RTVSPost2010Prop34
280
     0
102
RTVSPost2010PropOp34
 70
     1
102
RTVSPost2010Prop35
280
     0
102
RTVSPost2010PropOp35
 70
     1
102
RTVSPost2010Prop36
280
     0
102
RTVSPost2010PropOp36
 70
     1
102
RTVSPost2010Prop37
 90
       50
102
RTVSPost2010PropOp37
 70
     1
102
RTVSPost2010Prop38
140
0.0
102
RTVSPost2010PropOp38
 70
     1
102
RTVSPost2010Prop39
140
1.0
102
RTVSPost2010PropOp39
 70
     1
102
RTVSPost2010Prop40
 90
        0
102
RTVSPost2010PropOp40
 70
     1
102
RTVSPost2010Prop41ColorIndex
 90
       18
102
RTVSPost2010Prop41ColorRGB
 90
        0
102
RTVSPost2010PropOp41
 70
     1
102
RTVSPost2010Prop42
 90
       50
102
RTVSPost2010PropOp42
 70
     1
102
RTVSPost2010Prop43
 90
        3
102
RTVSPost2010PropOp43
 70
     1
102
RTVSPost2010Prop44ColorIndex
 90
        5
102
RTVSPost2010Prop44ColorRGB
 90
      255
102
RTVSPost2010PropOp44
 70
     1
102
RTVSPost2010Prop45
280
     0
102
RTVSPost2010PropOp45
 70
     1
102
RTVSPost2010Prop46
 90
       50
102
RTVSPost2010PropOp46
 70
     1
102
RTVSPost2010Prop47
 90
       50
102
RTVSPost2010PropOp47
 70
     1
102
RTVSPost2010Prop48
 90
       50
102
RTVSPost2010PropOp48
 70
     1
102
RTVSPost2010Prop49
280
     0
102
RTVSPost2010PropOp49
 70
     1
102
RTVSPost2010Prop50
 90
       50
102
RTVSPost2010PropOp50
 70
     1
102
RTVSPost2010Prop51ColorIndex
 90
      256
102
RTVSPost2010Prop51ColorRGB
 90
-16777216
102
RTVSPost2010PropOp51
 70
     0
102
RTVSPost2010Prop52
140
1.0
102
RTVSPost2010PropOp52
 70
     0
102
RTVSPost2010Prop53
 90
        0
102
RTVSPost2010PropOp53
 70
     1
102
RTVSPost2010Prop54
  1
strokes_ogs.tif
102
RTVSPost2010PropOp54
 70
     1
102
RTVSPost2010Prop55
280
     0
102
RTVSPost2010PropOp55
 70
     1
102
RTVSPost2010Prop56
140
1.0
102
RTVSPost2010PropOp56
 70
     1
102
RTVSPost2010Prop57
140
1.0
102
RTVSPost2010PropOp57
 70
     1
  0
XRECORD
  5
7CC0
102
{ACAD_REACTORS
330
7CBF
102
}
330
7CBF
100
AcDbXrecord
280
     1
102
RTVSPropertyOp0
 70
     1
102
RTVSPropertyOp1
 70
     1
102
RTVSPropertyOp2
 70
     1
102
RTVSPropertyOp3
 70
     1
102
RTVSPropertyOp4
 70
     1
102
RTVSPropertyOp5
 70
     1
102
RTVSPropertyOp6
 70
     1
102
RTVSPropertyOp7
 70
     1
102
RTVSPropertyOp8
 70
     1
102
RTVSPropertyOp9
 70
     1
102
RTVSPropertyOp10
 70
     1
102
RTVSPropertyOp11
 70
     1
102
RTVSPropertyOp12
 70
     1
102
RTVSPropertyOp13
 70
     1
102
RTVSPropertyOp14
 70
     1
102
RTVSPropertyOp15
 70
     1
102
RTVSPropertyOp16
 70
     1
102
RTVSPropertyOp17
 70
     1
102
RTVSPropertyOp18
 70
     1
102
RTVSPropertyOp19
 70
     1
102
RTVSPropertyOp20
 70
     1
102
RTVSPropertyOp21
 70
     1
102
RTVSPropertyOp22
 70
     1
102
RTVSPropertyOp23
 70
     1
102
RTVSPropertyOp24
 70
     1
102
RTVSPropertyOp25
 70
     1
102
RTVSPropertyOp26
 70
     1
102
RTVSPropertyOp27
 70
     1
102
RTVSPropertyOp28
 70
     1
102
RTVSPropertyOp29
 70
     1
102
RTVSPropertyOp30
 70
     1
102
RTVSPropertyOp31
 70
     1
102
RTVSPropertyOp32
 70
     1
102
RTVSPropertyOp33
 70
     1
102
RTVSPropertyOp34
 70
     1
102
RTVSPropertyOp35
 70
     1
102
RTVSPropertyOp36
 70
     1
102
RTVSPropertyOp37
 70
     1
102
RTVSPropertyOp38
 70
     1
102
RTVSPropertyOp39
 70
     1
102
RTVSPropertyOp40
 70
     1
102
RTVSPropertyOp41
 70
     1
102
RTVSPropertyOp42
 70
     1
102
RTVSPropertyOp43
 70
     1
102
RTVSPropertyOp44
 70
     1
102
RTVSPropertyOp45
 70
     1
102
RTVSPropertyOp46
 70
     1
102
RTVSPropertyOp47
 70
     1
102
RTVSPropertyOp48
 70
     1
102
RTVSPropertyOp49
 70
     1
102
RTVSPropertyOp50
 70
     1
102
RTVSPropertyOp51
 70
     0
102
RTVSPropertyOp52
 70
     0
102
RTVSPropertyOp53
 70
     1
102
RTVSPropertyOp54
 70
     1
102
RTVSPropertyOp55
 70
     1
102
RTVSPropertyOp56
 70
     1
102
RTVSPropertyOp57
 70
     1
102
RTVSPost2010Prop28
280
     0
102
RTVSPost2010PropOp28
 70
     1
102
RTVSPost2010Prop29
280
     1
102
RTVSPost2010PropOp29
 70
     1
102
RTVSPost2010Prop30
280
     1
102
RTVSPost2010PropOp30
 70
     1
102
RTVSPost2010Prop31
280
     0
102
RTVSPost2010PropOp31
 70
     1
102
RTVSPost2010Prop32
280
     0
102
RTVSPost2010PropOp32
 70
     1
102
RTVSPost2010Prop33
280
     0
102
RTVSPost2010PropOp33
 70
     1
102
RTVSPost2010Prop34
280
     0
102
RTVSPost2010PropOp34
 70
     1
102
RTVSPost2010Prop35
280
     0
102
RTVSPost2010PropOp35
 70
     1
102
RTVSPost2010Prop36
280
     0
102
RTVSPost2010PropOp36
 70
     1
102
RTVSPost2010Prop37
 90
       50
102
RTVSPost2010PropOp37
 70
     1
102
RTVSPost2010Prop38
140
0.0
102
RTVSPost2010PropOp38
 70
     1
102
RTVSPost2010Prop39
140
1.0
102
RTVSPost2010PropOp39
 70
     1
102
RTVSPost2010Prop40
 90
        0
102
RTVSPost2010PropOp40
 70
     1
102
RTVSPost2010Prop41ColorIndex
 90
       18
102
RTVSPost2010Prop41ColorRGB
 90
        0
102
RTVSPost2010PropOp41
 70
     1
102
RTVSPost2010Prop42
 90
       50
102
RTVSPost2010PropOp42
 70
     1
102
RTVSPost2010Prop43
 90
        3
102
RTVSPost2010PropOp43
 70
     1
102
RTVSPost2010Prop44ColorIndex
 90
        5
102
RTVSPost2010Prop44ColorRGB
 90
      255
102
RTVSPost2010PropOp44
 70
     1
102
RTVSPost2010Prop45
280
     0
102
RTVSPost2010PropOp45
 70
     1
102
RTVSPost2010Prop46
 90
       50
102
RTVSPost2010PropOp46
 70
     1
102
RTVSPost2010Prop47
 90
       50
102
RTVSPost2010PropOp47
 70
     1
102
RTVSPost2010Prop48
 90
       50
102
RTVSPost2010PropOp48
 70
     1
102
RTVSPost2010Prop49
280
     0
102
RTVSPost2010PropOp49
 70
     1
102
RTVSPost2010Prop50
 90
       50
102
RTVSPost2010PropOp50
 70
     1
102
RTVSPost2010Prop51ColorIndex
 90
      256
102
RTVSPost2010Prop51ColorRGB
 90
-16777216
102
RTVSPost2010PropOp51
 70
     0
102
RTVSPost2010Prop52
140
1.0
102
RTVSPost2010PropOp52
 70
     0
102
RTVSPost2010Prop53
 90
        0
102
RTVSPost2010PropOp53
 70
     1
102
RTVSPost2010Prop54
  1
strokes_ogs.tif
102
RTVSPost2010PropOp54
 70
     1
102
RTVSPost2010Prop55
280
     0
102
RTVSPost2010PropOp55
 70
     1
102
RTVSPost2010Prop56
140
1.0
102
RTVSPost2010PropOp56
 70
     1
102
RTVSPost2010Prop57
140
1.0
102
RTVSPost2010PropOp57
 70
     1
  0
XRECORD
  5
7CC2
102
{ACAD_REACTORS
330
7CC1
102
}
330
7CC1
100
AcDbXrecord
280
     1
102
RTVSPropertyOp0
 70
     1
102
RTVSPropertyOp1
 70
     1
102
RTVSPropertyOp2
 70
     1
102
RTVSPropertyOp3
 70
     1
102
RTVSPropertyOp4
 70
     1
102
RTVSPropertyOp5
 70
     1
102
RTVSPropertyOp6
 70
     1
102
RTVSPropertyOp7
 70
     1
102
RTVSPropertyOp8
 70
     1
102
RTVSPropertyOp9
 70
     1
102
RTVSPropertyOp10
 70
     1
102
RTVSPropertyOp11
 70
     1
102
RTVSPropertyOp12
 70
     1
102
RTVSPropertyOp13
 70
     1
102
RTVSPropertyOp14
 70
     1
102
RTVSPropertyOp15
 70
     1
102
RTVSPropertyOp16
 70
     1
102
RTVSPropertyOp17
 70
     1
102
RTVSPropertyOp18
 70
     1
102
RTVSPropertyOp19
 70
     1
102
RTVSPropertyOp20
 70
     1
102
RTVSPropertyOp21
 70
     1
102
RTVSPropertyOp22
 70
     1
102
RTVSPropertyOp23
 70
     1
102
RTVSPropertyOp24
 70
     1
102
RTVSPropertyOp25
 70
     1
102
RTVSPropertyOp26
 70
     1
102
RTVSPropertyOp27
 70
     1
102
RTVSPropertyOp28
 70
     1
102
RTVSPropertyOp29
 70
     1
102
RTVSPropertyOp30
 70
     1
102
RTVSPropertyOp31
 70
     1
102
RTVSPropertyOp32
 70
     1
102
RTVSPropertyOp33
 70
     1
102
RTVSPropertyOp34
 70
     1
102
RTVSPropertyOp35
 70
     1
102
RTVSPropertyOp36
 70
     1
102
RTVSPropertyOp37
 70
     1
102
RTVSPropertyOp38
 70
     1
102
RTVSPropertyOp39
 70
     1
102
RTVSPropertyOp40
 70
     1
102
RTVSPropertyOp41
 70
     1
102
RTVSPropertyOp42
 70
     1
102
RTVSPropertyOp43
 70
     1
102
RTVSPropertyOp44
 70
     1
102
RTVSPropertyOp45
 70
     1
102
RTVSPropertyOp46
 70
     1
102
RTVSPropertyOp47
 70
     1
102
RTVSPropertyOp48
 70
     1
102
RTVSPropertyOp49
 70
     1
102
RTVSPropertyOp50
 70
     1
102
RTVSPropertyOp51
 70
     0
102
RTVSPropertyOp52
 70
     0
102
RTVSPropertyOp53
 70
     1
102
RTVSPropertyOp54
 70
     1
102
RTVSPropertyOp55
 70
     1
102
RTVSPropertyOp56
 70
     1
102
RTVSPropertyOp57
 70
     1
102
RTVSPost2010Prop28
280
     0
102
RTVSPost2010PropOp28
 70
     1
102
RTVSPost2010Prop29
280
     1
102
RTVSPost2010PropOp29
 70
     1
102
RTVSPost2010Prop30
280
     1
102
RTVSPost2010PropOp30
 70
     1
102
RTVSPost2010Prop31
280
     0
102
RTVSPost2010PropOp31
 70
     1
102
RTVSPost2010Prop32
280
     0
102
RTVSPost2010PropOp32
 70
     1
102
RTVSPost2010Prop33
280
     0
102
RTVSPost2010PropOp33
 70
     1
102
RTVSPost2010Prop34
280
     0
102
RTVSPost2010PropOp34
 70
     1
102
RTVSPost2010Prop35
280
     0
102
RTVSPost2010PropOp35
 70
     1
102
RTVSPost2010Prop36
280
     0
102
RTVSPost2010PropOp36
 70
     1
102
RTVSPost2010Prop37
 90
       50
102
RTVSPost2010PropOp37
 70
     1
102
RTVSPost2010Prop38
140
0.0
102
RTVSPost2010PropOp38
 70
     1
102
RTVSPost2010Prop39
140
1.0
102
RTVSPost2010PropOp39
 70
     1
102
RTVSPost2010Prop40
 90
        0
102
RTVSPost2010PropOp40
 70
     1
102
RTVSPost2010Prop41ColorIndex
 90
       18
102
RTVSPost2010Prop41ColorRGB
 90
        0
102
RTVSPost2010PropOp41
 70
     1
102
RTVSPost2010Prop42
 90
       50
102
RTVSPost2010PropOp42
 70
     1
102
RTVSPost2010Prop43
 90
        3
102
RTVSPost2010PropOp43
 70
     1
102
RTVSPost2010Prop44ColorIndex
 90
        5
102
RTVSPost2010Prop44ColorRGB
 90
      255
102
RTVSPost2010PropOp44
 70
     1
102
RTVSPost2010Prop45
280
     0
102
RTVSPost2010PropOp45
 70
     1
102
RTVSPost2010Prop46
 90
       50
102
RTVSPost2010PropOp46
 70
     1
102
RTVSPost2010Prop47
 90
       50
102
RTVSPost2010PropOp47
 70
     1
102
RTVSPost2010Prop48
 90
       50
102
RTVSPost2010PropOp48
 70
     1
102
RTVSPost2010Prop49
280
     0
102
RTVSPost2010PropOp49
 70
     1
102
RTVSPost2010Prop50
 90
       50
102
RTVSPost2010PropOp50
 70
     1
102
RTVSPost2010Prop51ColorIndex
 90
      256
102
RTVSPost2010Prop51ColorRGB
 90
-16777216
102
RTVSPost2010PropOp51
 70
     0
102
RTVSPost2010Prop52
140
1.0
102
RTVSPost2010PropOp52
 70
     0
102
RTVSPost2010Prop53
 90
        0
102
RTVSPost2010PropOp53
 70
     1
102
RTVSPost2010Prop54
  1
strokes_ogs.tif
102
RTVSPost2010PropOp54
 70
     1
102
RTVSPost2010Prop55
280
     0
102
RTVSPost2010PropOp55
 70
     1
102
RTVSPost2010Prop56
140
1.0
102
RTVSPost2010PropOp56
 70
     1
102
RTVSPost2010Prop57
140
1.0
102
RTVSPost2010PropOp57
 70
     1
  0
XRECORD
  5
7CC4
102
{ACAD_REACTORS
330
7CC3
102
}
330
7CC3
100
AcDbXrecord
280
     1
102
RTVSPropertyOp0
 70
     1
102
RTVSPropertyOp1
 70
     1
102
RTVSPropertyOp2
 70
     1
102
RTVSPropertyOp3
 70
     1
102
RTVSPropertyOp4
 70
     1
102
RTVSPropertyOp5
 70
     1
102
RTVSPropertyOp6
 70
     1
102
RTVSPropertyOp7
 70
     1
102
RTVSPropertyOp8
 70
     1
102
RTVSPropertyOp9
 70
     1
102
RTVSPropertyOp10
 70
     1
102
RTVSPropertyOp11
 70
     1
102
RTVSPropertyOp12
 70
     1
102
RTVSPropertyOp13
 70
     1
102
RTVSPropertyOp14
 70
     1
102
RTVSPropertyOp15
 70
     1
102
RTVSPropertyOp16
 70
     1
102
RTVSPropertyOp17
 70
     1
102
RTVSPropertyOp18
 70
     1
102
RTVSPropertyOp19
 70
     1
102
RTVSPropertyOp20
 70
     1
102
RTVSPropertyOp21
 70
     1
102
RTVSPropertyOp22
 70
     1
102
RTVSPropertyOp23
 70
     1
102
RTVSPropertyOp24
 70
     1
102
RTVSPropertyOp25
 70
     1
102
RTVSPropertyOp26
 70
     1
102
RTVSPropertyOp27
 70
     1
102
RTVSPropertyOp28
 70
     1
102
RTVSPropertyOp29
 70
     1
102
RTVSPropertyOp30
 70
     1
102
RTVSPropertyOp31
 70
     1
102
RTVSPropertyOp32
 70
     1
102
RTVSPropertyOp33
 70
     1
102
RTVSPropertyOp34
 70
     1
102
RTVSPropertyOp35
 70
     1
102
RTVSPropertyOp36
 70
     1
102
RTVSPropertyOp37
 70
     1
102
RTVSPropertyOp38
 70
     1
102
RTVSPropertyOp39
 70
     1
102
RTVSPropertyOp40
 70
     1
102
RTVSPropertyOp41
 70
     1
102
RTVSPropertyOp42
 70
     1
102
RTVSPropertyOp43
 70
     1
102
RTVSPropertyOp44
 70
     1
102
RTVSPropertyOp45
 70
     1
102
RTVSPropertyOp46
 70
     1
102
RTVSPropertyOp47
 70
     1
102
RTVSPropertyOp48
 70
     1
102
RTVSPropertyOp49
 70
     1
102
RTVSPropertyOp50
 70
     1
102
RTVSPropertyOp51
 70
     0
102
RTVSPropertyOp52
 70
     0
102
RTVSPropertyOp53
 70
     1
102
RTVSPropertyOp54
 70
     1
102
RTVSPropertyOp55
 70
     1
102
RTVSPropertyOp56
 70
     1
102
RTVSPropertyOp57
 70
     1
102
RTVSPost2010Prop28
280
     0
102
RTVSPost2010PropOp28
 70
     1
102
RTVSPost2010Prop29
280
     1
102
RTVSPost2010PropOp29
 70
     1
102
RTVSPost2010Prop30
280
     1
102
RTVSPost2010PropOp30
 70
     1
102
RTVSPost2010Prop31
280
     0
102
RTVSPost2010PropOp31
 70
     1
102
RTVSPost2010Prop32
280
     0
102
RTVSPost2010PropOp32
 70
     1
102
RTVSPost2010Prop33
280
     0
102
RTVSPost2010PropOp33
 70
     1
102
RTVSPost2010Prop34
280
     0
102
RTVSPost2010PropOp34
 70
     1
102
RTVSPost2010Prop35
280
     0
102
RTVSPost2010PropOp35
 70
     1
102
RTVSPost2010Prop36
280
     0
102
RTVSPost2010PropOp36
 70
     1
102
RTVSPost2010Prop37
 90
       50
102
RTVSPost2010PropOp37
 70
     1
102
RTVSPost2010Prop38
140
0.0
102
RTVSPost2010PropOp38
 70
     1
102
RTVSPost2010Prop39
140
1.0
102
RTVSPost2010PropOp39
 70
     1
102
RTVSPost2010Prop40
 90
        0
102
RTVSPost2010PropOp40
 70
     1
102
RTVSPost2010Prop41ColorIndex
 90
       18
102
RTVSPost2010Prop41ColorRGB
 90
        0
102
RTVSPost2010PropOp41
 70
     1
102
RTVSPost2010Prop42
 90
       50
102
RTVSPost2010PropOp42
 70
     1
102
RTVSPost2010Prop43
 90
        3
102
RTVSPost2010PropOp43
 70
     1
102
RTVSPost2010Prop44ColorIndex
 90
        5
102
RTVSPost2010Prop44ColorRGB
 90
      255
102
RTVSPost2010PropOp44
 70
     1
102
RTVSPost2010Prop45
280
     0
102
RTVSPost2010PropOp45
 70
     1
102
RTVSPost2010Prop46
 90
       50
102
RTVSPost2010PropOp46
 70
     1
102
RTVSPost2010Prop47
 90
       50
102
RTVSPost2010PropOp47
 70
     1
102
RTVSPost2010Prop48
 90
       50
102
RTVSPost2010PropOp48
 70
     1
102
RTVSPost2010Prop49
280
     0
102
RTVSPost2010PropOp49
 70
     1
102
RTVSPost2010Prop50
 90
       50
102
RTVSPost2010PropOp50
 70
     1
102
RTVSPost2010Prop51ColorIndex
 90
      256
102
RTVSPost2010Prop51ColorRGB
 90
-16777216
102
RTVSPost2010PropOp51
 70
     0
102
RTVSPost2010Prop52
140
1.0
102
RTVSPost2010PropOp52
 70
     0
102
RTVSPost2010Prop53
 90
        0
102
RTVSPost2010PropOp53
 70
     1
102
RTVSPost2010Prop54
  1
strokes_ogs.tif
102
RTVSPost2010PropOp54
 70
     1
102
RTVSPost2010Prop55
280
     0
102
RTVSPost2010PropOp55
 70
     1
102
RTVSPost2010Prop56
140
1.0
102
RTVSPost2010PropOp56
 70
     1
102
RTVSPost2010Prop57
140
1.0
102
RTVSPost2010PropOp57
 70
     1
  0
XRECORD
  5
7CC6
102
{ACAD_REACTORS
330
7CC5
102
}
330
7CC5
100
AcDbXrecord
280
     1
102
RTVSPropertyOp0
 70
     1
102
RTVSPropertyOp1
 70
     1
102
RTVSPropertyOp2
 70
     1
102
RTVSPropertyOp3
 70
     1
102
RTVSPropertyOp4
 70
     1
102
RTVSPropertyOp5
 70
     1
102
RTVSPropertyOp6
 70
     1
102
RTVSPropertyOp7
 70
     1
102
RTVSPropertyOp8
 70
     1
102
RTVSPropertyOp9
 70
     1
102
RTVSPropertyOp10
 70
     1
102
RTVSPropertyOp11
 70
     1
102
RTVSPropertyOp12
 70
     1
102
RTVSPropertyOp13
 70
     1
102
RTVSPropertyOp14
 70
     1
102
RTVSPropertyOp15
 70
     1
102
RTVSPropertyOp16
 70
     1
102
RTVSPropertyOp17
 70
     1
102
RTVSPropertyOp18
 70
     1
102
RTVSPropertyOp19
 70
     1
102
RTVSPropertyOp20
 70
     1
102
RTVSPropertyOp21
 70
     1
102
RTVSPropertyOp22
 70
     1
102
RTVSPropertyOp23
 70
     1
102
RTVSPropertyOp24
 70
     1
102
RTVSPropertyOp25
 70
     1
102
RTVSPropertyOp26
 70
     1
102
RTVSPropertyOp27
 70
     1
102
RTVSPropertyOp28
 70
     1
102
RTVSPropertyOp29
 70
     1
102
RTVSPropertyOp30
 70
     1
102
RTVSPropertyOp31
 70
     1
102
RTVSPropertyOp32
 70
     1
102
RTVSPropertyOp33
 70
     1
102
RTVSPropertyOp34
 70
     1
102
RTVSPropertyOp35
 70
     1
102
RTVSPropertyOp36
 70
     1
102
RTVSPropertyOp37
 70
     1
102
RTVSPropertyOp38
 70
     1
102
RTVSPropertyOp39
 70
     1
102
RTVSPropertyOp40
 70
     1
102
RTVSPropertyOp41
 70
     1
102
RTVSPropertyOp42
 70
     1
102
RTVSPropertyOp43
 70
     1
102
RTVSPropertyOp44
 70
     1
102
RTVSPropertyOp45
 70
     1
102
RTVSPropertyOp46
 70
     1
102
RTVSPropertyOp47
 70
     1
102
RTVSPropertyOp48
 70
     1
102
RTVSPropertyOp49
 70
     1
102
RTVSPropertyOp50
 70
     1
102
RTVSPropertyOp51
 70
     0
102
RTVSPropertyOp52
 70
     0
102
RTVSPropertyOp53
 70
     1
102
RTVSPropertyOp54
 70
     1
102
RTVSPropertyOp55
 70
     1
102
RTVSPropertyOp56
 70
     1
102
RTVSPropertyOp57
 70
     1
102
RTVSPost2010Prop28
280
     0
102
RTVSPost2010PropOp28
 70
     1
102
RTVSPost2010Prop29
280
     1
102
RTVSPost2010PropOp29
 70
     1
102
RTVSPost2010Prop30
280
     1
102
RTVSPost2010PropOp30
 70
     1
102
RTVSPost2010Prop31
280
     0
102
RTVSPost2010PropOp31
 70
     1
102
RTVSPost2010Prop32
280
     0
102
RTVSPost2010PropOp32
 70
     1
102
RTVSPost2010Prop33
280
     0
102
RTVSPost2010PropOp33
 70
     1
102
RTVSPost2010Prop34
280
     0
102
RTVSPost2010PropOp34
 70
     1
102
RTVSPost2010Prop35
280
     0
102
RTVSPost2010PropOp35
 70
     1
102
RTVSPost2010Prop36
280
     0
102
RTVSPost2010PropOp36
 70
     1
102
RTVSPost2010Prop37
 90
       50
102
RTVSPost2010PropOp37
 70
     1
102
RTVSPost2010Prop38
140
0.0
102
RTVSPost2010PropOp38
 70
     1
102
RTVSPost2010Prop39
140
1.0
102
RTVSPost2010PropOp39
 70
     1
102
RTVSPost2010Prop40
 90
        0
102
RTVSPost2010PropOp40
 70
     1
102
RTVSPost2010Prop41ColorIndex
 90
       18
102
RTVSPost2010Prop41ColorRGB
 90
        0
102
RTVSPost2010PropOp41
 70
     1
102
RTVSPost2010Prop42
 90
       50
102
RTVSPost2010PropOp42
 70
     1
102
RTVSPost2010Prop43
 90
        3
102
RTVSPost2010PropOp43
 70
     1
102
RTVSPost2010Prop44ColorIndex
 90
        5
102
RTVSPost2010Prop44ColorRGB
 90
      255
102
RTVSPost2010PropOp44
 70
     1
102
RTVSPost2010Prop45
280
     0
102
RTVSPost2010PropOp45
 70
     1
102
RTVSPost2010Prop46
 90
       50
102
RTVSPost2010PropOp46
 70
     1
102
RTVSPost2010Prop47
 90
       50
102
RTVSPost2010PropOp47
 70
     1
102
RTVSPost2010Prop48
 90
       50
102
RTVSPost2010PropOp48
 70
     1
102
RTVSPost2010Prop49
280
     0
102
RTVSPost2010PropOp49
 70
     1
102
RTVSPost2010Prop50
 90
       50
102
RTVSPost2010PropOp50
 70
     1
102
RTVSPost2010Prop51ColorIndex
 90
      256
102
RTVSPost2010Prop51ColorRGB
 90
-16777216
102
RTVSPost2010PropOp51
 70
     0
102
RTVSPost2010Prop52
140
1.0
102
RTVSPost2010PropOp52
 70
     0
102
RTVSPost2010Prop53
 90
        0
102
RTVSPost2010PropOp53
 70
     1
102
RTVSPost2010Prop54
  1
strokes_ogs.tif
102
RTVSPost2010PropOp54
 70
     1
102
RTVSPost2010Prop55
280
     0
102
RTVSPost2010PropOp55
 70
     1
102
RTVSPost2010Prop56
140
1.0
102
RTVSPost2010PropOp56
 70
     1
102
RTVSPost2010Prop57
140
1.0
102
RTVSPost2010PropOp57
 70
     1
  0
XRECORD
  5
7CC8
102
{ACAD_REACTORS
330
7CC7
102
}
330
7CC7
100
AcDbXrecord
280
     1
102
RTVSPropertyOp0
 70
     0
102
RTVSPropertyOp1
 70
     0
102
RTVSPropertyOp2
 70
     0
102
RTVSPropertyOp3
 70
     0
102
RTVSPropertyOp4
 70
     0
102
RTVSPropertyOp5
 70
     0
102
RTVSPropertyOp6
 70
     0
102
RTVSPropertyOp7
 70
     0
102
RTVSPropertyOp8
 70
     0
102
RTVSPropertyOp9
 70
     0
102
RTVSPropertyOp10
 70
     0
102
RTVSPropertyOp11
 70
     0
102
RTVSPropertyOp12
 70
     0
102
RTVSPropertyOp13
 70
     0
102
RTVSPropertyOp14
 70
     2
102
RTVSPropertyOp15
 70
     0
102
RTVSPropertyOp16
 70
     0
102
RTVSPropertyOp17
 70
     0
102
RTVSPropertyOp18
 70
     0
102
RTVSPropertyOp19
 70
     0
102
RTVSPropertyOp20
 70
     0
102
RTVSPropertyOp21
 70
     0
102
RTVSPropertyOp22
 70
     0
102
RTVSPropertyOp23
 70
     0
102
RTVSPropertyOp24
 70
     0
102
RTVSPropertyOp25
 70
     0
102
RTVSPropertyOp26
 70
     0
102
RTVSPropertyOp27
 70
     0
102
RTVSPropertyOp28
 70
     1
102
RTVSPropertyOp29
 70
     1
102
RTVSPropertyOp30
 70
     1
102
RTVSPropertyOp31
 70
     1
102
RTVSPropertyOp32
 70
     1
102
RTVSPropertyOp33
 70
     1
102
RTVSPropertyOp34
 70
     1
102
RTVSPropertyOp35
 70
     1
102
RTVSPropertyOp36
 70
     1
102
RTVSPropertyOp37
 70
     1
102
RTVSPropertyOp38
 70
     1
102
RTVSPropertyOp39
 70
     1
102
RTVSPropertyOp40
 70
     1
102
RTVSPropertyOp41
 70
     1
102
RTVSPropertyOp42
 70
     1
102
RTVSPropertyOp43
 70
     1
102
RTVSPropertyOp44
 70
     1
102
RTVSPropertyOp45
 70
     1
102
RTVSPropertyOp46
 70
     1
102
RTVSPropertyOp47
 70
     1
102
RTVSPropertyOp48
 70
     1
102
RTVSPropertyOp49
 70
     1
102
RTVSPropertyOp50
 70
     1
102
RTVSPropertyOp51
 70
     0
102
RTVSPropertyOp52
 70
     0
102
RTVSPropertyOp53
 70
     1
102
RTVSPropertyOp54
 70
     1
102
RTVSPropertyOp55
 70
     1
102
RTVSPropertyOp56
 70
     1
102
RTVSPropertyOp57
 70
     1
102
RTVSPost2010Prop28
280
     0
102
RTVSPost2010PropOp28
 70
     1
102
RTVSPost2010Prop29
280
     1
102
RTVSPost2010PropOp29
 70
     1
102
RTVSPost2010Prop30
280
     1
102
RTVSPost2010PropOp30
 70
     1
102
RTVSPost2010Prop31
280
     0
102
RTVSPost2010PropOp31
 70
     1
102
RTVSPost2010Prop32
280
     0
102
RTVSPost2010PropOp32
 70
     1
102
RTVSPost2010Prop33
280
     0
102
RTVSPost2010PropOp33
 70
     1
102
RTVSPost2010Prop34
280
     0
102
RTVSPost2010PropOp34
 70
     1
102
RTVSPost2010Prop35
280
     0
102
RTVSPost2010PropOp35
 70
     1
102
RTVSPost2010Prop36
280
     0
102
RTVSPost2010PropOp36
 70
     1
102
RTVSPost2010Prop37
 90
       50
102
RTVSPost2010PropOp37
 70
     1
102
RTVSPost2010Prop38
140
0.0
102
RTVSPost2010PropOp38
 70
     1
102
RTVSPost2010Prop39
140
1.0
102
RTVSPost2010PropOp39
 70
     1
102
RTVSPost2010Prop40
 90
        0
102
RTVSPost2010PropOp40
 70
     1
102
RTVSPost2010Prop41ColorIndex
 90
       18
102
RTVSPost2010Prop41ColorRGB
 90
        0
102
RTVSPost2010PropOp41
 70
     1
102
RTVSPost2010Prop42
 90
       50
102
RTVSPost2010PropOp42
 70
     1
102
RTVSPost2010Prop43
 90
        3
102
RTVSPost2010PropOp43
 70
     1
102
RTVSPost2010Prop44ColorIndex
 90
        5
102
RTVSPost2010Prop44ColorRGB
 90
      255
102
RTVSPost2010PropOp44
 70
     1
102
RTVSPost2010Prop45
280
     0
102
RTVSPost2010PropOp45
 70
     1
102
RTVSPost2010Prop46
 90
       50
102
RTVSPost2010PropOp46
 70
     1
102
RTVSPost2010Prop47
 90
       50
102
RTVSPost2010PropOp47
 70
     1
102
RTVSPost2010Prop48
 90
       50
102
RTVSPost2010PropOp48
 70
     1
102
RTVSPost2010Prop49
280
     0
102
RTVSPost2010PropOp49
 70
     1
102
RTVSPost2010Prop50
 90
       50
102
RTVSPost2010PropOp50
 70
     1
102
RTVSPost2010Prop51ColorIndex
 90
      256
102
RTVSPost2010Prop51ColorRGB
 90
-16777216
102
RTVSPost2010PropOp51
 70
     0
102
RTVSPost2010Prop52
140
1.0
102
RTVSPost2010PropOp52
 70
     0
102
RTVSPost2010Prop53
 90
        0
102
RTVSPost2010PropOp53
 70
     1
102
RTVSPost2010Prop54
  1
strokes_ogs.tif
102
RTVSPost2010PropOp54
 70
     1
102
RTVSPost2010Prop55
280
     0
102
RTVSPost2010PropOp55
 70
     1
102
RTVSPost2010Prop56
140
1.0
102
RTVSPost2010PropOp56
 70
     1
102
RTVSPost2010Prop57
140
1.0
102
RTVSPost2010PropOp57
 70
     1
  0
XRECORD
  5
7CCA
102
{ACAD_REACTORS
330
7CC9
102
}
330
7CC9
100
AcDbXrecord
280
     1
102
RTVSPropertyOp0
 70
     1
102
RTVSPropertyOp1
 70
     1
102
RTVSPropertyOp2
 70
     1
102
RTVSPropertyOp3
 70
     1
102
RTVSPropertyOp4
 70
     1
102
RTVSPropertyOp5
 70
     1
102
RTVSPropertyOp6
 70
     1
102
RTVSPropertyOp7
 70
     1
102
RTVSPropertyOp8
 70
     1
102
RTVSPropertyOp9
 70
     1
102
RTVSPropertyOp10
 70
     1
102
RTVSPropertyOp11
 70
     1
102
RTVSPropertyOp12
 70
     1
102
RTVSPropertyOp13
 70
     1
102
RTVSPropertyOp14
 70
     1
102
RTVSPropertyOp15
 70
     1
102
RTVSPropertyOp16
 70
     1
102
RTVSPropertyOp17
 70
     1
102
RTVSPropertyOp18
 70
     1
102
RTVSPropertyOp19
 70
     1
102
RTVSPropertyOp20
 70
     1
102
RTVSPropertyOp21
 70
     1
102
RTVSPropertyOp22
 70
     1
102
RTVSPropertyOp23
 70
     1
102
RTVSPropertyOp24
 70
     1
102
RTVSPropertyOp25
 70
     1
102
RTVSPropertyOp26
 70
     1
102
RTVSPropertyOp27
 70
     1
102
RTVSPropertyOp28
 70
     1
102
RTVSPropertyOp29
 70
     1
102
RTVSPropertyOp30
 70
     1
102
RTVSPropertyOp31
 70
     1
102
RTVSPropertyOp32
 70
     1
102
RTVSPropertyOp33
 70
     1
102
RTVSPropertyOp34
 70
     1
102
RTVSPropertyOp35
 70
     1
102
RTVSPropertyOp36
 70
     1
102
RTVSPropertyOp37
 70
     1
102
RTVSPropertyOp38
 70
     1
102
RTVSPropertyOp39
 70
     1
102
RTVSPropertyOp40
 70
     1
102
RTVSPropertyOp41
 70
     1
102
RTVSPropertyOp42
 70
     1
102
RTVSPropertyOp43
 70
     1
102
RTVSPropertyOp44
 70
     1
102
RTVSPropertyOp45
 70
     1
102
RTVSPropertyOp46
 70
     1
102
RTVSPropertyOp47
 70
     1
102
RTVSPropertyOp48
 70
     1
102
RTVSPropertyOp49
 70
     1
102
RTVSPropertyOp50
 70
     1
102
RTVSPropertyOp51
 70
     0
102
RTVSPropertyOp52
 70
     0
102
RTVSPropertyOp53
 70
     1
102
RTVSPropertyOp54
 70
     1
102
RTVSPropertyOp55
 70
     1
102
RTVSPropertyOp56
 70
     1
102
RTVSPropertyOp57
 70
     1
102
RTVSPost2010Prop28
280
     0
102
RTVSPost2010PropOp28
 70
     1
102
RTVSPost2010Prop29
280
     1
102
RTVSPost2010PropOp29
 70
     1
102
RTVSPost2010Prop30
280
     1
102
RTVSPost2010PropOp30
 70
     1
102
RTVSPost2010Prop31
280
     0
102
RTVSPost2010PropOp31
 70
     1
102
RTVSPost2010Prop32
280
     0
102
RTVSPost2010PropOp32
 70
     1
102
RTVSPost2010Prop33
280
     0
102
RTVSPost2010PropOp33
 70
     1
102
RTVSPost2010Prop34
280
     0
102
RTVSPost2010PropOp34
 70
     1
102
RTVSPost2010Prop35
280
     0
102
RTVSPost2010PropOp35
 70
     1
102
RTVSPost2010Prop36
280
     0
102
RTVSPost2010PropOp36
 70
     1
102
RTVSPost2010Prop37
 90
       50
102
RTVSPost2010PropOp37
 70
     1
102
RTVSPost2010Prop38
140
0.0
102
RTVSPost2010PropOp38
 70
     1
102
RTVSPost2010Prop39
140
1.0
102
RTVSPost2010PropOp39
 70
     1
102
RTVSPost2010Prop40
 90
        0
102
RTVSPost2010PropOp40
 70
     1
102
RTVSPost2010Prop41ColorIndex
 90
       18
102
RTVSPost2010Prop41ColorRGB
 90
        0
102
RTVSPost2010PropOp41
 70
     1
102
RTVSPost2010Prop42
 90
       50
102
RTVSPost2010PropOp42
 70
     1
102
RTVSPost2010Prop43
 90
        3
102
RTVSPost2010PropOp43
 70
     1
102
RTVSPost2010Prop44ColorIndex
 90
        5
102
RTVSPost2010Prop44ColorRGB
 90
      255
102
RTVSPost2010PropOp44
 70
     1
102
RTVSPost2010Prop45
280
     0
102
RTVSPost2010PropOp45
 70
     1
102
RTVSPost2010Prop46
 90
       50
102
RTVSPost2010PropOp46
 70
     1
102
RTVSPost2010Prop47
 90
       50
102
RTVSPost2010PropOp47
 70
     1
102
RTVSPost2010Prop48
 90
       50
102
RTVSPost2010PropOp48
 70
     1
102
RTVSPost2010Prop49
280
     0
102
RTVSPost2010PropOp49
 70
     1
102
RTVSPost2010Prop50
 90
       50
102
RTVSPost2010PropOp50
 70
     1
102
RTVSPost2010Prop51ColorIndex
 90
      256
102
RTVSPost2010Prop51ColorRGB
 90
-16777216
102
RTVSPost2010PropOp51
 70
     0
102
RTVSPost2010Prop52
140
1.0
102
RTVSPost2010PropOp52
 70
     0
102
RTVSPost2010Prop53
 90
        0
102
RTVSPost2010PropOp53
 70
     1
102
RTVSPost2010Prop54
  1
strokes_ogs.tif
102
RTVSPost2010PropOp54
 70
     1
102
RTVSPost2010Prop55
280
     0
102
RTVSPost2010PropOp55
 70
     1
102
RTVSPost2010Prop56
140
1.0
102
RTVSPost2010PropOp56
 70
     1
102
RTVSPost2010Prop57
140
1.0
102
RTVSPost2010PropOp57
 70
     1
  0
XRECORD
  5
7CCC
102
{ACAD_REACTORS
330
7CCB
102
}
330
7CCB
100
AcDbXrecord
280
     1
102
RTVSPropertyOp0
 70
     1
102
RTVSPropertyOp1
 70
     1
102
RTVSPropertyOp2
 70
     1
102
RTVSPropertyOp3
 70
     1
102
RTVSPropertyOp4
 70
     1
102
RTVSPropertyOp5
 70
     1
102
RTVSPropertyOp6
 70
     1
102
RTVSPropertyOp7
 70
     1
102
RTVSPropertyOp8
 70
     1
102
RTVSPropertyOp9
 70
     1
102
RTVSPropertyOp10
 70
     1
102
RTVSPropertyOp11
 70
     1
102
RTVSPropertyOp12
 70
     1
102
RTVSPropertyOp13
 70
     1
102
RTVSPropertyOp14
 70
     1
102
RTVSPropertyOp15
 70
     1
102
RTVSPropertyOp16
 70
     1
102
RTVSPropertyOp17
 70
     1
102
RTVSPropertyOp18
 70
     1
102
RTVSPropertyOp19
 70
     1
102
RTVSPropertyOp20
 70
     1
102
RTVSPropertyOp21
 70
     1
102
RTVSPropertyOp22
 70
     1
102
RTVSPropertyOp23
 70
     1
102
RTVSPropertyOp24
 70
     1
102
RTVSPropertyOp25
 70
     1
102
RTVSPropertyOp26
 70
     1
102
RTVSPropertyOp27
 70
     1
102
RTVSPropertyOp28
 70
     1
102
RTVSPropertyOp29
 70
     1
102
RTVSPropertyOp30
 70
     1
102
RTVSPropertyOp31
 70
     1
102
RTVSPropertyOp32
 70
     1
102
RTVSPropertyOp33
 70
     1
102
RTVSPropertyOp34
 70
     1
102
RTVSPropertyOp35
 70
     1
102
RTVSPropertyOp36
 70
     1
102
RTVSPropertyOp37
 70
     1
102
RTVSPropertyOp38
 70
     1
102
RTVSPropertyOp39
 70
     1
102
RTVSPropertyOp40
 70
     1
102
RTVSPropertyOp41
 70
     1
102
RTVSPropertyOp42
 70
     1
102
RTVSPropertyOp43
 70
     1
102
RTVSPropertyOp44
 70
     1
102
RTVSPropertyOp45
 70
     1
102
RTVSPropertyOp46
 70
     1
102
RTVSPropertyOp47
 70
     1
102
RTVSPropertyOp48
 70
     1
102
RTVSPropertyOp49
 70
     1
102
RTVSPropertyOp50
 70
     1
102
RTVSPropertyOp51
 70
     0
102
RTVSPropertyOp52
 70
     0
102
RTVSPropertyOp53
 70
     1
102
RTVSPropertyOp54
 70
     1
102
RTVSPropertyOp55
 70
     1
102
RTVSPropertyOp56
 70
     1
102
RTVSPropertyOp57
 70
     1
102
RTVSPost2010Prop28
280
     0
102
RTVSPost2010PropOp28
 70
     1
102
RTVSPost2010Prop29
280
     1
102
RTVSPost2010PropOp29
 70
     1
102
RTVSPost2010Prop30
280
     1
102
RTVSPost2010PropOp30
 70
     1
102
RTVSPost2010Prop31
280
     0
102
RTVSPost2010PropOp31
 70
     1
102
RTVSPost2010Prop32
280
     0
102
RTVSPost2010PropOp32
 70
     1
102
RTVSPost2010Prop33
280
     0
102
RTVSPost2010PropOp33
 70
     1
102
RTVSPost2010Prop34
280
     0
102
RTVSPost2010PropOp34
 70
     1
102
RTVSPost2010Prop35
280
     0
102
RTVSPost2010PropOp35
 70
     1
102
RTVSPost2010Prop36
280
     0
102
RTVSPost2010PropOp36
 70
     1
102
RTVSPost2010Prop37
 90
       50
102
RTVSPost2010PropOp37
 70
     1
102
RTVSPost2010Prop38
140
0.0
102
RTVSPost2010PropOp38
 70
     1
102
RTVSPost2010Prop39
140
1.0
102
RTVSPost2010PropOp39
 70
     1
102
RTVSPost2010Prop40
 90
        0
102
RTVSPost2010PropOp40
 70
     1
102
RTVSPost2010Prop41ColorIndex
 90
       18
102
RTVSPost2010Prop41ColorRGB
 90
        0
102
RTVSPost2010PropOp41
 70
     1
102
RTVSPost2010Prop42
 90
       50
102
RTVSPost2010PropOp42
 70
     1
102
RTVSPost2010Prop43
 90
        3
102
RTVSPost2010PropOp43
 70
     1
102
RTVSPost2010Prop44ColorIndex
 90
        5
102
RTVSPost2010Prop44ColorRGB
 90
      255
102
RTVSPost2010PropOp44
 70
     1
102
RTVSPost2010Prop45
280
     0
102
RTVSPost2010PropOp45
 70
     1
102
RTVSPost2010Prop46
 90
       50
102
RTVSPost2010PropOp46
 70
     1
102
RTVSPost2010Prop47
 90
       50
102
RTVSPost2010PropOp47
 70
     1
102
RTVSPost2010Prop48
 90
       50
102
RTVSPost2010PropOp48
 70
     1
102
RTVSPost2010Prop49
280
     0
102
RTVSPost2010PropOp49
 70
     1
102
RTVSPost2010Prop50
 90
       50
102
RTVSPost2010PropOp50
 70
     1
102
RTVSPost2010Prop51ColorIndex
 90
      256
102
RTVSPost2010Prop51ColorRGB
 90
-16777216
102
RTVSPost2010PropOp51
 70
     0
102
RTVSPost2010Prop52
140
1.0
102
RTVSPost2010PropOp52
 70
     0
102
RTVSPost2010Prop53
 90
        0
102
RTVSPost2010PropOp53
 70
     1
102
RTVSPost2010Prop54
  1
strokes_ogs.tif
102
RTVSPost2010PropOp54
 70
     1
102
RTVSPost2010Prop55
280
     0
102
RTVSPost2010PropOp55
 70
     1
102
RTVSPost2010Prop56
140
1.0
102
RTVSPost2010PropOp56
 70
     1
102
RTVSPost2010Prop57
140
1.0
102
RTVSPost2010PropOp57
 70
     1
  0
XRECORD
  5
7CCE
102
{ACAD_REACTORS
330
7CCD
102
}
330
7CCD
100
AcDbXrecord
280
     1
102
RTVSPropertyOp0
 70
     1
102
RTVSPropertyOp1
 70
     1
102
RTVSPropertyOp2
 70
     1
102
RTVSPropertyOp3
 70
     1
102
RTVSPropertyOp4
 70
     1
102
RTVSPropertyOp5
 70
     1
102
RTVSPropertyOp6
 70
     1
102
RTVSPropertyOp7
 70
     1
102
RTVSPropertyOp8
 70
     1
102
RTVSPropertyOp9
 70
     1
102
RTVSPropertyOp10
 70
     1
102
RTVSPropertyOp11
 70
     1
102
RTVSPropertyOp12
 70
     1
102
RTVSPropertyOp13
 70
     1
102
RTVSPropertyOp14
 70
     1
102
RTVSPropertyOp15
 70
     1
102
RTVSPropertyOp16
 70
     1
102
RTVSPropertyOp17
 70
     1
102
RTVSPropertyOp18
 70
     1
102
RTVSPropertyOp19
 70
     1
102
RTVSPropertyOp20
 70
     1
102
RTVSPropertyOp21
 70
     1
102
RTVSPropertyOp22
 70
     1
102
RTVSPropertyOp23
 70
     1
102
RTVSPropertyOp24
 70
     1
102
RTVSPropertyOp25
 70
     1
102
RTVSPropertyOp26
 70
     1
102
RTVSPropertyOp27
 70
     1
102
RTVSPropertyOp28
 70
     1
102
RTVSPropertyOp29
 70
     1
102
RTVSPropertyOp30
 70
     1
102
RTVSPropertyOp31
 70
     1
102
RTVSPropertyOp32
 70
     1
102
RTVSPropertyOp33
 70
     1
102
RTVSPropertyOp34
 70
     1
102
RTVSPropertyOp35
 70
     1
102
RTVSPropertyOp36
 70
     1
102
RTVSPropertyOp37
 70
     1
102
RTVSPropertyOp38
 70
     1
102
RTVSPropertyOp39
 70
     1
102
RTVSPropertyOp40
 70
     1
102
RTVSPropertyOp41
 70
     1
102
RTVSPropertyOp42
 70
     1
102
RTVSPropertyOp43
 70
     1
102
RTVSPropertyOp44
 70
     1
102
RTVSPropertyOp45
 70
     1
102
RTVSPropertyOp46
 70
     1
102
RTVSPropertyOp47
 70
     1
102
RTVSPropertyOp48
 70
     1
102
RTVSPropertyOp49
 70
     1
102
RTVSPropertyOp50
 70
     1
102
RTVSPropertyOp51
 70
     0
102
RTVSPropertyOp52
 70
     0
102
RTVSPropertyOp53
 70
     1
102
RTVSPropertyOp54
 70
     1
102
RTVSPropertyOp55
 70
     1
102
RTVSPropertyOp56
 70
     1
102
RTVSPropertyOp57
 70
     1
102
RTVSPost2010Prop28
280
     0
102
RTVSPost2010PropOp28
 70
     1
102
RTVSPost2010Prop29
280
     1
102
RTVSPost2010PropOp29
 70
     1
102
RTVSPost2010Prop30
280
     1
102
RTVSPost2010PropOp30
 70
     1
102
RTVSPost2010Prop31
280
     0
102
RTVSPost2010PropOp31
 70
     1
102
RTVSPost2010Prop32
280
     0
102
RTVSPost2010PropOp32
 70
     1
102
RTVSPost2010Prop33
280
     0
102
RTVSPost2010PropOp33
 70
     1
102
RTVSPost2010Prop34
280
     0
102
RTVSPost2010PropOp34
 70
     1
102
RTVSPost2010Prop35
280
     0
102
RTVSPost2010PropOp35
 70
     1
102
RTVSPost2010Prop36
280
     0
102
RTVSPost2010PropOp36
 70
     1
102
RTVSPost2010Prop37
 90
       50
102
RTVSPost2010PropOp37
 70
     1
102
RTVSPost2010Prop38
140
0.0
102
RTVSPost2010PropOp38
 70
     1
102
RTVSPost2010Prop39
140
1.0
102
RTVSPost2010PropOp39
 70
     1
102
RTVSPost2010Prop40
 90
        0
102
RTVSPost2010PropOp40
 70
     1
102
RTVSPost2010Prop41ColorIndex
 90
       18
102
RTVSPost2010Prop41ColorRGB
 90
        0
102
RTVSPost2010PropOp41
 70
     1
102
RTVSPost2010Prop42
 90
       50
102
RTVSPost2010PropOp42
 70
     1
102
RTVSPost2010Prop43
 90
        3
102
RTVSPost2010PropOp43
 70
     1
102
RTVSPost2010Prop44ColorIndex
 90
        5
102
RTVSPost2010Prop44ColorRGB
 90
      255
102
RTVSPost2010PropOp44
 70
     1
102
RTVSPost2010Prop45
280
     0
102
RTVSPost2010PropOp45
 70
     1
102
RTVSPost2010Prop46
 90
       50
102
RTVSPost2010PropOp46
 70
     1
102
RTVSPost2010Prop47
 90
       50
102
RTVSPost2010PropOp47
 70
     1
102
RTVSPost2010Prop48
 90
       50
102
RTVSPost2010PropOp48
 70
     1
102
RTVSPost2010Prop49
280
     0
102
RTVSPost2010PropOp49
 70
     1
102
RTVSPost2010Prop50
 90
       50
102
RTVSPost2010PropOp50
 70
     1
102
RTVSPost2010Prop51ColorIndex
 90
      256
102
RTVSPost2010Prop51ColorRGB
 90
-16777216
102
RTVSPost2010PropOp51
 70
     0
102
RTVSPost2010Prop52
140
1.0
102
RTVSPost2010PropOp52
 70
     0
102
RTVSPost2010Prop53
 90
        0
102
RTVSPost2010PropOp53
 70
     1
102
RTVSPost2010Prop54
  1
strokes_ogs.tif
102
RTVSPost2010PropOp54
 70
     1
102
RTVSPost2010Prop55
280
     0
102
RTVSPost2010PropOp55
 70
     1
102
RTVSPost2010Prop56
140
1.0
102
RTVSPost2010PropOp56
 70
     1
102
RTVSPost2010Prop57
140
1.0
102
RTVSPost2010PropOp57
 70
     1
  0
XRECORD
  5
7CD0
102
{ACAD_REACTORS
330
7CCF
102
}
330
7CCF
100
AcDbXrecord
280
     1
102
RTVSPropertyOp0
 70
     1
102
RTVSPropertyOp1
 70
     1
102
RTVSPropertyOp2
 70
     1
102
RTVSPropertyOp3
 70
     1
102
RTVSPropertyOp4
 70
     1
102
RTVSPropertyOp5
 70
     1
102
RTVSPropertyOp6
 70
     1
102
RTVSPropertyOp7
 70
     1
102
RTVSPropertyOp8
 70
     1
102
RTVSPropertyOp9
 70
     1
102
RTVSPropertyOp10
 70
     1
102
RTVSPropertyOp11
 70
     1
102
RTVSPropertyOp12
 70
     1
102
RTVSPropertyOp13
 70
     1
102
RTVSPropertyOp14
 70
     1
102
RTVSPropertyOp15
 70
     1
102
RTVSPropertyOp16
 70
     1
102
RTVSPropertyOp17
 70
     1
102
RTVSPropertyOp18
 70
     1
102
RTVSPropertyOp19
 70
     1
102
RTVSPropertyOp20
 70
     1
102
RTVSPropertyOp21
 70
     1
102
RTVSPropertyOp22
 70
     1
102
RTVSPropertyOp23
 70
     1
102
RTVSPropertyOp24
 70
     1
102
RTVSPropertyOp25
 70
     1
102
RTVSPropertyOp26
 70
     1
102
RTVSPropertyOp27
 70
     1
102
RTVSPropertyOp28
 70
     1
102
RTVSPropertyOp29
 70
     1
102
RTVSPropertyOp30
 70
     1
102
RTVSPropertyOp31
 70
     1
102
RTVSPropertyOp32
 70
     1
102
RTVSPropertyOp33
 70
     1
102
RTVSPropertyOp34
 70
     1
102
RTVSPropertyOp35
 70
     1
102
RTVSPropertyOp36
 70
     1
102
RTVSPropertyOp37
 70
     1
102
RTVSPropertyOp38
 70
     1
102
RTVSPropertyOp39
 70
     1
102
RTVSPropertyOp40
 70
     1
102
RTVSPropertyOp41
 70
     1
102
RTVSPropertyOp42
 70
     1
102
RTVSPropertyOp43
 70
     1
102
RTVSPropertyOp44
 70
     1
102
RTVSPropertyOp45
 70
     1
102
RTVSPropertyOp46
 70
     1
102
RTVSPropertyOp47
 70
     1
102
RTVSPropertyOp48
 70
     1
102
RTVSPropertyOp49
 70
     1
102
RTVSPropertyOp50
 70
     1
102
RTVSPropertyOp51
 70
     0
102
RTVSPropertyOp52
 70
     0
102
RTVSPropertyOp53
 70
     1
102
RTVSPropertyOp54
 70
     1
102
RTVSPropertyOp55
 70
     1
102
RTVSPropertyOp56
 70
     1
102
RTVSPropertyOp57
 70
     1
102
RTVSPost2010Prop28
280
     0
102
RTVSPost2010PropOp28
 70
     1
102
RTVSPost2010Prop29
280
     1
102
RTVSPost2010PropOp29
 70
     1
102
RTVSPost2010Prop30
280
     1
102
RTVSPost2010PropOp30
 70
     1
102
RTVSPost2010Prop31
280
     0
102
RTVSPost2010PropOp31
 70
     1
102
RTVSPost2010Prop32
280
     0
102
RTVSPost2010PropOp32
 70
     1
102
RTVSPost2010Prop33
280
     0
102
RTVSPost2010PropOp33
 70
     1
102
RTVSPost2010Prop34
280
     0
102
RTVSPost2010PropOp34
 70
     1
102
RTVSPost2010Prop35
280
     0
102
RTVSPost2010PropOp35
 70
     1
102
RTVSPost2010Prop36
280
     0
102
RTVSPost2010PropOp36
 70
     1
102
RTVSPost2010Prop37
 90
       50
102
RTVSPost2010PropOp37
 70
     1
102
RTVSPost2010Prop38
140
0.0
102
RTVSPost2010PropOp38
 70
     1
102
RTVSPost2010Prop39
140
1.0
102
RTVSPost2010PropOp39
 70
     1
102
RTVSPost2010Prop40
 90
        0
102
RTVSPost2010PropOp40
 70
     1
102
RTVSPost2010Prop41ColorIndex
 90
       18
102
RTVSPost2010Prop41ColorRGB
 90
        0
102
RTVSPost2010PropOp41
 70
     1
102
RTVSPost2010Prop42
 90
       50
102
RTVSPost2010PropOp42
 70
     1
102
RTVSPost2010Prop43
 90
        3
102
RTVSPost2010PropOp43
 70
     1
102
RTVSPost2010Prop44ColorIndex
 90
        5
102
RTVSPost2010Prop44ColorRGB
 90
      255
102
RTVSPost2010PropOp44
 70
     1
102
RTVSPost2010Prop45
280
     0
102
RTVSPost2010PropOp45
 70
     1
102
RTVSPost2010Prop46
 90
       50
102
RTVSPost2010PropOp46
 70
     1
102
RTVSPost2010Prop47
 90
       50
102
RTVSPost2010PropOp47
 70
     1
102
RTVSPost2010Prop48
 90
       50
102
RTVSPost2010PropOp48
 70
     1
102
RTVSPost2010Prop49
280
     0
102
RTVSPost2010PropOp49
 70
     1
102
RTVSPost2010Prop50
 90
       50
102
RTVSPost2010PropOp50
 70
     1
102
RTVSPost2010Prop51ColorIndex
 90
      256
102
RTVSPost2010Prop51ColorRGB
 90
-16777216
102
RTVSPost2010PropOp51
 70
     0
102
RTVSPost2010Prop52
140
1.0
102
RTVSPost2010PropOp52
 70
     0
102
RTVSPost2010Prop53
 90
        0
102
RTVSPost2010PropOp53
 70
     1
102
RTVSPost2010Prop54
  1
strokes_ogs.tif
102
RTVSPost2010PropOp54
 70
     1
102
RTVSPost2010Prop55
280
     0
102
RTVSPost2010PropOp55
 70
     1
102
RTVSPost2010Prop56
140
1.0
102
RTVSPost2010PropOp56
 70
     1
102
RTVSPost2010Prop57
140
1.0
102
RTVSPost2010PropOp57
 70
     1
  0
XRECORD
  5
7CD2
102
{ACAD_REACTORS
330
7CD1
102
}
330
7CD1
100
AcDbXrecord
280
     1
102
RTVSPropertyOp0
 70
     1
102
RTVSPropertyOp1
 70
     1
102
RTVSPropertyOp2
 70
     1
102
RTVSPropertyOp3
 70
     1
102
RTVSPropertyOp4
 70
     1
102
RTVSPropertyOp5
 70
     1
102
RTVSPropertyOp6
 70
     1
102
RTVSPropertyOp7
 70
     1
102
RTVSPropertyOp8
 70
     1
102
RTVSPropertyOp9
 70
     1
102
RTVSPropertyOp10
 70
     1
102
RTVSPropertyOp11
 70
     1
102
RTVSPropertyOp12
 70
     1
102
RTVSPropertyOp13
 70
     1
102
RTVSPropertyOp14
 70
     1
102
RTVSPropertyOp15
 70
     1
102
RTVSPropertyOp16
 70
     1
102
RTVSPropertyOp17
 70
     1
102
RTVSPropertyOp18
 70
     1
102
RTVSPropertyOp19
 70
     1
102
RTVSPropertyOp20
 70
     1
102
RTVSPropertyOp21
 70
     1
102
RTVSPropertyOp22
 70
     1
102
RTVSPropertyOp23
 70
     1
102
RTVSPropertyOp24
 70
     1
102
RTVSPropertyOp25
 70
     1
102
RTVSPropertyOp26
 70
     1
102
RTVSPropertyOp27
 70
     1
102
RTVSPropertyOp28
 70
     1
102
RTVSPropertyOp29
 70
     1
102
RTVSPropertyOp30
 70
     1
102
RTVSPropertyOp31
 70
     1
102
RTVSPropertyOp32
 70
     1
102
RTVSPropertyOp33
 70
     1
102
RTVSPropertyOp34
 70
     1
102
RTVSPropertyOp35
 70
     1
102
RTVSPropertyOp36
 70
     1
102
RTVSPropertyOp37
 70
     1
102
RTVSPropertyOp38
 70
     1
102
RTVSPropertyOp39
 70
     1
102
RTVSPropertyOp40
 70
     1
102
RTVSPropertyOp41
 70
     1
102
RTVSPropertyOp42
 70
     1
102
RTVSPropertyOp43
 70
     1
102
RTVSPropertyOp44
 70
     1
102
RTVSPropertyOp45
 70
     1
102
RTVSPropertyOp46
 70
     1
102
RTVSPropertyOp47
 70
     1
102
RTVSPropertyOp48
 70
     1
102
RTVSPropertyOp49
 70
     1
102
RTVSPropertyOp50
 70
     1
102
RTVSPropertyOp51
 70
     0
102
RTVSPropertyOp52
 70
     0
102
RTVSPropertyOp53
 70
     1
102
RTVSPropertyOp54
 70
     1
102
RTVSPropertyOp55
 70
     1
102
RTVSPropertyOp56
 70
     1
102
RTVSPropertyOp57
 70
     1
102
RTVSPost2010Prop28
280
     0
102
RTVSPost2010PropOp28
 70
     1
102
RTVSPost2010Prop29
280
     1
102
RTVSPost2010PropOp29
 70
     1
102
RTVSPost2010Prop30
280
     1
102
RTVSPost2010PropOp30
 70
     1
102
RTVSPost2010Prop31
280
     0
102
RTVSPost2010PropOp31
 70
     1
102
RTVSPost2010Prop32
280
     0
102
RTVSPost2010PropOp32
 70
     1
102
RTVSPost2010Prop33
280
     0
102
RTVSPost2010PropOp33
 70
     1
102
RTVSPost2010Prop34
280
     0
102
RTVSPost2010PropOp34
 70
     1
102
RTVSPost2010Prop35
280
     0
102
RTVSPost2010PropOp35
 70
     1
102
RTVSPost2010Prop36
280
     0
102
RTVSPost2010PropOp36
 70
     1
102
RTVSPost2010Prop37
 90
       50
102
RTVSPost2010PropOp37
 70
     1
102
RTVSPost2010Prop38
140
0.0
102
RTVSPost2010PropOp38
 70
     1
102
RTVSPost2010Prop39
140
1.0
102
RTVSPost2010PropOp39
 70
     1
102
RTVSPost2010Prop40
 90
        0
102
RTVSPost2010PropOp40
 70
     1
102
RTVSPost2010Prop41ColorIndex
 90
       18
102
RTVSPost2010Prop41ColorRGB
 90
        0
102
RTVSPost2010PropOp41
 70
     1
102
RTVSPost2010Prop42
 90
       50
102
RTVSPost2010PropOp42
 70
     1
102
RTVSPost2010Prop43
 90
        3
102
RTVSPost2010PropOp43
 70
     1
102
RTVSPost2010Prop44ColorIndex
 90
        5
102
RTVSPost2010Prop44ColorRGB
 90
      255
102
RTVSPost2010PropOp44
 70
     1
102
RTVSPost2010Prop45
280
     0
102
RTVSPost2010PropOp45
 70
     1
102
RTVSPost2010Prop46
 90
       50
102
RTVSPost2010PropOp46
 70
     1
102
RTVSPost2010Prop47
 90
       50
102
RTVSPost2010PropOp47
 70
     1
102
RTVSPost2010Prop48
 90
       50
102
RTVSPost2010PropOp48
 70
     1
102
RTVSPost2010Prop49
280
     0
102
RTVSPost2010PropOp49
 70
     1
102
RTVSPost2010Prop50
 90
       50
102
RTVSPost2010PropOp50
 70
     1
102
RTVSPost2010Prop51ColorIndex
 90
      256
102
RTVSPost2010Prop51ColorRGB
 90
-16777216
102
RTVSPost2010PropOp51
 70
     0
102
RTVSPost2010Prop52
140
1.0
102
RTVSPost2010PropOp52
 70
     0
102
RTVSPost2010Prop53
 90
        0
102
RTVSPost2010PropOp53
 70
     1
102
RTVSPost2010Prop54
  1
strokes_ogs.tif
102
RTVSPost2010PropOp54
 70
     1
102
RTVSPost2010Prop55
280
     0
102
RTVSPost2010PropOp55
 70
     1
102
RTVSPost2010Prop56
140
1.0
102
RTVSPost2010PropOp56
 70
     1
102
RTVSPost2010Prop57
140
1.0
102
RTVSPost2010PropOp57
 70
     1
  0
XRECORD
  5
7CD4
102
{ACAD_REACTORS
330
7CD3
102
}
330
7CD3
100
AcDbXrecord
280
     1
102
RTVSPropertyOp0
 70
     1
102
RTVSPropertyOp1
 70
     1
102
RTVSPropertyOp2
 70
     1
102
RTVSPropertyOp3
 70
     1
102
RTVSPropertyOp4
 70
     1
102
RTVSPropertyOp5
 70
     1
102
RTVSPropertyOp6
 70
     1
102
RTVSPropertyOp7
 70
     1
102
RTVSPropertyOp8
 70
     1
102
RTVSPropertyOp9
 70
     1
102
RTVSPropertyOp10
 70
     1
102
RTVSPropertyOp11
 70
     1
102
RTVSPropertyOp12
 70
     1
102
RTVSPropertyOp13
 70
     1
102
RTVSPropertyOp14
 70
     1
102
RTVSPropertyOp15
 70
     1
102
RTVSPropertyOp16
 70
     1
102
RTVSPropertyOp17
 70
     1
102
RTVSPropertyOp18
 70
     1
102
RTVSPropertyOp19
 70
     1
102
RTVSPropertyOp20
 70
     1
102
RTVSPropertyOp21
 70
     1
102
RTVSPropertyOp22
 70
     1
102
RTVSPropertyOp23
 70
     1
102
RTVSPropertyOp24
 70
     1
102
RTVSPropertyOp25
 70
     1
102
RTVSPropertyOp26
 70
     1
102
RTVSPropertyOp27
 70
     1
102
RTVSPropertyOp28
 70
     1
102
RTVSPropertyOp29
 70
     1
102
RTVSPropertyOp30
 70
     1
102
RTVSPropertyOp31
 70
     1
102
RTVSPropertyOp32
 70
     1
102
RTVSPropertyOp33
 70
     1
102
RTVSPropertyOp34
 70
     1
102
RTVSPropertyOp35
 70
     1
102
RTVSPropertyOp36
 70
     1
102
RTVSPropertyOp37
 70
     1
102
RTVSPropertyOp38
 70
     1
102
RTVSPropertyOp39
 70
     1
102
RTVSPropertyOp40
 70
     1
102
RTVSPropertyOp41
 70
     1
102
RTVSPropertyOp42
 70
     1
102
RTVSPropertyOp43
 70
     1
102
RTVSPropertyOp44
 70
     1
102
RTVSPropertyOp45
 70
     1
102
RTVSPropertyOp46
 70
     1
102
RTVSPropertyOp47
 70
     1
102
RTVSPropertyOp48
 70
     1
102
RTVSPropertyOp49
 70
     1
102
RTVSPropertyOp50
 70
     1
102
RTVSPropertyOp51
 70
     0
102
RTVSPropertyOp52
 70
     0
102
RTVSPropertyOp53
 70
     1
102
RTVSPropertyOp54
 70
     1
102
RTVSPropertyOp55
 70
     1
102
RTVSPropertyOp56
 70
     1
102
RTVSPropertyOp57
 70
     1
102
RTVSPost2010Prop28
280
     0
102
RTVSPost2010PropOp28
 70
     1
102
RTVSPost2010Prop29
280
     1
102
RTVSPost2010PropOp29
 70
     1
102
RTVSPost2010Prop30
280
     1
102
RTVSPost2010PropOp30
 70
     1
102
RTVSPost2010Prop31
280
     0
102
RTVSPost2010PropOp31
 70
     1
102
RTVSPost2010Prop32
280
     0
102
RTVSPost2010PropOp32
 70
     1
102
RTVSPost2010Prop33
280
     0
102
RTVSPost2010PropOp33
 70
     1
102
RTVSPost2010Prop34
280
     0
102
RTVSPost2010PropOp34
 70
     1
102
RTVSPost2010Prop35
280
     0
102
RTVSPost2010PropOp35
 70
     1
102
RTVSPost2010Prop36
280
     0
102
RTVSPost2010PropOp36
 70
     1
102
RTVSPost2010Prop37
 90
       50
102
RTVSPost2010PropOp37
 70
     1
102
RTVSPost2010Prop38
140
0.0
102
RTVSPost2010PropOp38
 70
     1
102
RTVSPost2010Prop39
140
1.0
102
RTVSPost2010PropOp39
 70
     1
102
RTVSPost2010Prop40
 90
        0
102
RTVSPost2010PropOp40
 70
     1
102
RTVSPost2010Prop41ColorIndex
 90
       18
102
RTVSPost2010Prop41ColorRGB
 90
        0
102
RTVSPost2010PropOp41
 70
     1
102
RTVSPost2010Prop42
 90
       50
102
RTVSPost2010PropOp42
 70
     1
102
RTVSPost2010Prop43
 90
        3
102
RTVSPost2010PropOp43
 70
     1
102
RTVSPost2010Prop44ColorIndex
 90
        5
102
RTVSPost2010Prop44ColorRGB
 90
      255
102
RTVSPost2010PropOp44
 70
     1
102
RTVSPost2010Prop45
280
     0
102
RTVSPost2010PropOp45
 70
     1
102
RTVSPost2010Prop46
 90
       50
102
RTVSPost2010PropOp46
 70
     1
102
RTVSPost2010Prop47
 90
       50
102
RTVSPost2010PropOp47
 70
     1
102
RTVSPost2010Prop48
 90
       50
102
RTVSPost2010PropOp48
 70
     1
102
RTVSPost2010Prop49
280
     0
102
RTVSPost2010PropOp49
 70
     1
102
RTVSPost2010Prop50
 90
       50
102
RTVSPost2010PropOp50
 70
     1
102
RTVSPost2010Prop51ColorIndex
 90
      256
102
RTVSPost2010Prop51ColorRGB
 90
-16777216
102
RTVSPost2010PropOp51
 70
     0
102
RTVSPost2010Prop52
140
1.0
102
RTVSPost2010PropOp52
 70
     0
102
RTVSPost2010Prop53
 90
        0
102
RTVSPost2010PropOp53
 70
     1
102
RTVSPost2010Prop54
  1
strokes_ogs.tif
102
RTVSPost2010PropOp54
 70
     1
102
RTVSPost2010Prop55
280
     0
102
RTVSPost2010PropOp55
 70
     1
102
RTVSPost2010Prop56
140
1.0
102
RTVSPost2010PropOp56
 70
     1
102
RTVSPost2010Prop57
140
1.0
102
RTVSPost2010PropOp57
 70
     1
  0
XRECORD
  5
7CD6
102
{ACAD_REACTORS
330
7CD5
102
}
330
7CD5
100
AcDbXrecord
280
     1
102
RTVSPropertyOp0
 70
     0
102
RTVSPropertyOp1
 70
     0
102
RTVSPropertyOp2
 70
     0
102
RTVSPropertyOp3
 70
     0
102
RTVSPropertyOp4
 70
     0
102
RTVSPropertyOp5
 70
     0
102
RTVSPropertyOp6
 70
     0
102
RTVSPropertyOp7
 70
     0
102
RTVSPropertyOp8
 70
     0
102
RTVSPropertyOp9
 70
     0
102
RTVSPropertyOp10
 70
     0
102
RTVSPropertyOp11
 70
     0
102
RTVSPropertyOp12
 70
     0
102
RTVSPropertyOp13
 70
     0
102
RTVSPropertyOp14
 70
     2
102
RTVSPropertyOp15
 70
     0
102
RTVSPropertyOp16
 70
     0
102
RTVSPropertyOp17
 70
     0
102
RTVSPropertyOp18
 70
     0
102
RTVSPropertyOp19
 70
     0
102
RTVSPropertyOp20
 70
     0
102
RTVSPropertyOp21
 70
     0
102
RTVSPropertyOp22
 70
     0
102
RTVSPropertyOp23
 70
     0
102
RTVSPropertyOp24
 70
     0
102
RTVSPropertyOp25
 70
     0
102
RTVSPropertyOp26
 70
     0
102
RTVSPropertyOp27
 70
     0
102
RTVSPropertyOp28
 70
     1
102
RTVSPropertyOp29
 70
     1
102
RTVSPropertyOp30
 70
     1
102
RTVSPropertyOp31
 70
     1
102
RTVSPropertyOp32
 70
     1
102
RTVSPropertyOp33
 70
     1
102
RTVSPropertyOp34
 70
     1
102
RTVSPropertyOp35
 70
     1
102
RTVSPropertyOp36
 70
     1
102
RTVSPropertyOp37
 70
     1
102
RTVSPropertyOp38
 70
     1
102
RTVSPropertyOp39
 70
     1
102
RTVSPropertyOp40
 70
     1
102
RTVSPropertyOp41
 70
     1
102
RTVSPropertyOp42
 70
     1
102
RTVSPropertyOp43
 70
     1
102
RTVSPropertyOp44
 70
     1
102
RTVSPropertyOp45
 70
     1
102
RTVSPropertyOp46
 70
     1
102
RTVSPropertyOp47
 70
     1
102
RTVSPropertyOp48
 70
     1
102
RTVSPropertyOp49
 70
     1
102
RTVSPropertyOp50
 70
     1
102
RTVSPropertyOp51
 70
     0
102
RTVSPropertyOp52
 70
     0
102
RTVSPropertyOp53
 70
     1
102
RTVSPropertyOp54
 70
     1
102
RTVSPropertyOp55
 70
     1
102
RTVSPropertyOp56
 70
     1
102
RTVSPropertyOp57
 70
     1
102
RTVSPost2010Prop28
280
     0
102
RTVSPost2010PropOp28
 70
     1
102
RTVSPost2010Prop29
280
     1
102
RTVSPost2010PropOp29
 70
     1
102
RTVSPost2010Prop30
280
     1
102
RTVSPost2010PropOp30
 70
     1
102
RTVSPost2010Prop31
280
     0
102
RTVSPost2010PropOp31
 70
     1
102
RTVSPost2010Prop32
280
     0
102
RTVSPost2010PropOp32
 70
     1
102
RTVSPost2010Prop33
280
     0
102
RTVSPost2010PropOp33
 70
     1
102
RTVSPost2010Prop34
280
     0
102
RTVSPost2010PropOp34
 70
     1
102
RTVSPost2010Prop35
280
     0
102
RTVSPost2010PropOp35
 70
     1
102
RTVSPost2010Prop36
280
     0
102
RTVSPost2010PropOp36
 70
     1
102
RTVSPost2010Prop37
 90
       50
102
RTVSPost2010PropOp37
 70
     1
102
RTVSPost2010Prop38
140
0.0
102
RTVSPost2010PropOp38
 70
     1
102
RTVSPost2010Prop39
140
1.0
102
RTVSPost2010PropOp39
 70
     1
102
RTVSPost2010Prop40
 90
        0
102
RTVSPost2010PropOp40
 70
     1
102
RTVSPost2010Prop41ColorIndex
 90
       18
102
RTVSPost2010Prop41ColorRGB
 90
        0
102
RTVSPost2010PropOp41
 70
     1
102
RTVSPost2010Prop42
 90
       50
102
RTVSPost2010PropOp42
 70
     1
102
RTVSPost2010Prop43
 90
        3
102
RTVSPost2010PropOp43
 70
     1
102
RTVSPost2010Prop44ColorIndex
 90
        5
102
RTVSPost2010Prop44ColorRGB
 90
      255
102
RTVSPost2010PropOp44
 70
     1
102
RTVSPost2010Prop45
280
     0
102
RTVSPost2010PropOp45
 70
     1
102
RTVSPost2010Prop46
 90
       50
102
RTVSPost2010PropOp46
 70
     1
102
RTVSPost2010Prop47
 90
       50
102
RTVSPost2010PropOp47
 70
     1
102
RTVSPost2010Prop48
 90
       50
102
RTVSPost2010PropOp48
 70
     1
102
RTVSPost2010Prop49
280
     0
102
RTVSPost2010PropOp49
 70
     1
102
RTVSPost2010Prop50
 90
       50
102
RTVSPost2010PropOp50
 70
     1
102
RTVSPost2010Prop51ColorIndex
 90
      256
102
RTVSPost2010Prop51ColorRGB
 90
-16777216
102
RTVSPost2010PropOp51
 70
     0
102
RTVSPost2010Prop52
140
1.0
102
RTVSPost2010PropOp52
 70
     0
102
RTVSPost2010Prop53
 90
        0
102
RTVSPost2010PropOp53
 70
     1
102
RTVSPost2010Prop54
  1
strokes_ogs.tif
102
RTVSPost2010PropOp54
 70
     1
102
RTVSPost2010Prop55
280
     0
102
RTVSPost2010PropOp55
 70
     1
102
RTVSPost2010Prop56
140
1.0
102
RTVSPost2010PropOp56
 70
     1
102
RTVSPost2010Prop57
140
1.0
102
RTVSPost2010PropOp57
 70
     1
  0
XRECORD
  5
7CD8
102
{ACAD_REACTORS
330
7CD7
102
}
330
7CD7
100
AcDbXrecord
280
     1
102
RTVSPropertyOp0
 70
     1
102
RTVSPropertyOp1
 70
     1
102
RTVSPropertyOp2
 70
     1
102
RTVSPropertyOp3
 70
     1
102
RTVSPropertyOp4
 70
     1
102
RTVSPropertyOp5
 70
     1
102
RTVSPropertyOp6
 70
     1
102
RTVSPropertyOp7
 70
     1
102
RTVSPropertyOp8
 70
     1
102
RTVSPropertyOp9
 70
     1
102
RTVSPropertyOp10
 70
     1
102
RTVSPropertyOp11
 70
     1
102
RTVSPropertyOp12
 70
     1
102
RTVSPropertyOp13
 70
     1
102
RTVSPropertyOp14
 70
     1
102
RTVSPropertyOp15
 70
     1
102
RTVSPropertyOp16
 70
     1
102
RTVSPropertyOp17
 70
     1
102
RTVSPropertyOp18
 70
     1
102
RTVSPropertyOp19
 70
     1
102
RTVSPropertyOp20
 70
     1
102
RTVSPropertyOp21
 70
     1
102
RTVSPropertyOp22
 70
     1
102
RTVSPropertyOp23
 70
     1
102
RTVSPropertyOp24
 70
     1
102
RTVSPropertyOp25
 70
     1
102
RTVSPropertyOp26
 70
     1
102
RTVSPropertyOp27
 70
     1
102
RTVSPropertyOp28
 70
     1
102
RTVSPropertyOp29
 70
     1
102
RTVSPropertyOp30
 70
     1
102
RTVSPropertyOp31
 70
     1
102
RTVSPropertyOp32
 70
     1
102
RTVSPropertyOp33
 70
     1
102
RTVSPropertyOp34
 70
     1
102
RTVSPropertyOp35
 70
     1
102
RTVSPropertyOp36
 70
     1
102
RTVSPropertyOp37
 70
     1
102
RTVSPropertyOp38
 70
     1
102
RTVSPropertyOp39
 70
     1
102
RTVSPropertyOp40
 70
     1
102
RTVSPropertyOp41
 70
     1
102
RTVSPropertyOp42
 70
     1
102
RTVSPropertyOp43
 70
     1
102
RTVSPropertyOp44
 70
     1
102
RTVSPropertyOp45
 70
     1
102
RTVSPropertyOp46
 70
     1
102
RTVSPropertyOp47
 70
     1
102
RTVSPropertyOp48
 70
     1
102
RTVSPropertyOp49
 70
     1
102
RTVSPropertyOp50
 70
     1
102
RTVSPropertyOp51
 70
     0
102
RTVSPropertyOp52
 70
     0
102
RTVSPropertyOp53
 70
     1
102
RTVSPropertyOp54
 70
     1
102
RTVSPropertyOp55
 70
     1
102
RTVSPropertyOp56
 70
     1
102
RTVSPropertyOp57
 70
     1
102
RTVSPost2010Prop28
280
     0
102
RTVSPost2010PropOp28
 70
     1
102
RTVSPost2010Prop29
280
     1
102
RTVSPost2010PropOp29
 70
     1
102
RTVSPost2010Prop30
280
     1
102
RTVSPost2010PropOp30
 70
     1
102
RTVSPost2010Prop31
280
     0
102
RTVSPost2010PropOp31
 70
     1
102
RTVSPost2010Prop32
280
     0
102
RTVSPost2010PropOp32
 70
     1
102
RTVSPost2010Prop33
280
     0
102
RTVSPost2010PropOp33
 70
     1
102
RTVSPost2010Prop34
280
     0
102
RTVSPost2010PropOp34
 70
     1
102
RTVSPost2010Prop35
280
     0
102
RTVSPost2010PropOp35
 70
     1
102
RTVSPost2010Prop36
280
     0
102
RTVSPost2010PropOp36
 70
     1
102
RTVSPost2010Prop37
 90
       50
102
RTVSPost2010PropOp37
 70
     1
102
RTVSPost2010Prop38
140
0.0
102
RTVSPost2010PropOp38
 70
     1
102
RTVSPost2010Prop39
140
1.0
102
RTVSPost2010PropOp39
 70
     1
102
RTVSPost2010Prop40
 90
        0
102
RTVSPost2010PropOp40
 70
     1
102
RTVSPost2010Prop41ColorIndex
 90
       18
102
RTVSPost2010Prop41ColorRGB
 90
        0
102
RTVSPost2010PropOp41
 70
     1
102
RTVSPost2010Prop42
 90
       50
102
RTVSPost2010PropOp42
 70
     1
102
RTVSPost2010Prop43
 90
        3
102
RTVSPost2010PropOp43
 70
     1
102
RTVSPost2010Prop44ColorIndex
 90
        5
102
RTVSPost2010Prop44ColorRGB
 90
      255
102
RTVSPost2010PropOp44
 70
     1
102
RTVSPost2010Prop45
280
     0
102
RTVSPost2010PropOp45
 70
     1
102
RTVSPost2010Prop46
 90
       50
102
RTVSPost2010PropOp46
 70
     1
102
RTVSPost2010Prop47
 90
       50
102
RTVSPost2010PropOp47
 70
     1
102
RTVSPost2010Prop48
 90
       50
102
RTVSPost2010PropOp48
 70
     1
102
RTVSPost2010Prop49
280
     0
102
RTVSPost2010PropOp49
 70
     1
102
RTVSPost2010Prop50
 90
       50
102
RTVSPost2010PropOp50
 70
     1
102
RTVSPost2010Prop51ColorIndex
 90
      256
102
RTVSPost2010Prop51ColorRGB
 90
-16777216
102
RTVSPost2010PropOp51
 70
     0
102
RTVSPost2010Prop52
140
1.0
102
RTVSPost2010PropOp52
 70
     0
102
RTVSPost2010Prop53
 90
        0
102
RTVSPost2010PropOp53
 70
     1
102
RTVSPost2010Prop54
  1
strokes_ogs.tif
102
RTVSPost2010PropOp54
 70
     1
102
RTVSPost2010Prop55
280
     0
102
RTVSPost2010PropOp55
 70
     1
102
RTVSPost2010Prop56
140
1.0
102
RTVSPost2010PropOp56
 70
     1
102
RTVSPost2010Prop57
140
1.0
102
RTVSPost2010PropOp57
 70
     1
  0
XRECORD
  5
7CDA
102
{ACAD_REACTORS
330
7CD9
102
}
330
7CD9
100
AcDbXrecord
280
     1
102
RTVSPropertyOp0
 70
     0
102
RTVSPropertyOp1
 70
     0
102
RTVSPropertyOp2
 70
     0
102
RTVSPropertyOp3
 70
     0
102
RTVSPropertyOp4
 70
     0
102
RTVSPropertyOp5
 70
     0
102
RTVSPropertyOp6
 70
     0
102
RTVSPropertyOp7
 70
     0
102
RTVSPropertyOp8
 70
     0
102
RTVSPropertyOp9
 70
     0
102
RTVSPropertyOp10
 70
     0
102
RTVSPropertyOp11
 70
     0
102
RTVSPropertyOp12
 70
     0
102
RTVSPropertyOp13
 70
     0
102
RTVSPropertyOp14
 70
     2
102
RTVSPropertyOp15
 70
     0
102
RTVSPropertyOp16
 70
     0
102
RTVSPropertyOp17
 70
     0
102
RTVSPropertyOp18
 70
     0
102
RTVSPropertyOp19
 70
     0
102
RTVSPropertyOp20
 70
     0
102
RTVSPropertyOp21
 70
     0
102
RTVSPropertyOp22
 70
     0
102
RTVSPropertyOp23
 70
     0
102
RTVSPropertyOp24
 70
     0
102
RTVSPropertyOp25
 70
     0
102
RTVSPropertyOp26
 70
     0
102
RTVSPropertyOp27
 70
     0
102
RTVSPropertyOp28
 70
     1
102
RTVSPropertyOp29
 70
     1
102
RTVSPropertyOp30
 70
     1
102
RTVSPropertyOp31
 70
     1
102
RTVSPropertyOp32
 70
     1
102
RTVSPropertyOp33
 70
     1
102
RTVSPropertyOp34
 70
     1
102
RTVSPropertyOp35
 70
     1
102
RTVSPropertyOp36
 70
     1
102
RTVSPropertyOp37
 70
     1
102
RTVSPropertyOp38
 70
     1
102
RTVSPropertyOp39
 70
     1
102
RTVSPropertyOp40
 70
     1
102
RTVSPropertyOp41
 70
     1
102
RTVSPropertyOp42
 70
     1
102
RTVSPropertyOp43
 70
     1
102
RTVSPropertyOp44
 70
     1
102
RTVSPropertyOp45
 70
     1
102
RTVSPropertyOp46
 70
     1
102
RTVSPropertyOp47
 70
     1
102
RTVSPropertyOp48
 70
     1
102
RTVSPropertyOp49
 70
     1
102
RTVSPropertyOp50
 70
     1
102
RTVSPropertyOp51
 70
     0
102
RTVSPropertyOp52
 70
     0
102
RTVSPropertyOp53
 70
     1
102
RTVSPropertyOp54
 70
     1
102
RTVSPropertyOp55
 70
     1
102
RTVSPropertyOp56
 70
     1
102
RTVSPropertyOp57
 70
     1
102
RTVSPost2010Prop28
280
     0
102
RTVSPost2010PropOp28
 70
     1
102
RTVSPost2010Prop29
280
     1
102
RTVSPost2010PropOp29
 70
     1
102
RTVSPost2010Prop30
280
     1
102
RTVSPost2010PropOp30
 70
     1
102
RTVSPost2010Prop31
280
     0
102
RTVSPost2010PropOp31
 70
     1
102
RTVSPost2010Prop32
280
     0
102
RTVSPost2010PropOp32
 70
     1
102
RTVSPost2010Prop33
280
     0
102
RTVSPost2010PropOp33
 70
     1
102
RTVSPost2010Prop34
280
     0
102
RTVSPost2010PropOp34
 70
     1
102
RTVSPost2010Prop35
280
     0
102
RTVSPost2010PropOp35
 70
     1
102
RTVSPost2010Prop36
280
     0
102
RTVSPost2010PropOp36
 70
     1
102
RTVSPost2010Prop37
 90
       50
102
RTVSPost2010PropOp37
 70
     1
102
RTVSPost2010Prop38
140
0.0
102
RTVSPost2010PropOp38
 70
     1
102
RTVSPost2010Prop39
140
1.0
102
RTVSPost2010PropOp39
 70
     1
102
RTVSPost2010Prop40
 90
        0
102
RTVSPost2010PropOp40
 70
     1
102
RTVSPost2010Prop41ColorIndex
 90
       18
102
RTVSPost2010Prop41ColorRGB
 90
        0
102
RTVSPost2010PropOp41
 70
     1
102
RTVSPost2010Prop42
 90
       50
102
RTVSPost2010PropOp42
 70
     1
102
RTVSPost2010Prop43
 90
        3
102
RTVSPost2010PropOp43
 70
     1
102
RTVSPost2010Prop44ColorIndex
 90
        5
102
RTVSPost2010Prop44ColorRGB
 90
      255
102
RTVSPost2010PropOp44
 70
     1
102
RTVSPost2010Prop45
280
     0
102
RTVSPost2010PropOp45
 70
     1
102
RTVSPost2010Prop46
 90
       50
102
RTVSPost2010PropOp46
 70
     1
102
RTVSPost2010Prop47
 90
       50
102
RTVSPost2010PropOp47
 70
     1
102
RTVSPost2010Prop48
 90
       50
102
RTVSPost2010PropOp48
 70
     1
102
RTVSPost2010Prop49
280
     0
102
RTVSPost2010PropOp49
 70
     1
102
RTVSPost2010Prop50
 90
       50
102
RTVSPost2010PropOp50
 70
     1
102
RTVSPost2010Prop51ColorIndex
 90
      256
102
RTVSPost2010Prop51ColorRGB
 90
-16777216
102
RTVSPost2010PropOp51
 70
     0
102
RTVSPost2010Prop52
140
1.0
102
RTVSPost2010PropOp52
 70
     0
102
RTVSPost2010Prop53
 90
        0
102
RTVSPost2010PropOp53
 70
     1
102
RTVSPost2010Prop54
  1
strokes_ogs.tif
102
RTVSPost2010PropOp54
 70
     1
102
RTVSPost2010Prop55
280
     0
102
RTVSPost2010PropOp55
 70
     1
102
RTVSPost2010Prop56
140
1.0
102
RTVSPost2010PropOp56
 70
     1
102
RTVSPost2010Prop57
140
1.0
102
RTVSPost2010PropOp57
 70
     1
  0
XRECORD
  5
7CDC
102
{ACAD_REACTORS
330
7CDB
102
}
330
7CDB
100
AcDbXrecord
280
     1
102
RTVSPropertyOp0
 70
     1
102
RTVSPropertyOp1
 70
     1
102
RTVSPropertyOp2
 70
     1
102
RTVSPropertyOp3
 70
     1
102
RTVSPropertyOp4
 70
     1
102
RTVSPropertyOp5
 70
     1
102
RTVSPropertyOp6
 70
     1
102
RTVSPropertyOp7
 70
     1
102
RTVSPropertyOp8
 70
     1
102
RTVSPropertyOp9
 70
     1
102
RTVSPropertyOp10
 70
     1
102
RTVSPropertyOp11
 70
     1
102
RTVSPropertyOp12
 70
     1
102
RTVSPropertyOp13
 70
     1
102
RTVSPropertyOp14
 70
     1
102
RTVSPropertyOp15
 70
     1
102
RTVSPropertyOp16
 70
     1
102
RTVSPropertyOp17
 70
     1
102
RTVSPropertyOp18
 70
     1
102
RTVSPropertyOp19
 70
     1
102
RTVSPropertyOp20
 70
     1
102
RTVSPropertyOp21
 70
     1
102
RTVSPropertyOp22
 70
     1
102
RTVSPropertyOp23
 70
     1
102
RTVSPropertyOp24
 70
     1
102
RTVSPropertyOp25
 70
     1
102
RTVSPropertyOp26
 70
     1
102
RTVSPropertyOp27
 70
     1
102
RTVSPropertyOp28
 70
     1
102
RTVSPropertyOp29
 70
     1
102
RTVSPropertyOp30
 70
     1
102
RTVSPropertyOp31
 70
     1
102
RTVSPropertyOp32
 70
     1
102
RTVSPropertyOp33
 70
     1
102
RTVSPropertyOp34
 70
     1
102
RTVSPropertyOp35
 70
     1
102
RTVSPropertyOp36
 70
     1
102
RTVSPropertyOp37
 70
     1
102
RTVSPropertyOp38
 70
     1
102
RTVSPropertyOp39
 70
     1
102
RTVSPropertyOp40
 70
     1
102
RTVSPropertyOp41
 70
     1
102
RTVSPropertyOp42
 70
     1
102
RTVSPropertyOp43
 70
     1
102
RTVSPropertyOp44
 70
     1
102
RTVSPropertyOp45
 70
     1
102
RTVSPropertyOp46
 70
     1
102
RTVSPropertyOp47
 70
     1
102
RTVSPropertyOp48
 70
     1
102
RTVSPropertyOp49
 70
     1
102
RTVSPropertyOp50
 70
     1
102
RTVSPropertyOp51
 70
     0
102
RTVSPropertyOp52
 70
     0
102
RTVSPropertyOp53
 70
     1
102
RTVSPropertyOp54
 70
     1
102
RTVSPropertyOp55
 70
     1
102
RTVSPropertyOp56
 70
     1
102
RTVSPropertyOp57
 70
     1
102
RTVSPost2010Prop28
280
     0
102
RTVSPost2010PropOp28
 70
     1
102
RTVSPost2010Prop29
280
     1
102
RTVSPost2010PropOp29
 70
     1
102
RTVSPost2010Prop30
280
     1
102
RTVSPost2010PropOp30
 70
     1
102
RTVSPost2010Prop31
280
     0
102
RTVSPost2010PropOp31
 70
     1
102
RTVSPost2010Prop32
280
     0
102
RTVSPost2010PropOp32
 70
     1
102
RTVSPost2010Prop33
280
     0
102
RTVSPost2010PropOp33
 70
     1
102
RTVSPost2010Prop34
280
     0
102
RTVSPost2010PropOp34
 70
     1
102
RTVSPost2010Prop35
280
     0
102
RTVSPost2010PropOp35
 70
     1
102
RTVSPost2010Prop36
280
     0
102
RTVSPost2010PropOp36
 70
     1
102
RTVSPost2010Prop37
 90
       50
102
RTVSPost2010PropOp37
 70
     1
102
RTVSPost2010Prop38
140
0.0
102
RTVSPost2010PropOp38
 70
     1
102
RTVSPost2010Prop39
140
1.0
102
RTVSPost2010PropOp39
 70
     1
102
RTVSPost2010Prop40
 90
        0
102
RTVSPost2010PropOp40
 70
     1
102
RTVSPost2010Prop41ColorIndex
 90
       18
102
RTVSPost2010Prop41ColorRGB
 90
        0
102
RTVSPost2010PropOp41
 70
     1
102
RTVSPost2010Prop42
 90
       50
102
RTVSPost2010PropOp42
 70
     1
102
RTVSPost2010Prop43
 90
        3
102
RTVSPost2010PropOp43
 70
     1
102
RTVSPost2010Prop44ColorIndex
 90
        5
102
RTVSPost2010Prop44ColorRGB
 90
      255
102
RTVSPost2010PropOp44
 70
     1
102
RTVSPost2010Prop45
280
     0
102
RTVSPost2010PropOp45
 70
     1
102
RTVSPost2010Prop46
 90
       50
102
RTVSPost2010PropOp46
 70
     1
102
RTVSPost2010Prop47
 90
       50
102
RTVSPost2010PropOp47
 70
     1
102
RTVSPost2010Prop48
 90
       50
102
RTVSPost2010PropOp48
 70
     1
102
RTVSPost2010Prop49
280
     0
102
RTVSPost2010PropOp49
 70
     1
102
RTVSPost2010Prop50
 90
       50
102
RTVSPost2010PropOp50
 70
     1
102
RTVSPost2010Prop51ColorIndex
 90
      256
102
RTVSPost2010Prop51ColorRGB
 90
-16777216
102
RTVSPost2010PropOp51
 70
     0
102
RTVSPost2010Prop52
140
1.0
102
RTVSPost2010PropOp52
 70
     0
102
RTVSPost2010Prop53
 90
        0
102
RTVSPost2010PropOp53
 70
     1
102
RTVSPost2010Prop54
  1
strokes_ogs.tif
102
RTVSPost2010PropOp54
 70
     1
102
RTVSPost2010Prop55
280
     0
102
RTVSPost2010PropOp55
 70
     1
102
RTVSPost2010Prop56
140
1.0
102
RTVSPost2010PropOp56
 70
     1
102
RTVSPost2010Prop57
140
1.0
102
RTVSPost2010PropOp57
 70
     1
  0
XRECORD
  5
7CDE
102
{ACAD_REACTORS
330
7CDD
102
}
330
7CDD
100
AcDbXrecord
280
     1
102
RTVSPropertyOp0
 70
     1
102
RTVSPropertyOp1
 70
     1
102
RTVSPropertyOp2
 70
     1
102
RTVSPropertyOp3
 70
     1
102
RTVSPropertyOp4
 70
     1
102
RTVSPropertyOp5
 70
     1
102
RTVSPropertyOp6
 70
     1
102
RTVSPropertyOp7
 70
     1
102
RTVSPropertyOp8
 70
     1
102
RTVSPropertyOp9
 70
     1
102
RTVSPropertyOp10
 70
     1
102
RTVSPropertyOp11
 70
     1
102
RTVSPropertyOp12
 70
     1
102
RTVSPropertyOp13
 70
     1
102
RTVSPropertyOp14
 70
     1
102
RTVSPropertyOp15
 70
     1
102
RTVSPropertyOp16
 70
     1
102
RTVSPropertyOp17
 70
     1
102
RTVSPropertyOp18
 70
     1
102
RTVSPropertyOp19
 70
     1
102
RTVSPropertyOp20
 70
     1
102
RTVSPropertyOp21
 70
     1
102
RTVSPropertyOp22
 70
     1
102
RTVSPropertyOp23
 70
     1
102
RTVSPropertyOp24
 70
     1
102
RTVSPropertyOp25
 70
     1
102
RTVSPropertyOp26
 70
     1
102
RTVSPropertyOp27
 70
     1
102
RTVSPropertyOp28
 70
     1
102
RTVSPropertyOp29
 70
     1
102
RTVSPropertyOp30
 70
     1
102
RTVSPropertyOp31
 70
     1
102
RTVSPropertyOp32
 70
     1
102
RTVSPropertyOp33
 70
     1
102
RTVSPropertyOp34
 70
     1
102
RTVSPropertyOp35
 70
     1
102
RTVSPropertyOp36
 70
     1
102
RTVSPropertyOp37
 70
     1
102
RTVSPropertyOp38
 70
     1
102
RTVSPropertyOp39
 70
     1
102
RTVSPropertyOp40
 70
     1
102
RTVSPropertyOp41
 70
     1
102
RTVSPropertyOp42
 70
     1
102
RTVSPropertyOp43
 70
     1
102
RTVSPropertyOp44
 70
     1
102
RTVSPropertyOp45
 70
     1
102
RTVSPropertyOp46
 70
     1
102
RTVSPropertyOp47
 70
     1
102
RTVSPropertyOp48
 70
     1
102
RTVSPropertyOp49
 70
     1
102
RTVSPropertyOp50
 70
     1
102
RTVSPropertyOp51
 70
     0
102
RTVSPropertyOp52
 70
     0
102
RTVSPropertyOp53
 70
     1
102
RTVSPropertyOp54
 70
     1
102
RTVSPropertyOp55
 70
     1
102
RTVSPropertyOp56
 70
     1
102
RTVSPropertyOp57
 70
     1
102
RTVSPost2010Prop28
280
     0
102
RTVSPost2010PropOp28
 70
     1
102
RTVSPost2010Prop29
280
     1
102
RTVSPost2010PropOp29
 70
     1
102
RTVSPost2010Prop30
280
     1
102
RTVSPost2010PropOp30
 70
     1
102
RTVSPost2010Prop31
280
     0
102
RTVSPost2010PropOp31
 70
     1
102
RTVSPost2010Prop32
280
     0
102
RTVSPost2010PropOp32
 70
     1
102
RTVSPost2010Prop33
280
     0
102
RTVSPost2010PropOp33
 70
     1
102
RTVSPost2010Prop34
280
     0
102
RTVSPost2010PropOp34
 70
     1
102
RTVSPost2010Prop35
280
     0
102
RTVSPost2010PropOp35
 70
     1
102
RTVSPost2010Prop36
280
     0
102
RTVSPost2010PropOp36
 70
     1
102
RTVSPost2010Prop37
 90
       50
102
RTVSPost2010PropOp37
 70
     1
102
RTVSPost2010Prop38
140
0.0
102
RTVSPost2010PropOp38
 70
     1
102
RTVSPost2010Prop39
140
1.0
102
RTVSPost2010PropOp39
 70
     1
102
RTVSPost2010Prop40
 90
        0
102
RTVSPost2010PropOp40
 70
     1
102
RTVSPost2010Prop41ColorIndex
 90
       18
102
RTVSPost2010Prop41ColorRGB
 90
        0
102
RTVSPost2010PropOp41
 70
     1
102
RTVSPost2010Prop42
 90
       50
102
RTVSPost2010PropOp42
 70
     1
102
RTVSPost2010Prop43
 90
        3
102
RTVSPost2010PropOp43
 70
     1
102
RTVSPost2010Prop44ColorIndex
 90
        5
102
RTVSPost2010Prop44ColorRGB
 90
      255
102
RTVSPost2010PropOp44
 70
     1
102
RTVSPost2010Prop45
280
     0
102
RTVSPost2010PropOp45
 70
     1
102
RTVSPost2010Prop46
 90
       50
102
RTVSPost2010PropOp46
 70
     1
102
RTVSPost2010Prop47
 90
       50
102
RTVSPost2010PropOp47
 70
     1
102
RTVSPost2010Prop48
 90
       50
102
RTVSPost2010PropOp48
 70
     1
102
RTVSPost2010Prop49
280
     0
102
RTVSPost2010PropOp49
 70
     1
102
RTVSPost2010Prop50
 90
       50
102
RTVSPost2010PropOp50
 70
     1
102
RTVSPost2010Prop51ColorIndex
 90
      256
102
RTVSPost2010Prop51ColorRGB
 90
-16777216
102
RTVSPost2010PropOp51
 70
     0
102
RTVSPost2010Prop52
140
1.0
102
RTVSPost2010PropOp52
 70
     0
102
RTVSPost2010Prop53
 90
        2
102
RTVSPost2010PropOp53
 70
     1
102
RTVSPost2010Prop54
  1
strokes_ogs.tif
102
RTVSPost2010PropOp54
 70
     1
102
RTVSPost2010Prop55
280
     0
102
RTVSPost2010PropOp55
 70
     1
102
RTVSPost2010Prop56
140
1.0
102
RTVSPost2010PropOp56
 70
     1
102
RTVSPost2010Prop57
140
1.0
102
RTVSPost2010PropOp57
 70
     1
  0
XRECORD
  5
7CE0
102
{ACAD_REACTORS
330
7CDF
102
}
330
7CDF
100
AcDbXrecord
280
     1
102
RTVSPropertyOp0
 70
     1
102
RTVSPropertyOp1
 70
     1
102
RTVSPropertyOp2
 70
     1
102
RTVSPropertyOp3
 70
     1
102
RTVSPropertyOp4
 70
     1
102
RTVSPropertyOp5
 70
     1
102
RTVSPropertyOp6
 70
     1
102
RTVSPropertyOp7
 70
     1
102
RTVSPropertyOp8
 70
     1
102
RTVSPropertyOp9
 70
     1
102
RTVSPropertyOp10
 70
     1
102
RTVSPropertyOp11
 70
     1
102
RTVSPropertyOp12
 70
     1
102
RTVSPropertyOp13
 70
     1
102
RTVSPropertyOp14
 70
     1
102
RTVSPropertyOp15
 70
     1
102
RTVSPropertyOp16
 70
     1
102
RTVSPropertyOp17
 70
     1
102
RTVSPropertyOp18
 70
     1
102
RTVSPropertyOp19
 70
     1
102
RTVSPropertyOp20
 70
     1
102
RTVSPropertyOp21
 70
     1
102
RTVSPropertyOp22
 70
     1
102
RTVSPropertyOp23
 70
     1
102
RTVSPropertyOp24
 70
     1
102
RTVSPropertyOp25
 70
     1
102
RTVSPropertyOp26
 70
     1
102
RTVSPropertyOp27
 70
     1
102
RTVSPropertyOp28
 70
     1
102
RTVSPropertyOp29
 70
     1
102
RTVSPropertyOp30
 70
     1
102
RTVSPropertyOp31
 70
     1
102
RTVSPropertyOp32
 70
     1
102
RTVSPropertyOp33
 70
     1
102
RTVSPropertyOp34
 70
     1
102
RTVSPropertyOp35
 70
     1
102
RTVSPropertyOp36
 70
     1
102
RTVSPropertyOp37
 70
     1
102
RTVSPropertyOp38
 70
     1
102
RTVSPropertyOp39
 70
     1
102
RTVSPropertyOp40
 70
     1
102
RTVSPropertyOp41
 70
     1
102
RTVSPropertyOp42
 70
     1
102
RTVSPropertyOp43
 70
     1
102
RTVSPropertyOp44
 70
     1
102
RTVSPropertyOp45
 70
     1
102
RTVSPropertyOp46
 70
     1
102
RTVSPropertyOp47
 70
     1
102
RTVSPropertyOp48
 70
     1
102
RTVSPropertyOp49
 70
     1
102
RTVSPropertyOp50
 70
     1
102
RTVSPropertyOp51
 70
     0
102
RTVSPropertyOp52
 70
     0
102
RTVSPropertyOp53
 70
     1
102
RTVSPropertyOp54
 70
     1
102
RTVSPropertyOp55
 70
     1
102
RTVSPropertyOp56
 70
     1
102
RTVSPropertyOp57
 70
     1
102
RTVSPost2010Prop28
280
     0
102
RTVSPost2010PropOp28
 70
     1
102
RTVSPost2010Prop29
280
     1
102
RTVSPost2010PropOp29
 70
     1
102
RTVSPost2010Prop30
280
     1
102
RTVSPost2010PropOp30
 70
     1
102
RTVSPost2010Prop31
280
     0
102
RTVSPost2010PropOp31
 70
     1
102
RTVSPost2010Prop32
280
     0
102
RTVSPost2010PropOp32
 70
     1
102
RTVSPost2010Prop33
280
     0
102
RTVSPost2010PropOp33
 70
     1
102
RTVSPost2010Prop34
280
     0
102
RTVSPost2010PropOp34
 70
     1
102
RTVSPost2010Prop35
280
     0
102
RTVSPost2010PropOp35
 70
     1
102
RTVSPost2010Prop36
280
     0
102
RTVSPost2010PropOp36
 70
     1
102
RTVSPost2010Prop37
 90
       50
102
RTVSPost2010PropOp37
 70
     1
102
RTVSPost2010Prop38
140
0.0
102
RTVSPost2010PropOp38
 70
     1
102
RTVSPost2010Prop39
140
1.0
102
RTVSPost2010PropOp39
 70
     1
102
RTVSPost2010Prop40
 90
        0
102
RTVSPost2010PropOp40
 70
     1
102
RTVSPost2010Prop41ColorIndex
 90
       18
102
RTVSPost2010Prop41ColorRGB
 90
        0
102
RTVSPost2010PropOp41
 70
     1
102
RTVSPost2010Prop42
 90
       50
102
RTVSPost2010PropOp42
 70
     1
102
RTVSPost2010Prop43
 90
        3
102
RTVSPost2010PropOp43
 70
     1
102
RTVSPost2010Prop44ColorIndex
 90
        5
102
RTVSPost2010Prop44ColorRGB
 90
      255
102
RTVSPost2010PropOp44
 70
     1
102
RTVSPost2010Prop45
280
     0
102
RTVSPost2010PropOp45
 70
     1
102
RTVSPost2010Prop46
 90
       50
102
RTVSPost2010PropOp46
 70
     1
102
RTVSPost2010Prop47
 90
       50
102
RTVSPost2010PropOp47
 70
     1
102
RTVSPost2010Prop48
 90
       50
102
RTVSPost2010PropOp48
 70
     1
102
RTVSPost2010Prop49
280
     0
102
RTVSPost2010PropOp49
 70
     1
102
RTVSPost2010Prop50
 90
       50
102
RTVSPost2010PropOp50
 70
     1
102
RTVSPost2010Prop51ColorIndex
 90
      256
102
RTVSPost2010Prop51ColorRGB
 90
-16777216
102
RTVSPost2010PropOp51
 70
     0
102
RTVSPost2010Prop52
140
1.0
102
RTVSPost2010PropOp52
 70
     0
102
RTVSPost2010Prop53
 90
        2
102
RTVSPost2010PropOp53
 70
     1
102
RTVSPost2010Prop54
  1
strokes_ogs.tif
102
RTVSPost2010PropOp54
 70
     1
102
RTVSPost2010Prop55
280
     0
102
RTVSPost2010PropOp55
 70
     1
102
RTVSPost2010Prop56
140
1.0
102
RTVSPost2010PropOp56
 70
     1
102
RTVSPost2010Prop57
140
1.0
102
RTVSPost2010PropOp57
 70
     1
  0
XRECORD
  5
7CE2
102
{ACAD_REACTORS
330
7CE1
102
}
330
7CE1
100
AcDbXrecord
280
     1
102
RTVSPropertyOp0
 70
     1
102
RTVSPropertyOp1
 70
     1
102
RTVSPropertyOp2
 70
     1
102
RTVSPropertyOp3
 70
     1
102
RTVSPropertyOp4
 70
     1
102
RTVSPropertyOp5
 70
     1
102
RTVSPropertyOp6
 70
     1
102
RTVSPropertyOp7
 70
     1
102
RTVSPropertyOp8
 70
     1
102
RTVSPropertyOp9
 70
     1
102
RTVSPropertyOp10
 70
     1
102
RTVSPropertyOp11
 70
     1
102
RTVSPropertyOp12
 70
     1
102
RTVSPropertyOp13
 70
     1
102
RTVSPropertyOp14
 70
     1
102
RTVSPropertyOp15
 70
     1
102
RTVSPropertyOp16
 70
     1
102
RTVSPropertyOp17
 70
     1
102
RTVSPropertyOp18
 70
     1
102
RTVSPropertyOp19
 70
     1
102
RTVSPropertyOp20
 70
     1
102
RTVSPropertyOp21
 70
     1
102
RTVSPropertyOp22
 70
     1
102
RTVSPropertyOp23
 70
     1
102
RTVSPropertyOp24
 70
     1
102
RTVSPropertyOp25
 70
     1
102
RTVSPropertyOp26
 70
     1
102
RTVSPropertyOp27
 70
     1
102
RTVSPropertyOp28
 70
     1
102
RTVSPropertyOp29
 70
     1
102
RTVSPropertyOp30
 70
     1
102
RTVSPropertyOp31
 70
     1
102
RTVSPropertyOp32
 70
     1
102
RTVSPropertyOp33
 70
     1
102
RTVSPropertyOp34
 70
     1
102
RTVSPropertyOp35
 70
     1
102
RTVSPropertyOp36
 70
     1
102
RTVSPropertyOp37
 70
     1
102
RTVSPropertyOp38
 70
     1
102
RTVSPropertyOp39
 70
     1
102
RTVSPropertyOp40
 70
     1
102
RTVSPropertyOp41
 70
     1
102
RTVSPropertyOp42
 70
     1
102
RTVSPropertyOp43
 70
     1
102
RTVSPropertyOp44
 70
     1
102
RTVSPropertyOp45
 70
     1
102
RTVSPropertyOp46
 70
     1
102
RTVSPropertyOp47
 70
     1
102
RTVSPropertyOp48
 70
     1
102
RTVSPropertyOp49
 70
     1
102
RTVSPropertyOp50
 70
     1
102
RTVSPropertyOp51
 70
     0
102
RTVSPropertyOp52
 70
     0
102
RTVSPropertyOp53
 70
     1
102
RTVSPropertyOp54
 70
     1
102
RTVSPropertyOp55
 70
     1
102
RTVSPropertyOp56
 70
     1
102
RTVSPropertyOp57
 70
     1
102
RTVSPost2010Prop28
280
     0
102
RTVSPost2010PropOp28
 70
     1
102
RTVSPost2010Prop29
280
     1
102
RTVSPost2010PropOp29
 70
     1
102
RTVSPost2010Prop30
280
     1
102
RTVSPost2010PropOp30
 70
     1
102
RTVSPost2010Prop31
280
     0
102
RTVSPost2010PropOp31
 70
     1
102
RTVSPost2010Prop32
280
     0
102
RTVSPost2010PropOp32
 70
     1
102
RTVSPost2010Prop33
280
     0
102
RTVSPost2010PropOp33
 70
     1
102
RTVSPost2010Prop34
280
     0
102
RTVSPost2010PropOp34
 70
     1
102
RTVSPost2010Prop35
280
     0
102
RTVSPost2010PropOp35
 70
     1
102
RTVSPost2010Prop36
280
     0
102
RTVSPost2010PropOp36
 70
     1
102
RTVSPost2010Prop37
 90
       50
102
RTVSPost2010PropOp37
 70
     1
102
RTVSPost2010Prop38
140
0.0
102
RTVSPost2010PropOp38
 70
     1
102
RTVSPost2010Prop39
140
1.0
102
RTVSPost2010PropOp39
 70
     1
102
RTVSPost2010Prop40
 90
        0
102
RTVSPost2010PropOp40
 70
     1
102
RTVSPost2010Prop41ColorIndex
 90
       18
102
RTVSPost2010Prop41ColorRGB
 90
        0
102
RTVSPost2010PropOp41
 70
     1
102
RTVSPost2010Prop42
 90
       50
102
RTVSPost2010PropOp42
 70
     1
102
RTVSPost2010Prop43
 90
        3
102
RTVSPost2010PropOp43
 70
     1
102
RTVSPost2010Prop44ColorIndex
 90
        5
102
RTVSPost2010Prop44ColorRGB
 90
      255
102
RTVSPost2010PropOp44
 70
     1
102
RTVSPost2010Prop45
280
     0
102
RTVSPost2010PropOp45
 70
     1
102
RTVSPost2010Prop46
 90
       50
102
RTVSPost2010PropOp46
 70
     1
102
RTVSPost2010Prop47
 90
       50
102
RTVSPost2010PropOp47
 70
     1
102
RTVSPost2010Prop48
 90
       50
102
RTVSPost2010PropOp48
 70
     1
102
RTVSPost2010Prop49
280
     0
102
RTVSPost2010PropOp49
 70
     1
102
RTVSPost2010Prop50
 90
       50
102
RTVSPost2010PropOp50
 70
     1
102
RTVSPost2010Prop51ColorIndex
 90
      256
102
RTVSPost2010Prop51ColorRGB
 90
-16777216
102
RTVSPost2010PropOp51
 70
     0
102
RTVSPost2010Prop52
140
1.0
102
RTVSPost2010PropOp52
 70
     0
102
RTVSPost2010Prop53
 90
        0
102
RTVSPost2010PropOp53
 70
     1
102
RTVSPost2010Prop54
  1
strokes_ogs.tif
102
RTVSPost2010PropOp54
 70
     1
102
RTVSPost2010Prop55
280
     0
102
RTVSPost2010PropOp55
 70
     1
102
RTVSPost2010Prop56
140
1.0
102
RTVSPost2010PropOp56
 70
     1
102
RTVSPost2010Prop57
140
1.0
102
RTVSPost2010PropOp57
 70
     1
  0
XRECORD
  5
7CE4
102
{ACAD_REACTORS
330
7CE3
102
}
330
7CE3
100
AcDbXrecord
280
     1
102
RTVSPropertyOp0
 70
     1
102
RTVSPropertyOp1
 70
     1
102
RTVSPropertyOp2
 70
     1
102
RTVSPropertyOp3
 70
     1
102
RTVSPropertyOp4
 70
     1
102
RTVSPropertyOp5
 70
     1
102
RTVSPropertyOp6
 70
     1
102
RTVSPropertyOp7
 70
     1
102
RTVSPropertyOp8
 70
     1
102
RTVSPropertyOp9
 70
     1
102
RTVSPropertyOp10
 70
     1
102
RTVSPropertyOp11
 70
     1
102
RTVSPropertyOp12
 70
     1
102
RTVSPropertyOp13
 70
     1
102
RTVSPropertyOp14
 70
     1
102
RTVSPropertyOp15
 70
     1
102
RTVSPropertyOp16
 70
     1
102
RTVSPropertyOp17
 70
     1
102
RTVSPropertyOp18
 70
     1
102
RTVSPropertyOp19
 70
     1
102
RTVSPropertyOp20
 70
     1
102
RTVSPropertyOp21
 70
     1
102
RTVSPropertyOp22
 70
     1
102
RTVSPropertyOp23
 70
     1
102
RTVSPropertyOp24
 70
     1
102
RTVSPropertyOp25
 70
     1
102
RTVSPropertyOp26
 70
     1
102
RTVSPropertyOp27
 70
     1
102
RTVSPropertyOp28
 70
     1
102
RTVSPropertyOp29
 70
     1
102
RTVSPropertyOp30
 70
     1
102
RTVSPropertyOp31
 70
     1
102
RTVSPropertyOp32
 70
     1
102
RTVSPropertyOp33
 70
     1
102
RTVSPropertyOp34
 70
     1
102
RTVSPropertyOp35
 70
     1
102
RTVSPropertyOp36
 70
     1
102
RTVSPropertyOp37
 70
     1
102
RTVSPropertyOp38
 70
     1
102
RTVSPropertyOp39
 70
     1
102
RTVSPropertyOp40
 70
     1
102
RTVSPropertyOp41
 70
     1
102
RTVSPropertyOp42
 70
     1
102
RTVSPropertyOp43
 70
     1
102
RTVSPropertyOp44
 70
     1
102
RTVSPropertyOp45
 70
     1
102
RTVSPropertyOp46
 70
     1
102
RTVSPropertyOp47
 70
     1
102
RTVSPropertyOp48
 70
     1
102
RTVSPropertyOp49
 70
     1
102
RTVSPropertyOp50
 70
     1
102
RTVSPropertyOp51
 70
     0
102
RTVSPropertyOp52
 70
     0
102
RTVSPropertyOp53
 70
     1
102
RTVSPropertyOp54
 70
     1
102
RTVSPropertyOp55
 70
     1
102
RTVSPropertyOp56
 70
     1
102
RTVSPropertyOp57
 70
     1
102
RTVSPost2010Prop28
280
     0
102
RTVSPost2010PropOp28
 70
     1
102
RTVSPost2010Prop29
280
     1
102
RTVSPost2010PropOp29
 70
     1
102
RTVSPost2010Prop30
280
     1
102
RTVSPost2010PropOp30
 70
     1
102
RTVSPost2010Prop31
280
     0
102
RTVSPost2010PropOp31
 70
     1
102
RTVSPost2010Prop32
280
     0
102
RTVSPost2010PropOp32
 70
     1
102
RTVSPost2010Prop33
280
     0
102
RTVSPost2010PropOp33
 70
     1
102
RTVSPost2010Prop34
280
     0
102
RTVSPost2010PropOp34
 70
     1
102
RTVSPost2010Prop35
280
     0
102
RTVSPost2010PropOp35
 70
     1
102
RTVSPost2010Prop36
280
     0
102
RTVSPost2010PropOp36
 70
     1
102
RTVSPost2010Prop37
 90
       50
102
RTVSPost2010PropOp37
 70
     1
102
RTVSPost2010Prop38
140
0.0
102
RTVSPost2010PropOp38
 70
     1
102
RTVSPost2010Prop39
140
1.0
102
RTVSPost2010PropOp39
 70
     1
102
RTVSPost2010Prop40
 90
        0
102
RTVSPost2010PropOp40
 70
     1
102
RTVSPost2010Prop41ColorIndex
 90
       18
102
RTVSPost2010Prop41ColorRGB
 90
        0
102
RTVSPost2010PropOp41
 70
     1
102
RTVSPost2010Prop42
 90
       50
102
RTVSPost2010PropOp42
 70
     1
102
RTVSPost2010Prop43
 90
        3
102
RTVSPost2010PropOp43
 70
     1
102
RTVSPost2010Prop44ColorIndex
 90
        5
102
RTVSPost2010Prop44ColorRGB
 90
      255
102
RTVSPost2010PropOp44
 70
     1
102
RTVSPost2010Prop45
280
     0
102
RTVSPost2010PropOp45
 70
     1
102
RTVSPost2010Prop46
 90
       50
102
RTVSPost2010PropOp46
 70
     1
102
RTVSPost2010Prop47
 90
       50
102
RTVSPost2010PropOp47
 70
     1
102
RTVSPost2010Prop48
 90
       50
102
RTVSPost2010PropOp48
 70
     1
102
RTVSPost2010Prop49
280
     0
102
RTVSPost2010PropOp49
 70
     1
102
RTVSPost2010Prop50
 90
       50
102
RTVSPost2010PropOp50
 70
     1
102
RTVSPost2010Prop51ColorIndex
 90
      256
102
RTVSPost2010Prop51ColorRGB
 90
-16777216
102
RTVSPost2010PropOp51
 70
     0
102
RTVSPost2010Prop52
140
1.0
102
RTVSPost2010PropOp52
 70
     0
102
RTVSPost2010Prop53
 90
        0
102
RTVSPost2010PropOp53
 70
     1
102
RTVSPost2010Prop54
  1
strokes_ogs.tif
102
RTVSPost2010PropOp54
 70
     1
102
RTVSPost2010Prop55
280
     0
102
RTVSPost2010PropOp55
 70
     1
102
RTVSPost2010Prop56
140
1.0
102
RTVSPost2010PropOp56
 70
     1
102
RTVSPost2010Prop57
140
1.0
102
RTVSPost2010PropOp57
 70
     1
  0
XRECORD
  5
7CE6
102
{ACAD_REACTORS
330
7CE5
102
}
330
7CE5
100
AcDbXrecord
280
     1
102
RTVSPropertyOp0
 70
     1
102
RTVSPropertyOp1
 70
     1
102
RTVSPropertyOp2
 70
     1
102
RTVSPropertyOp3
 70
     1
102
RTVSPropertyOp4
 70
     1
102
RTVSPropertyOp5
 70
     1
102
RTVSPropertyOp6
 70
     1
102
RTVSPropertyOp7
 70
     1
102
RTVSPropertyOp8
 70
     1
102
RTVSPropertyOp9
 70
     1
102
RTVSPropertyOp10
 70
     1
102
RTVSPropertyOp11
 70
     1
102
RTVSPropertyOp12
 70
     1
102
RTVSPropertyOp13
 70
     1
102
RTVSPropertyOp14
 70
     1
102
RTVSPropertyOp15
 70
     1
102
RTVSPropertyOp16
 70
     1
102
RTVSPropertyOp17
 70
     1
102
RTVSPropertyOp18
 70
     1
102
RTVSPropertyOp19
 70
     1
102
RTVSPropertyOp20
 70
     1
102
RTVSPropertyOp21
 70
     1
102
RTVSPropertyOp22
 70
     1
102
RTVSPropertyOp23
 70
     1
102
RTVSPropertyOp24
 70
     1
102
RTVSPropertyOp25
 70
     1
102
RTVSPropertyOp26
 70
     1
102
RTVSPropertyOp27
 70
     1
102
RTVSPropertyOp28
 70
     1
102
RTVSPropertyOp29
 70
     1
102
RTVSPropertyOp30
 70
     1
102
RTVSPropertyOp31
 70
     1
102
RTVSPropertyOp32
 70
     1
102
RTVSPropertyOp33
 70
     1
102
RTVSPropertyOp34
 70
     1
102
RTVSPropertyOp35
 70
     1
102
RTVSPropertyOp36
 70
     1
102
RTVSPropertyOp37
 70
     1
102
RTVSPropertyOp38
 70
     1
102
RTVSPropertyOp39
 70
     1
102
RTVSPropertyOp40
 70
     1
102
RTVSPropertyOp41
 70
     1
102
RTVSPropertyOp42
 70
     1
102
RTVSPropertyOp43
 70
     1
102
RTVSPropertyOp44
 70
     1
102
RTVSPropertyOp45
 70
     1
102
RTVSPropertyOp46
 70
     1
102
RTVSPropertyOp47
 70
     1
102
RTVSPropertyOp48
 70
     1
102
RTVSPropertyOp49
 70
     1
102
RTVSPropertyOp50
 70
     1
102
RTVSPropertyOp51
 70
     0
102
RTVSPropertyOp52
 70
     0
102
RTVSPropertyOp53
 70
     1
102
RTVSPropertyOp54
 70
     1
102
RTVSPropertyOp55
 70
     1
102
RTVSPropertyOp56
 70
     1
102
RTVSPropertyOp57
 70
     1
102
RTVSPost2010Prop28
280
     0
102
RTVSPost2010PropOp28
 70
     1
102
RTVSPost2010Prop29
280
     1
102
RTVSPost2010PropOp29
 70
     1
102
RTVSPost2010Prop30
280
     1
102
RTVSPost2010PropOp30
 70
     1
102
RTVSPost2010Prop31
280
     0
102
RTVSPost2010PropOp31
 70
     1
102
RTVSPost2010Prop32
280
     0
102
RTVSPost2010PropOp32
 70
     1
102
RTVSPost2010Prop33
280
     0
102
RTVSPost2010PropOp33
 70
     1
102
RTVSPost2010Prop34
280
     0
102
RTVSPost2010PropOp34
 70
     1
102
RTVSPost2010Prop35
280
     0
102
RTVSPost2010PropOp35
 70
     1
102
RTVSPost2010Prop36
280
     0
102
RTVSPost2010PropOp36
 70
     1
102
RTVSPost2010Prop37
 90
       50
102
RTVSPost2010PropOp37
 70
     1
102
RTVSPost2010Prop38
140
0.0
102
RTVSPost2010PropOp38
 70
     1
102
RTVSPost2010Prop39
140
1.0
102
RTVSPost2010PropOp39
 70
     1
102
RTVSPost2010Prop40
 90
        0
102
RTVSPost2010PropOp40
 70
     1
102
RTVSPost2010Prop41ColorIndex
 90
       18
102
RTVSPost2010Prop41ColorRGB
 90
        0
102
RTVSPost2010PropOp41
 70
     1
102
RTVSPost2010Prop42
 90
       50
102
RTVSPost2010PropOp42
 70
     1
102
RTVSPost2010Prop43
 90
        3
102
RTVSPost2010PropOp43
 70
     1
102
RTVSPost2010Prop44ColorIndex
 90
        5
102
RTVSPost2010Prop44ColorRGB
 90
      255
102
RTVSPost2010PropOp44
 70
     1
102
RTVSPost2010Prop45
280
     0
102
RTVSPost2010PropOp45
 70
     1
102
RTVSPost2010Prop46
 90
       50
102
RTVSPost2010PropOp46
 70
     1
102
RTVSPost2010Prop47
 90
       50
102
RTVSPost2010PropOp47
 70
     1
102
RTVSPost2010Prop48
 90
       50
102
RTVSPost2010PropOp48
 70
     1
102
RTVSPost2010Prop49
280
     0
102
RTVSPost2010PropOp49
 70
     1
102
RTVSPost2010Prop50
 90
       50
102
RTVSPost2010PropOp50
 70
     1
102
RTVSPost2010Prop51ColorIndex
 90
      256
102
RTVSPost2010Prop51ColorRGB
 90
-16777216
102
RTVSPost2010PropOp51
 70
     0
102
RTVSPost2010Prop52
140
1.0
102
RTVSPost2010PropOp52
 70
     0
102
RTVSPost2010Prop53
 90
        0
102
RTVSPost2010PropOp53
 70
     1
102
RTVSPost2010Prop54
  1
strokes_ogs.tif
102
RTVSPost2010PropOp54
 70
     1
102
RTVSPost2010Prop55
280
     0
102
RTVSPost2010PropOp55
 70
     1
102
RTVSPost2010Prop56
140
1.0
102
RTVSPost2010PropOp56
 70
     1
102
RTVSPost2010Prop57
140
1.0
102
RTVSPost2010PropOp57
 70
     1
  0
XRECORD
  5
7CE8
102
{ACAD_REACTORS
330
7CE7
102
}
330
7CE7
100
AcDbXrecord
280
     1
102
RTVSPropertyOp0
 70
     1
102
RTVSPropertyOp1
 70
     1
102
RTVSPropertyOp2
 70
     1
102
RTVSPropertyOp3
 70
     1
102
RTVSPropertyOp4
 70
     1
102
RTVSPropertyOp5
 70
     1
102
RTVSPropertyOp6
 70
     1
102
RTVSPropertyOp7
 70
     1
102
RTVSPropertyOp8
 70
     1
102
RTVSPropertyOp9
 70
     1
102
RTVSPropertyOp10
 70
     1
102
RTVSPropertyOp11
 70
     1
102
RTVSPropertyOp12
 70
     1
102
RTVSPropertyOp13
 70
     1
102
RTVSPropertyOp14
 70
     1
102
RTVSPropertyOp15
 70
     1
102
RTVSPropertyOp16
 70
     1
102
RTVSPropertyOp17
 70
     1
102
RTVSPropertyOp18
 70
     1
102
RTVSPropertyOp19
 70
     1
102
RTVSPropertyOp20
 70
     1
102
RTVSPropertyOp21
 70
     1
102
RTVSPropertyOp22
 70
     1
102
RTVSPropertyOp23
 70
     1
102
RTVSPropertyOp24
 70
     1
102
RTVSPropertyOp25
 70
     1
102
RTVSPropertyOp26
 70
     1
102
RTVSPropertyOp27
 70
     1
102
RTVSPropertyOp28
 70
     1
102
RTVSPropertyOp29
 70
     1
102
RTVSPropertyOp30
 70
     1
102
RTVSPropertyOp31
 70
     1
102
RTVSPropertyOp32
 70
     1
102
RTVSPropertyOp33
 70
     1
102
RTVSPropertyOp34
 70
     1
102
RTVSPropertyOp35
 70
     1
102
RTVSPropertyOp36
 70
     1
102
RTVSPropertyOp37
 70
     1
102
RTVSPropertyOp38
 70
     1
102
RTVSPropertyOp39
 70
     1
102
RTVSPropertyOp40
 70
     1
102
RTVSPropertyOp41
 70
     1
102
RTVSPropertyOp42
 70
     1
102
RTVSPropertyOp43
 70
     1
102
RTVSPropertyOp44
 70
     1
102
RTVSPropertyOp45
 70
     1
102
RTVSPropertyOp46
 70
     1
102
RTVSPropertyOp47
 70
     1
102
RTVSPropertyOp48
 70
     1
102
RTVSPropertyOp49
 70
     1
102
RTVSPropertyOp50
 70
     1
102
RTVSPropertyOp51
 70
     0
102
RTVSPropertyOp52
 70
     0
102
RTVSPropertyOp53
 70
     1
102
RTVSPropertyOp54
 70
     1
102
RTVSPropertyOp55
 70
     1
102
RTVSPropertyOp56
 70
     1
102
RTVSPropertyOp57
 70
     1
102
RTVSPost2010Prop28
280
     0
102
RTVSPost2010PropOp28
 70
     1
102
RTVSPost2010Prop29
280
     1
102
RTVSPost2010PropOp29
 70
     1
102
RTVSPost2010Prop30
280
     1
102
RTVSPost2010PropOp30
 70
     1
102
RTVSPost2010Prop31
280
     0
102
RTVSPost2010PropOp31
 70
     1
102
RTVSPost2010Prop32
280
     0
102
RTVSPost2010PropOp32
 70
     1
102
RTVSPost2010Prop33
280
     0
102
RTVSPost2010PropOp33
 70
     1
102
RTVSPost2010Prop34
280
     0
102
RTVSPost2010PropOp34
 70
     1
102
RTVSPost2010Prop35
280
     0
102
RTVSPost2010PropOp35
 70
     1
102
RTVSPost2010Prop36
280
     0
102
RTVSPost2010PropOp36
 70
     1
102
RTVSPost2010Prop37
 90
       50
102
RTVSPost2010PropOp37
 70
     1
102
RTVSPost2010Prop38
140
0.0
102
RTVSPost2010PropOp38
 70
     1
102
RTVSPost2010Prop39
140
1.0
102
RTVSPost2010PropOp39
 70
     1
102
RTVSPost2010Prop40
 90
        0
102
RTVSPost2010PropOp40
 70
     1
102
RTVSPost2010Prop41ColorIndex
 90
       18
102
RTVSPost2010Prop41ColorRGB
 90
        0
102
RTVSPost2010PropOp41
 70
     1
102
RTVSPost2010Prop42
 90
       50
102
RTVSPost2010PropOp42
 70
     1
102
RTVSPost2010Prop43
 90
        3
102
RTVSPost2010PropOp43
 70
     1
102
RTVSPost2010Prop44ColorIndex
 90
        5
102
RTVSPost2010Prop44ColorRGB
 90
      255
102
RTVSPost2010PropOp44
 70
     1
102
RTVSPost2010Prop45
280
     0
102
RTVSPost2010PropOp45
 70
     1
102
RTVSPost2010Prop46
 90
       50
102
RTVSPost2010PropOp46
 70
     1
102
RTVSPost2010Prop47
 90
       50
102
RTVSPost2010PropOp47
 70
     1
102
RTVSPost2010Prop48
 90
       50
102
RTVSPost2010PropOp48
 70
     1
102
RTVSPost2010Prop49
280
     0
102
RTVSPost2010PropOp49
 70
     1
102
RTVSPost2010Prop50
 90
       50
102
RTVSPost2010PropOp50
 70
     1
102
RTVSPost2010Prop51ColorIndex
 90
      256
102
RTVSPost2010Prop51ColorRGB
 90
-16777216
102
RTVSPost2010PropOp51
 70
     0
102
RTVSPost2010Prop52
140
1.0
102
RTVSPost2010PropOp52
 70
     0
102
RTVSPost2010Prop53
 90
        0
102
RTVSPost2010PropOp53
 70
     1
102
RTVSPost2010Prop54
  1
strokes_ogs.tif
102
RTVSPost2010PropOp54
 70
     1
102
RTVSPost2010Prop55
280
     0
102
RTVSPost2010PropOp55
 70
     1
102
RTVSPost2010Prop56
140
1.0
102
RTVSPost2010PropOp56
 70
     1
102
RTVSPost2010Prop57
140
1.0
102
RTVSPost2010PropOp57
 70
     1
  0
XRECORD
  5
7CEA
102
{ACAD_REACTORS
330
7CE9
102
}
330
7CE9
100
AcDbXrecord
280
     1
102
RTVSPropertyOp0
 70
     1
102
RTVSPropertyOp1
 70
     1
102
RTVSPropertyOp2
 70
     1
102
RTVSPropertyOp3
 70
     1
102
RTVSPropertyOp4
 70
     1
102
RTVSPropertyOp5
 70
     1
102
RTVSPropertyOp6
 70
     1
102
RTVSPropertyOp7
 70
     1
102
RTVSPropertyOp8
 70
     1
102
RTVSPropertyOp9
 70
     1
102
RTVSPropertyOp10
 70
     1
102
RTVSPropertyOp11
 70
     1
102
RTVSPropertyOp12
 70
     1
102
RTVSPropertyOp13
 70
     1
102
RTVSPropertyOp14
 70
     1
102
RTVSPropertyOp15
 70
     1
102
RTVSPropertyOp16
 70
     1
102
RTVSPropertyOp17
 70
     1
102
RTVSPropertyOp18
 70
     1
102
RTVSPropertyOp19
 70
     1
102
RTVSPropertyOp20
 70
     1
102
RTVSPropertyOp21
 70
     1
102
RTVSPropertyOp22
 70
     1
102
RTVSPropertyOp23
 70
     1
102
RTVSPropertyOp24
 70
     1
102
RTVSPropertyOp25
 70
     1
102
RTVSPropertyOp26
 70
     1
102
RTVSPropertyOp27
 70
     1
102
RTVSPropertyOp28
 70
     1
102
RTVSPropertyOp29
 70
     1
102
RTVSPropertyOp30
 70
     1
102
RTVSPropertyOp31
 70
     1
102
RTVSPropertyOp32
 70
     1
102
RTVSPropertyOp33
 70
     1
102
RTVSPropertyOp34
 70
     1
102
RTVSPropertyOp35
 70
     1
102
RTVSPropertyOp36
 70
     1
102
RTVSPropertyOp37
 70
     1
102
RTVSPropertyOp38
 70
     1
102
RTVSPropertyOp39
 70
     1
102
RTVSPropertyOp40
 70
     1
102
RTVSPropertyOp41
 70
     1
102
RTVSPropertyOp42
 70
     1
102
RTVSPropertyOp43
 70
     1
102
RTVSPropertyOp44
 70
     1
102
RTVSPropertyOp45
 70
     1
102
RTVSPropertyOp46
 70
     1
102
RTVSPropertyOp47
 70
     1
102
RTVSPropertyOp48
 70
     1
102
RTVSPropertyOp49
 70
     1
102
RTVSPropertyOp50
 70
     1
102
RTVSPropertyOp51
 70
     0
102
RTVSPropertyOp52
 70
     0
102
RTVSPropertyOp53
 70
     1
102
RTVSPropertyOp54
 70
     1
102
RTVSPropertyOp55
 70
     1
102
RTVSPropertyOp56
 70
     1
102
RTVSPropertyOp57
 70
     1
102
RTVSPost2010Prop28
280
     0
102
RTVSPost2010PropOp28
 70
     1
102
RTVSPost2010Prop29
280
     1
102
RTVSPost2010PropOp29
 70
     1
102
RTVSPost2010Prop30
280
     1
102
RTVSPost2010PropOp30
 70
     1
102
RTVSPost2010Prop31
280
     0
102
RTVSPost2010PropOp31
 70
     1
102
RTVSPost2010Prop32
280
     0
102
RTVSPost2010PropOp32
 70
     1
102
RTVSPost2010Prop33
280
     0
102
RTVSPost2010PropOp33
 70
     1
102
RTVSPost2010Prop34
280
     0
102
RTVSPost2010PropOp34
 70
     1
102
RTVSPost2010Prop35
280
     0
102
RTVSPost2010PropOp35
 70
     1
102
RTVSPost2010Prop36
280
     0
102
RTVSPost2010PropOp36
 70
     1
102
RTVSPost2010Prop37
 90
       50
102
RTVSPost2010PropOp37
 70
     1
102
RTVSPost2010Prop38
140
0.0
102
RTVSPost2010PropOp38
 70
     1
102
RTVSPost2010Prop39
140
1.0
102
RTVSPost2010PropOp39
 70
     1
102
RTVSPost2010Prop40
 90
        0
102
RTVSPost2010PropOp40
 70
     1
102
RTVSPost2010Prop41ColorIndex
 90
       18
102
RTVSPost2010Prop41ColorRGB
 90
        0
102
RTVSPost2010PropOp41
 70
     1
102
RTVSPost2010Prop42
 90
       50
102
RTVSPost2010PropOp42
 70
     1
102
RTVSPost2010Prop43
 90
        3
102
RTVSPost2010PropOp43
 70
     1
102
RTVSPost2010Prop44ColorIndex
 90
        5
102
RTVSPost2010Prop44ColorRGB
 90
      255
102
RTVSPost2010PropOp44
 70
     1
102
RTVSPost2010Prop45
280
     0
102
RTVSPost2010PropOp45
 70
     1
102
RTVSPost2010Prop46
 90
       50
102
RTVSPost2010PropOp46
 70
     1
102
RTVSPost2010Prop47
 90
       50
102
RTVSPost2010PropOp47
 70
     1
102
RTVSPost2010Prop48
 90
       50
102
RTVSPost2010PropOp48
 70
     1
102
RTVSPost2010Prop49
280
     0
102
RTVSPost2010PropOp49
 70
     1
102
RTVSPost2010Prop50
 90
       50
102
RTVSPost2010PropOp50
 70
     1
102
RTVSPost2010Prop51ColorIndex
 90
      256
102
RTVSPost2010Prop51ColorRGB
 90
-16777216
102
RTVSPost2010PropOp51
 70
     0
102
RTVSPost2010Prop52
140
1.0
102
RTVSPost2010PropOp52
 70
     0
102
RTVSPost2010Prop53
 90
        0
102
RTVSPost2010PropOp53
 70
     1
102
RTVSPost2010Prop54
  1
strokes_ogs.tif
102
RTVSPost2010PropOp54
 70
     1
102
RTVSPost2010Prop55
280
     0
102
RTVSPost2010PropOp55
 70
     1
102
RTVSPost2010Prop56
140
1.0
102
RTVSPost2010PropOp56
 70
     1
102
RTVSPost2010Prop57
140
1.0
102
RTVSPost2010PropOp57
 70
     1
  0
ENDSEC
  0
EOF
