  0
SECTION
  2
HEADER
  9
$ACADVER
  1
AC1032
  9
$ACADMAINTVER
 90
        4
  9
$DWGCODEPAGE
  3
ANSI_936
  9
$LASTSAVEDBY
  1
localuser
  9
$REQUIREDVERSIONS
160
                 0
  9
$INSBASE
 10
0.0
 20
0.0
 30
0.0
  9
$EXTMIN
 10
0.0290982315468682
 20
0.871050193759572
 30
-0.0000000041892671
  9
$EXTMAX
 10
13638.24080631768
 20
7185.235524214238
 30
348.0
  9
$LIMMIN
 10
0.0
 20
0.0
  9
$LIMMAX
 10
12.0
 20
9.0
  9
$ORTHOMODE
 70
     0
  9
$REGENMODE
 70
     1
  9
$FILLMODE
 70
     1
  9
$QTEXTMODE
 70
     0
  9
$MIRRTEXT
 70
     0
  9
$LTSCALE
 40
1.0
  9
$ATTMODE
 70
     1
  9
$TEXTSIZE
 40
0.2
  9
$TRACEWID
 40
0.05
  9
$TEXTSTYLE
  7
Standard
  9
$CLAYER
  8
经纬网
  9
$CELTYPE
  6
ByLayer
  9
$CECOLOR
 62
   256
  9
$CELTSCALE
 40
1.0
  9
$DISPSILH
 70
     0
  9
$DIMSCALE
 40
1.0
  9
$DIMASZ
 40
0.18
  9
$DIMEXO
 40
0.0625
  9
$DIMDLI
 40
0.38
  9
$DIMRND
 40
0.0
  9
$DIMDLE
 40
0.0
  9
$DIMEXE
 40
0.18
  9
$DIMTP
 40
0.0
  9
$DIMTM
 40
0.0
  9
$DIMTXT
 40
0.18
  9
$DIMCEN
 40
0.09
  9
$DIMTSZ
 40
0.0
  9
$DIMTOL
 70
     0
  9
$DIMLIM
 70
     0
  9
$DIMTIH
 70
     1
  9
$DIMTOH
 70
     1
  9
$DIMSE1
 70
     0
  9
$DIMSE2
 70
     0
  9
$DIMTAD
 70
     0
  9
$DIMZIN
 70
     0
  9
$DIMBLK
  1

  9
$DIMASO
 70
     1
  9
$DIMSHO
 70
     1
  9
$DIMPOST
  1

  9
$DIMAPOST
  1

  9
$DIMALT
 70
     0
  9
$DIMALTD
 70
     2
  9
$DIMALTF
 40
25.4
  9
$DIMLFAC
 40
1.0
  9
$DIMTOFL
 70
     0
  9
$DIMTVP
 40
0.0
  9
$DIMTIX
 70
     0
  9
$DIMSOXD
 70
     0
  9
$DIMSAH
 70
     0
  9
$DIMBLK1
  1

  9
$DIMBLK2
  1

  9
$DIMSTYLE
  2
Standard
  9
$DIMCLRD
 70
     0
  9
$DIMCLRE
 70
     0
  9
$DIMCLRT
 70
     0
  9
$DIMTFAC
 40
1.0
  9
$DIMGAP
 40
0.09
  9
$DIMJUST
 70
     0
  9
$DIMSD1
 70
     0
  9
$DIMSD2
 70
     0
  9
$DIMTOLJ
 70
     1
  9
$DIMTZIN
 70
     0
  9
$DIMALTZ
 70
     0
  9
$DIMALTTZ
 70
     0
  9
$DIMUPT
 70
     0
  9
$DIMDEC
 70
     4
  9
$DIMTDEC
 70
     4
  9
$DIMALTU
 70
     2
  9
$DIMALTTD
 70
     2
  9
$DIMTXSTY
  7
Standard
  9
$DIMAUNIT
 70
     0
  9
$DIMADEC
 70
     0
  9
$DIMALTRND
 40
0.0
  9
$DIMAZIN
 70
     0
  9
$DIMDSEP
 70
    46
  9
$DIMATFIT
 70
     3
  9
$DIMFRAC
 70
     0
  9
$DIMLDRBLK
  1

  9
$DIMLUNIT
 70
     2
  9
$DIMLWD
 70
    -2
  9
$DIMLWE
 70
    -2
  9
$DIMTMOVE
 70
     0
  9
$DIMFXL
 40
1.0
  9
$DIMFXLON
 70
     0
  9
$DIMJOGANG
 40
0.7853981633974483
  9
$DIMTFILL
 70
     0
  9
$DIMTFILLCLR
 70
     0
  9
$DIMARCSYM
 70
     0
  9
$DIMLTYPE
  6

  9
$DIMLTEX1
  6

  9
$DIMLTEX2
  6

  9
$DIMTXTDIRECTION
 70
     0
  9
$LUNITS
 70
     2
  9
$LUPREC
 70
     4
  9
$SKETCHINC
 40
0.1
  9
$FILLETRAD
 40
0.0
  9
$AUNITS
 70
     0
  9
$AUPREC
 70
     0
  9
$MENU
  1
.
  9
$ELEVATION
 40
0.0
  9
$PELEVATION
 40
0.0
  9
$THICKNESS
 40
0.0
  9
$LIMCHECK
 70
     0
  9
$CHAMFERA
 40
0.0
  9
$CHAMFERB
 40
0.0
  9
$CHAMFERC
 40
0.0
  9
$CHAMFERD
 40
0.0
  9
$SKPOLY
 70
     0
  9
$TDCREATE
 40
2460581.446505660
  9
$TDUCREATE
 40
2460581.113172326
  9
$TDUPDATE
 40
2460628.471950220
  9
$TDUUPDATE
 40
2460628.138616887
  9
$TDINDWG
 40
0.037018090
  9
$TDUSRTIMER
 40
0.037017778
  9
$USRTIMER
 70
     1
  9
$ANGBASE
 50
0.0
  9
$ANGDIR
 70
     0
  9
$PDMODE
 70
     0
  9
$PDSIZE
 40
0.0
  9
$PLINEWID
 40
0.0
  9
$SPLFRAME
 70
     0
  9
$SPLINETYPE
 70
     6
  9
$SPLINESEGS
 70
     8
  9
$HANDSEED
  5
8229
  9
$SURFTAB1
 70
     6
  9
$SURFTAB2
 70
     6
  9
$SURFTYPE
 70
     6
  9
$SURFU
 70
     6
  9
$SURFV
 70
     6
  9
$UCSBASE
  2

  9
$UCSNAME
  2

  9
$UCSORG
 10
0.0
 20
0.0
 30
0.0
  9
$UCSXDIR
 10
1.0
 20
0.0
 30
0.0
  9
$UCSYDIR
 10
0.0
 20
1.0
 30
0.0
  9
$UCSORTHOREF
  2

  9
$UCSORTHOVIEW
 70
     0
  9
$UCSORGTOP
 10
0.0
 20
0.0
 30
0.0
  9
$UCSORGBOTTOM
 10
0.0
 20
0.0
 30
0.0
  9
$UCSORGLEFT
 10
0.0
 20
0.0
 30
0.0
  9
$UCSORGRIGHT
 10
0.0
 20
0.0
 30
0.0
  9
$UCSORGFRONT
 10
0.0
 20
0.0
 30
0.0
  9
$UCSORGBACK
 10
0.0
 20
0.0
 30
0.0
  9
$PUCSBASE
  2

  9
$PUCSNAME
  2

  9
$PUCSORG
 10
0.0
 20
0.0
 30
0.0
  9
$PUCSXDIR
 10
1.0
 20
0.0
 30
0.0
  9
$PUCSYDIR
 10
0.0
 20
1.0
 30
0.0
  9
$PUCSORTHOREF
  2

  9
$PUCSORTHOVIEW
 70
     0
  9
$PUCSORGTOP
 10
0.0
 20
0.0
 30
0.0
  9
$PUCSORGBOTTOM
 10
0.0
 20
0.0
 30
0.0
  9
$PUCSORGLEFT
 10
0.0
 20
0.0
 30
0.0
  9
$PUCSORGRIGHT
 10
0.0
 20
0.0
 30
0.0
  9
$PUCSORGFRONT
 10
0.0
 20
0.0
 30
0.0
  9
$PUCSORGBACK
 10
0.0
 20
0.0
 30
0.0
  9
$USERI1
 70
     0
  9
$USERI2
 70
     0
  9
$USERI3
 70
     0
  9
$USERI4
 70
     0
  9
$USERI5
 70
     0
  9
$USERR1
 40
0.0
  9
$USERR2
 40
0.0
  9
$USERR3
 40
0.0
  9
$USERR4
 40
0.0
  9
$USERR5
 40
0.0
  9
$WORLDVIEW
 70
     1
  9
$SHADEDGE
 70
     3
  9
$SHADEDIF
 70
    70
  9
$TILEMODE
 70
     1
  9
$MAXACTVP
 70
    64
  9
$PINSBASE
 10
0.0
 20
0.0
 30
0.0
  9
$PLIMCHECK
 70
     0
  9
$PEXTMIN
 10
0.0
 20
0.0
 30
0.0
  9
$PEXTMAX
 10
0.0
 20
0.0
 30
0.0
  9
$PLIMMIN
 10
0.0
 20
0.0
  9
$PLIMMAX
 10
12.0
 20
9.0
  9
$UNITMODE
 70
     0
  9
$VISRETAIN
 70
     1
  9
$PLINEGEN
 70
     0
  9
$PSLTSCALE
 70
     1
  9
$TREEDEPTH
 70
  3020
  9
$CMLSTYLE
  2
Standard
  9
$CMLJUST
 70
     0
  9
$CMLSCALE
 40
1.0
  9
$PROXYGRAPHICS
 70
     1
  9
$MEASUREMENT
 70
     0
  9
$CELWEIGHT
370
    -1
  9
$ENDCAPS
280
     0
  9
$JOINSTYLE
280
     0
  9
$LWDISPLAY
290
     0
  9
$INSUNITS
 70
     1
  9
$HYPERLINKBASE
  1

  9
$STYLESHEET
  1

  9
$XEDIT
290
     1
  9
$CEPSNTYPE
380
     0
  9
$PSTYLEMODE
290
     1
  9
$FINGERPRINTGUID
  2
{72459E45-CFD2-4313-9B2A-73B929D5DA88}
  9
$VERSIONGUID
  2
{B45B0B57-3087-4F08-AA85-B273F2F64AC8}
  9
$EXTNAMES
290
     1
  9
$PSVPSCALE
 40
0.0
  9
$OLESTARTUP
290
     0
  9
$SORTENTS
280
   127
  9
$INDEXCTL
280
     0
  9
$HIDETEXT
280
     1
  9
$XCLIPFRAME
280
     2
  9
$HALOGAP
280
     0
  9
$OBSCOLOR
 70
   257
  9
$OBSLTYPE
280
     0
  9
$INTERSECTIONDISPLAY
280
     0
  9
$INTERSECTIONCOLOR
 70
   257
  9
$DIMASSOC
280
     2
  9
$PROJECTNAME
  1

  9
$CAMERADISPLAY
290
     0
  9
$LENSLENGTH
 40
50.0
  9
$CAMERAHEIGHT
 40
0.0
  9
$STEPSPERSEC
 40
2.0
  9
$STEPSIZE
 40
6.0
  9
$3DDWFPREC
 40
2.0
  9
$PSOLWIDTH
 40
0.25
  9
$PSOLHEIGHT
 40
4.0
  9
$LOFTANG1
 40
1.570796326794896
  9
$LOFTANG2
 40
1.570796326794896
  9
$LOFTMAG1
 40
0.0
  9
$LOFTMAG2
 40
0.0
  9
$LOFTPARAM
 70
     7
  9
$LOFTNORMALS
280
     1
  9
$LATITUDE
 40
0.0
  9
$LONGITUDE
 40
0.0
  9
$NORTHDIRECTION
 40
0.0
  9
$TIMEZONE
 70
 -8000
  9
$LIGHTGLYPHDISPLAY
280
     1
  9
$TILEMODELIGHTSYNCH
280
     1
  9
$SOLIDHIST
280
     1
  9
$SHOWHIST
280
     1
  9
$DWFFRAME
280
     2
  9
$DGNFRAME
280
     0
  9
$REALWORLDSCALE
290
     1
  9
$INTERFERECOLOR
 62
     1
  9
$CSHADOW
280
     0
  9
$SHADOWPLANELOCATION
 40
0.0
  0
ENDSEC
  0
SECTION
  2
CLASSES
  0
CLASS
  1
ACDBDICTIONARYWDFLT
  2
AcDbDictionaryWithDefault
  3
ObjectDBX Classes
 90
        0
 91
        1
280
     0
281
     0
  0
CLASS
  1
ACDBPLACEHOLDER
  2
AcDbPlaceHolder
  3
ObjectDBX Classes
 90
        0
 91
        0
280
     0
281
     0
  0
CLASS
  1
LAYOUT
  2
AcDbLayout
  3
ObjectDBX Classes
 90
        0
 91
        0
280
     0
281
     0
  0
CLASS
  1
DICTIONARYVAR
  2
AcDbDictionaryVar
  3
ObjectDBX Classes
 90
        0
 91
        7
280
     0
281
     0
  0
CLASS
  1
TABLESTYLE
  2
AcDbTableStyle
  3
ObjectDBX Classes
 90
     4095
 91
        2
280
     0
281
     0
  0
CLASS
  1
WIPEOUTVARIABLES
  2
AcDbWipeoutVariables
  3
"WipeOut|Product Desc:     WipeOut Dbx Application|Company:          Autodesk, Inc.|WEB Address:      www.autodesk.com"
 90
        0
 91
        0
280
     0
281
     0
  0
CLASS
  1
SCALE
  2
AcDbScale
  3
ObjectDBX Classes
 90
     1153
 91
       33
280
     0
281
     0
  0
CLASS
  1
MLEADERSTYLE
  2
AcDbMLeaderStyle
  3
ACDB_MLEADERSTYLE_CLASS
 90
     4095
 91
        3
280
     0
281
     0
  0
CLASS
  1
CELLSTYLEMAP
  2
AcDbCellStyleMap
  3
ObjectDBX Classes
 90
     1152
 91
        0
280
     0
281
     0
  0
CLASS
  1
MATERIAL
  2
AcDbMaterial
  3
ObjectDBX Classes
 90
     1153
 91
        6
280
     0
281
     0
  0
CLASS
  1
VISUALSTYLE
  2
AcDbVisualStyle
  3
ObjectDBX Classes
 90
     4095
 91
       50
280
     0
281
     0
  0
CLASS
  1
ACDBSECTIONVIEWSTYLE
  2
AcDbSectionViewStyle
  3
ObjectDBX Classes
 90
     1025
 91
        1
280
     0
281
     0
  0
CLASS
  1
ACDBDETAILVIEWSTYLE
  2
AcDbDetailViewStyle
  3
ObjectDBX Classes
 90
     1025
 91
        1
280
     0
281
     0
  0
CLASS
  1
SORTENTSTABLE
  2
AcDbSortentsTable
  3
ObjectDBX Classes
 90
        0
 91
       13
280
     0
281
     0
  0
CLASS
  1
ACDBPLACEHOLDER
  2
AcDbPlaceHolder
  3
ObjectDBX Classes
 90
        0
 91
        0
280
     0
281
     0
  0
CLASS
  1
LAYOUT
  2
AcDbLayout
  3
ObjectDBX Classes
 90
        0
 91
        0
280
     0
281
     0
  0
ENDSEC
  0
SECTION
  2
TABLES
  0
TABLE
  2
VPORT
  5
8
330
0
100
AcDbSymbolTable
 70
     1
  0
VPORT
  5
185
330
8
100
AcDbSymbolTableRecord
100
AcDbViewportTableRecord
  2
*Active
 70
     0
 10
0.0
 20
0.0
 11
1.0
 21
1.0
 12
1264.422725772302
 22
180.7520206111479
 13
0.0
 23
0.0
 14
0.5
 24
0.5
 15
0.5
 25
0.5
 16
0.0
 26
0.0
 36
1.0
 17
0.0
 27
0.0
 37
0.0
 40
718.1781570319465
 41
1.645187601957585
 42
50.0
 43
0.0
 44
0.0
 50
0.0
 51
0.0
 71
    16
 72
  1000
 73
     1
 74
     3
 75
     0
 76
     0
 77
     0
 78
     0
281
     0
 65
     1
110
0.0
120
0.0
130
0.0
111
1.0
121
0.0
131
0.0
112
0.0
122
1.0
132
0.0
 79
     0
146
0.0
348
10F
 60
     3
 61
     5
292
     1
282
     1
141
0.0
142
0.0
 63
   256
1001
ACAD_NAV_VCDISPLAY
1070
     3
  0
ENDTAB
  0
TABLE
  2
LTYPE
  5
5
330
0
100
AcDbSymbolTable
 70
    11
  0
LTYPE
  5
14
330
5
100
AcDbSymbolTableRecord
100
AcDbLinetypeTableRecord
  2
ByBlock
 70
     0
  3

 72
    65
 73
     0
 40
0.0
  0
LTYPE
  5
15
330
5
100
AcDbSymbolTableRecord
100
AcDbLinetypeTableRecord
  2
ByLayer
 70
     0
  3

 72
    65
 73
     0
 40
0.0
  0
LTYPE
  5
16
330
5
100
AcDbSymbolTableRecord
100
AcDbLinetypeTableRecord
  2
Continuous
 70
     0
  3
Solid line
 72
    65
 73
     0
 40
0.0
  0
LTYPE
  5
19D
330
5
100
AcDbSymbolTableRecord
100
AcDbLinetypeTableRecord
  2
PHANTOM2
 70
     0
  3
Phantom (.5x) ___ _ _ ___ _ _ ___ _ _ ___ _ _
 72
    65
 73
     6
 40
1.25
 49
0.625
 74
     0
 49
-0.125
 74
     0
 49
0.125
 74
     0
 49
-0.125
 74
     0
 49
0.125
 74
     0
 49
-0.125
 74
     0
  0
LTYPE
  5
21C
330
5
100
AcDbSymbolTableRecord
100
AcDbLinetypeTableRecord
  2
DASH
 70
     0
  3
__ __ __ __ __ __ __ __ __ __ __ __ __ __ __ __
 72
    65
 73
     2
 40
0.35
 49
0.25
 74
     0
 49
-0.1
 74
     0
  0
LTYPE
  5
21B
330
5
100
AcDbSymbolTableRecord
100
AcDbLinetypeTableRecord
  2
CENTER
 70
     0
  3
Center ____ _ ____ _ ____ _ ____ _ ____ _ ____
 72
    65
 73
     4
 40
50.8
 49
31.75
 74
     0
 49
-6.349999999999997
 74
     0
 49
6.349999999999997
 74
     0
 49
-6.349999999999997
 74
     0
  0
LTYPE
  5
21F
330
5
100
AcDbSymbolTableRecord
100
AcDbLinetypeTableRecord
  2
井田边界
 70
     0
  3

 72
    65
 73
     3
 40
500.0
 49
400.0
 74
     0
 49
-50.0
 74
     2
 75
     0
340
11
 46
60.0
 50
0.0
 44
-20.0
 45
-30.0
  9
+
 49
-50.0
 74
     0
  0
LTYPE
  5
221
330
5
100
AcDbSymbolTableRecord
100
AcDbLinetypeTableRecord
  2
MZBJX
 70
     0
  3
-------O--------
 72
    65
 73
     2
 40
33.0
 49
30.0
 74
     4
 75
   140
340
222
 46
1.5
 50
0.0
 44
0.0
 45
0.0
 49
-3.0
 74
     0
  0
LTYPE
  5
223
330
5
100
AcDbSymbolTableRecord
100
AcDbLinetypeTableRecord
  2
0a26剥蚀边界
 70
     0
  3
----*-----
 72
    65
 73
     3
 40
45.0
 49
40.0
 74
     0
 49
-2.5
 74
     4
 75
   148
340
222
 46
1.0
 50
0.0
 44
0.0
 45
0.0
 49
-2.5
 74
     0
  0
LTYPE
  5
214
330
5
100
AcDbSymbolTableRecord
100
AcDbLinetypeTableRecord
  2
采区边界线
 70
     0
  3
采区边界线
 72
    65
 73
     5
 40
45.0
 49
20.0
 74
     0
 49
-1.0
 74
     0
 49
3.0
 74
     0
 49
-1.0
 74
     0
 49
20.0
 74
     0
  0
LTYPE
  5
1F8
330
5
100
AcDbSymbolTableRecord
100
AcDbLinetypeTableRecord
  2
0a1井田边界
 70
     0
  3

 72
    65
 73
     3
 40
49.0
 49
40.0
 74
     0
 49
-2.0
 74
     4
 75
   147
340
222
 46
5.0
 50
0.0
 44
0.0
 45
0.0
 49
-7.0
 74
     0
  0
LTYPE
  5
21D
330
5
100
AcDbSymbolTableRecord
100
AcDbLinetypeTableRecord
  2
井田边界线
 70
     0
  3
井田边界线
 72
    65
 73
     4
 40
49.0
 49
20.0
 74
     0
 49
-4.5
 74
     4
 75
     1
340
222
 46
1.0
 50
0.0
 44
0.0
 45
0.0
 49
-4.5
 74
     0
 49
20.0
 74
     0
  0
LTYPE
  5
810B
330
5
100
AcDbSymbolTableRecord
100
AcDbLinetypeTableRecord
  2
DASHEDX2
 70
     0
  3
____  ____  ____  ____  ____  ____  ____  ____ 
 72
    65
 73
     2
 40
1.5
 49
1.0
 74
     0
 49
-0.5
 74
     0
  0
ENDTAB
  0
TABLE
  2
LAYER
  5
2
102
{ACAD_XDICTIONARY
360
124
102
}
330
0
100
AcDbSymbolTable
 70
     8
  0
LAYER
  5
10
330
2
100
AcDbSymbolTableRecord
100
AcDbLayerTableRecord
  2
0
 70
     0
 62
     7
  6
Continuous
370
    -3
390
F
347
101
348
0
  0
LAYER
  5
205
330
2
100
AcDbSymbolTableRecord
100
AcDbLayerTableRecord
  2
图例及图签
 70
     0
 62
     7
  6
Continuous
370
    -3
390
F
347
101
348
0
1001
AcAecLayerStandard
1000

1000

  0
LAYER
  5
21A
330
2
100
AcDbSymbolTableRecord
100
AcDbLayerTableRecord
  2
1000经纬网
 70
     0
 62
     7
  6
Continuous
370
    -3
390
F
347
101
348
0
1001
AcAecLayerStandard
1000

1000

  0
LAYER
  5
1D7
102
{ACAD_XDICTIONARY
360
1D8
102
}
330
2
100
AcDbSymbolTableRecord
100
AcDbLayerTableRecord
  2
经纬网
 70
     0
 62
     7
  6
Continuous
370
    -3
390
F
347
101
348
0
  0
LAYER
  5
7F5A
330
2
100
AcDbSymbolTableRecord
100
AcDbLayerTableRecord
  2
坐标网格
 70
     0
 62
     8
  6
Continuous
370
    -3
390
F
347
101
348
0
1001
RAK
1000
{ACET-LAYISO
1070
     0
1070
   251
1000
Continuous
1071
       -3
1071
        1
1005
F
1000
ACET-LAYISO}
  0
LAYER
  5
8105
330
2
100
AcDbSymbolTableRecord
100
AcDbLayerTableRecord
  2
图框
 70
     0
 62
     7
  6
Continuous
370
    -3
390
F
347
101
348
0
1001
RAK
1000
{ACET-LAYISO
1070
     0
1070
     7
1000
Continuous
1071
       -3
1071
        1
1005
F
1000
ACET-LAYISO}
  0
LAYER
  5
810C
330
2
100
AcDbSymbolTableRecord
100
AcDbLayerTableRecord
  2
图签
 70
     0
 62
     7
  6
Continuous
370
    -3
390
F
347
101
348
0
1001
RAK
1000
{ACET-LAYISO
1070
     0
1070
     7
1000
Continuous
1071
       -3
1071
        1
1005
F
1000
ACET-LAYISO}
  0
LAYER
  5
81F8
102
{ACAD_XDICTIONARY
360
81F9
102
}
330
2
100
AcDbSymbolTableRecord
100
AcDbLayerTableRecord
  2
通风-22、52煤通风系统图图签（通风管理部）
 70
     0
 62
     7
  6
Continuous
370
    -3
390
F
347
101
348
0
1001
AcAecLayerStandard
1000

1000

  0
ENDTAB
  0
TABLE
  2
STYLE
  5
3
330
0
100
AcDbSymbolTable
 70
    11
  0
STYLE
  5
11
330
3
100
AcDbSymbolTableRecord
100
AcDbTextStyleTableRecord
  2
Standard
 70
     0
 40
0.0
 41
1.0
 50
0.0
 71
     0
 42
0.2
  3

  4

1001
ACAD
1000
SimSun
1071
    34306
  0
STYLE
  5
1B8
330
3
100
AcDbSymbolTableRecord
100
AcDbTextStyleTableRecord
  2
Annotative
 70
     0
 40
0.0
 41
1.0
 50
0.0
 71
     0
 42
0.2
  3

  4

1001
AcadAnnotative
1000
AnnotativeData
1002
{
1070
     1
1070
     1
1002
}
1001
ACAD
1000
SimSun
1071
    34306
  0
STYLE
  5
230
330
3
100
AcDbSymbolTableRecord
100
AcDbTextStyleTableRecord
  2
宋体
 70
     0
 40
0.0
 41
0.618
 50
0.0
 71
     0
 42
3.5
  3

  4

1001
ACAD
1000
SimSun
1071
    34306
  0
STYLE
  5
22E
330
3
100
AcDbSymbolTableRecord
100
AcDbTextStyleTableRecord
  2
HZ
 70
     0
 40
0.0
 41
1.0
 50
0.0
 71
     0
 42
3.799999999999998
  3

  4

1001
ACAD
1000
SimSun
1071
    34306
  0
STYLE
  5
222
330
3
100
AcDbSymbolTableRecord
100
AcDbTextStyleTableRecord
  2

 70
     1
 40
0.0
 41
1.0
 50
0.0
 71
     0
 42
2.5
  3
wur14.shx
  4

  0
STYLE
  5
22F
330
3
100
AcDbSymbolTableRecord
100
AcDbTextStyleTableRecord
  2
样式 3
 70
     0
 40
10.0
 41
1.0
 50
0.0
 71
     0
 42
10.0
  3

  4

1001
ACAD
1000
SimSun
1071
    34306
  0
STYLE
  5
233
330
3
100
AcDbSymbolTableRecord
100
AcDbTextStyleTableRecord
  2
楷体GB2312
 70
     0
 40
30.0
 41
1.0
 50
0.0
 71
     0
 42
3.799999999999997
  3
simkai.ttf
  4

1001
ACAD
1000
KaiTi
1071
    34353
  0
STYLE
  5
231
330
3
100
AcDbSymbolTableRecord
100
AcDbTextStyleTableRecord
  2
黑体
 70
     0
 40
7.0
 41
1.0
 50
0.0
 71
     0
 42
7.0
  3

  4

1001
ACAD
1000
SimSun
1071
    34306
  0
STYLE
  5
232
330
3
100
AcDbSymbolTableRecord
100
AcDbTextStyleTableRecord
  2
经纬网
 70
     0
 40
0.0
 41
1.0
 50
0.0
 71
     0
 42
3.5
  3

  4

1001
ACAD
1000
SimSun
1071
    34306
  0
STYLE
  5
8116
330
3
100
AcDbSymbolTableRecord
100
AcDbTextStyleTableRecord
  2
样式 15
 70
     0
 40
0.0
 41
0.7
 50
0.0
 71
     0
 42
25.0
  3

  4

1001
ACAD
1000
SimSun
1071
    34306
  0
STYLE
  5
8200
330
3
100
AcDbSymbolTableRecord
100
AcDbTextStyleTableRecord
  2
style1
 70
     0
 40
0.0
 41
1.0
 50
0.0
 71
     0
 42
9.0
  3

  4

1001
ACAD
1000
FangSong_GB2312
1071
    34353
  0
ENDTAB
  0
TABLE
  2
VIEW
  5
6
330
0
100
AcDbSymbolTable
 70
     0
  0
ENDTAB
  0
TABLE
  2
UCS
  5
7
330
0
100
AcDbSymbolTable
 70
     0
  0
ENDTAB
  0
TABLE
  2
APPID
  5
9
330
0
100
AcDbSymbolTable
 70
    18
  0
APPID
  5
12
330
9
100
AcDbSymbolTableRecord
100
AcDbRegAppTableRecord
  2
ACAD
 70
     0
  0
APPID
  5
14C
330
9
100
AcDbSymbolTableRecord
100
AcDbRegAppTableRecord
  2
ACAD_NAV_VCDISPLAY
 70
     0
  0
APPID
  5
154
330
9
100
AcDbSymbolTableRecord
100
AcDbRegAppTableRecord
  2
ACAD_PSEXT
 70
     0
  0
APPID
  5
1B9
330
9
100
AcDbSymbolTableRecord
100
AcDbRegAppTableRecord
  2
AcadAnnoPO
 70
     0
  0
APPID
  5
1BA
330
9
100
AcDbSymbolTableRecord
100
AcDbRegAppTableRecord
  2
AcadAnnotative
 70
     0
  0
APPID
  5
1BD
330
9
100
AcDbSymbolTableRecord
100
AcDbRegAppTableRecord
  2
ACAD_DSTYLE_DIMJAG
 70
     0
  0
APPID
  5
1BE
330
9
100
AcDbSymbolTableRecord
100
AcDbRegAppTableRecord
  2
ACAD_DSTYLE_DIMBREAK
 70
     0
  0
APPID
  5
1BF
330
9
100
AcDbSymbolTableRecord
100
AcDbRegAppTableRecord
  2
ACAD_DSTYLE_DIMTALN
 70
     0
  0
APPID
  5
227
330
9
100
AcDbSymbolTableRecord
100
AcDbRegAppTableRecord
  2
AcLayerTools
 70
     0
  0
APPID
  5
229
330
9
100
AcDbSymbolTableRecord
100
AcDbRegAppTableRecord
  2
ACET-TEXTMASK
 70
     0
  0
APPID
  5
226
330
9
100
AcDbSymbolTableRecord
100
AcDbRegAppTableRecord
  2
AcDbBlockRepETag
 70
     0
  0
APPID
  5
1D3
330
9
100
AcDbSymbolTableRecord
100
AcDbRegAppTableRecord
  2
AcAecLayerStandard
 70
     0
  0
APPID
  5
228
330
9
100
AcDbSymbolTableRecord
100
AcDbRegAppTableRecord
  2
AcDbDynamicBlockGUID
 70
     0
  0
APPID
  5
22D
330
9
100
AcDbSymbolTableRecord
100
AcDbRegAppTableRecord
  2
HATCHBACKGROUNDCOLOR
 70
     0
  0
APPID
  5
22C
330
9
100
AcDbSymbolTableRecord
100
AcDbRegAppTableRecord
  2
ZWMCAD_GENSCA_13_
 70
     0
  0
APPID
  5
22B
330
9
100
AcDbSymbolTableRecord
100
AcDbRegAppTableRecord
  2
ZWMCAD_GENSTANDARDFRAME_13_
 70
     0
  0
APPID
  5
7CB0
330
9
100
AcDbSymbolTableRecord
100
AcDbRegAppTableRecord
  2
ACAD_MLEADERVER
 70
     0
  0
APPID
  5
7F5E
330
9
100
AcDbSymbolTableRecord
100
AcDbRegAppTableRecord
  2
RAK
 70
     0
  0
ENDTAB
  0
TABLE
  2
DIMSTYLE
  5
A
330
0
100
AcDbSymbolTable
 70
     4
100
AcDbDimStyleTable
 71
     2
340
27
340
1C0
  0
DIMSTYLE
105
27
330
A
100
AcDbSymbolTableRecord
100
AcDbDimStyleTableRecord
  2
Standard
 70
     0
340
11
  0
DIMSTYLE
105
1C0
330
A
100
AcDbSymbolTableRecord
100
AcDbDimStyleTableRecord
  2
Annotative
 70
     0
340
11
1001
ACAD_DSTYLE_DIMBREAK
1070
   391
1040
0.125
1001
AcadAnnotative
1000
AnnotativeData
1002
{
1070
     1
1070
     1
1002
}
1001
ACAD_DSTYLE_DIMJAG
1070
   388
1040
1.5
1001
ACAD_DSTYLE_DIMTALN
1070
   392
1070
     0
  0
DIMSTYLE
105
7F5F
330
A
100
AcDbSymbolTableRecord
100
AcDbDimStyleTableRecord
  2
ISO-25
 70
     0
 41
2.5
 42
0.625
 43
3.75
 44
1.25
 73
     0
 74
     0
 77
     1
 78
     8
140
2.5
141
2.5
143
0.03937007874016
147
0.625
171
     3
172
     1
271
     2
272
     2
274
     3
278
    44
283
     0
284
     8
340
11
  0
DIMSTYLE
105
81FD
330
A
100
AcDbSymbolTableRecord
100
AcDbDimStyleTableRecord
  2
副本 STANDARD
 70
     0
 41
1.0
140
4.0
176
     6
177
     6
271
     0
178
     6
271
     0
272
     0
340
11
  0
ENDTAB
  0
TABLE
  2
BLOCK_RECORD
  5
1
330
0
100
AcDbSymbolTable
 70
    24
  0
BLOCK_RECORD
  5
1F
102
{ACAD_XDICTIONARY
360
80F8
102
}
330
1
100
AcDbSymbolTableRecord
100
AcDbBlockTableRecord
  2
*MODEL_SPACE
340
22
 70
     0
280
     1
281
     0
  0
BLOCK_RECORD
  5
192
330
1
100
AcDbSymbolTableRecord
100
AcDbBlockTableRecord
  2
*PAPER_SPACE
340
193
 70
     0
280
     1
281
     0
  0
BLOCK_RECORD
  5
197
330
1
100
AcDbSymbolTableRecord
100
AcDbBlockTableRecord
  2
*PAPER_SPACE0
340
198
 70
     0
280
     1
281
     0
  0
BLOCK_RECORD
  5
939
102
{ACAD_XDICTIONARY
360
93A
102
}
330
1
100
AcDbSymbolTableRecord
100
AcDbBlockTableRecord
  2
42煤调节风窗
340
0
102
{BLKREFS
331
38A8
331
38AE
331
38CD
331
38CF
331
38D1
331
3992
331
39EE
331
3A8B
331
3AA8
331
3DA3
331
3DA5
331
3DA7
331
3DF4
331
3E78
331
3FE7
331
3FE9
331
11C6
331
1323
331
14B2
331
14C1
331
15A7
331
16C6
331
1876
331
187A
331
1947
331
1A9D
331
1AC2
331
1AFA
331
1AFC
331
6109
331
6120
331
639F
331
63BC
331
69C8
331
69F5
331
6A67
331
6A69
331
937
331
952
331
D1B
331
D1D
331
7583
331
7589
331
75A8
331
75AA
331
75AC
331
765C
331
76B8
331
7755
331
7772
331
7A4A
331
7A4C
331
7A4E
331
7A9B
331
7B1F
331
7C8E
331
7C90
331
21F2
331
23C9
331
23E0
331
265F
331
267C
331
2CB2
331
2CDF
331
2D51
331
2D53
331
46D2
331
46D4
331
4A9D
331
4A9F
331
4F39
331
5096
331
5225
331
5234
331
531A
331
542F
331
55D4
331
55D8
331
56A5
331
57FB
331
5820
331
5858
331
585A
331
5F32
102
}
 70
     0
280
     1
281
     0
1001
AcDbDynamicBlockGUID
1000
{95BCDAEE-A67C-48C2-BCCA-465C99D4E6A9}
1001
AcDbBlockRepETag
1070
     1
1071
        4
  0
BLOCK_RECORD
  5
D25
102
{ACAD_XDICTIONARY
360
D26
102
}
330
1
100
AcDbSymbolTableRecord
100
AcDbBlockTableRecord
  2
A$C68FC7CD3
340
0
102
{BLKREFS
331
38AA
331
38AC
331
3BFB
331
3BFD
331
14B6
331
14B8
331
1536
331
1872
331
1874
331
18D6
331
18D8
331
1A8F
331
1A91
331
1A96
331
1A98
331
1AA0
331
1AA5
331
1AA7
331
1AAB
331
1AAD
331
1AB0
331
1AB2
331
1AB6
331
1AB8
331
1ABE
331
1AC0
331
1AC7
331
1AC9
331
650D
331
6673
331
6675
331
66AC
331
66AE
331
68C0
331
68C2
331
6ADB
331
6ADD
331
6B5C
331
6B5E
331
D23
331
7585
331
7587
331
78B7
331
78B9
331
27CD
331
293B
331
293D
331
297A
331
297C
331
2B8E
331
2B90
331
2DC5
331
2DC7
331
2E46
331
2E48
331
4AA5
331
5229
331
522B
331
52A9
331
55D0
331
55D2
331
5634
331
5636
331
57ED
331
57EF
331
57F4
331
57F6
331
57FE
331
5803
331
5805
331
5809
331
580B
331
580E
331
5810
331
5814
331
5816
331
581C
331
581E
331
5825
331
5827
102
}
 70
     0
280
     1
281
     0
1001
AcDbDynamicBlockGUID
1000
{D4265212-5AD8-4C0C-88EC-4E18315C7771}
1001
AcDbBlockRepETag
1070
     1
1071
        6
  0
BLOCK_RECORD
  5
F33
102
{ACAD_XDICTIONARY
360
F34
102
}
330
1
100
AcDbSymbolTableRecord
100
AcDbBlockTableRecord
  2
42煤回风方向1
340
0
102
{BLKREFS
331
38BD
331
39BC
331
39C0
331
3A2A
331
3A55
331
3A70
331
3A89
331
3A93
331
3A95
331
3DF6
331
3DF8
331
3E6A
331
12D7
331
1D55
331
1D8C
331
1E17
331
1E24
331
60F2
331
60F4
331
6107
331
610B
331
63B7
331
63F8
331
641F
331
645E
331
6493
331
6497
331
64D4
331
64DF
331
698E
331
69B0
331
69FD
331
6A0C
331
6A1B
331
6A5F
331
6C22
331
F31
331
7598
331
7686
331
768A
331
76F4
331
771F
331
773A
331
7753
331
775D
331
775F
331
7A9D
331
7A9F
331
7B11
331
2119
331
2126
331
21F0
331
21FB
331
21FE
331
220F
331
229E
331
23B2
331
23B4
331
23C7
331
23CB
331
2677
331
26B8
331
26DF
331
271E
331
2753
331
2757
331
2794
331
279F
331
2C78
331
2C9A
331
2CE7
331
2CF6
331
2D05
331
2D49
331
2F47
331
4CAC
331
504A
331
5AB3
331
5AE6
331
5B6B
331
5B78
331
5E6D
331
5E7A
331
5F30
331
5F3B
331
5F3E
331
5F4F
331
5FDE
102
}
 70
     0
280
     1
281
     0
1001
AcDbDynamicBlockGUID
1000
{D1CA7B01-0814-4D33-A0D7-0390D35B0E2C}
1001
AcDbBlockRepETag
1070
     1
1071
        4
  0
BLOCK_RECORD
  5
15AD
102
{ACAD_XDICTIONARY
360
15AE
102
}
330
1
100
AcDbSymbolTableRecord
100
AcDbBlockTableRecord
  2
A$C13D54782
340
0
102
{BLKREFS
331
38B0
331
38B2
331
3994
331
3996
331
15AB
331
15B7
331
643A
331
643C
331
6616
331
6618
331
6660
331
6662
331
758B
331
758D
331
765E
331
7660
331
26FA
331
26FC
331
28DE
331
28E0
331
2928
331
292A
331
531E
331
5320
102
}
 70
     0
280
     1
281
     0
1001
AcDbDynamicBlockGUID
1000
{4E5F42A7-80BE-476D-9B4A-97F6C5ADDB7C}
1001
AcDbBlockRepETag
1070
     1
1071
        5
  0
BLOCK_RECORD
  5
17D3
102
{ACAD_XDICTIONARY
360
17D4
102
}
330
1
100
AcDbSymbolTableRecord
100
AcDbBlockTableRecord
  2
$AUDIT_BAD_BLOCK_RECORD19
340
0
102
{BLKREFS
331
3AB9
331
3ABA
331
3AC0
331
3AC1
331
17D2
331
6C5C
331
6C5D
331
6C5E
331
6C5F
331
6C60
331
6C61
331
6C6E
331
6C6F
331
7783
331
7784
331
778A
331
778B
331
2F81
331
2F82
331
2F83
331
2F84
331
2F85
331
2F86
331
2F93
331
2F94
331
553B
102
}
 70
     0
280
     1
281
     0
1001
AcDbDynamicBlockGUID
1000
{66F11CA3-4322-4E41-A9C8-320E4C8FC679}
1001
AcDbBlockRepETag
1070
     1
1071
        8
  0
BLOCK_RECORD
  5
1D59
330
1
100
AcDbSymbolTableRecord
100
AcDbBlockTableRecord
  2
42上煤临时密闭
340
0
102
{BLKREFS
331
39CE
331
39D0
331
39D2
331
39D4
331
39D6
331
39D8
331
39DA
331
39DC
331
3DCC
331
3DCE
331
3DD0
331
3DD2
331
3DD4
331
3DD6
331
3DD8
331
3DDA
331
3E73
331
3E75
331
1D57
331
1D5D
331
1D60
331
1D62
331
1DC1
331
1DE8
331
611D
331
6122
331
6125
331
6127
331
6129
331
6130
331
613B
331
613F
331
6141
331
6143
331
6145
331
6148
331
614A
331
614C
331
614E
331
6150
331
6152
331
6157
331
6159
331
615B
331
615D
331
6160
331
6162
331
6164
331
6166
331
6168
331
616A
331
616D
331
6170
331
6172
331
6174
331
6176
331
6178
331
617A
331
617C
331
617E
331
6180
331
6182
331
6184
331
6186
331
6188
331
618A
331
618C
331
618F
331
6191
331
6193
331
6195
331
6198
331
619B
331
619D
331
619F
331
61A1
331
61A3
331
61A5
331
61A8
331
61AA
331
61AC
331
61AE
331
61B0
331
61B2
331
61B4
331
61B6
331
61B8
331
61BA
331
61BC
331
61BE
331
61C0
331
61C2
331
61C4
331
61C6
331
61C8
331
61CA
331
61CC
331
61CE
331
61D0
331
61D2
331
61D4
331
61D6
331
61D8
331
61DC
331
61DE
331
61E0
331
61E2
331
61E4
331
61E6
331
61E8
331
61EA
331
61EC
331
61EE
331
61F0
331
61F3
331
61F5
331
61F7
331
61F9
331
61FB
331
61FD
331
61FF
331
6201
331
6203
331
6205
331
6207
331
620A
331
620C
331
620E
331
6210
331
6212
331
6214
331
6216
331
6218
331
621A
331
621C
331
621E
331
6220
331
6222
331
6224
331
6226
331
6228
331
622A
331
622C
331
622E
331
6230
331
6232
331
6234
331
6236
331
6238
331
623A
331
623C
331
623E
331
6240
331
6242
331
6244
331
6246
331
6248
331
624A
331
624C
331
624E
331
6250
331
6252
331
6254
331
6256
331
6258
331
625A
331
625C
331
625E
331
6260
331
6262
331
6264
331
6266
331
6268
331
626A
331
626C
331
626E
331
6270
331
6272
331
6274
331
6276
331
6278
331
627A
331
627C
331
627E
331
6280
331
6282
331
6284
331
6286
331
6288
331
628A
331
628C
331
628E
331
6290
331
6292
331
6294
331
6296
331
6299
331
629B
331
629D
331
629F
331
62A1
331
62A3
331
62A5
331
62A7
331
62A9
331
62AB
331
62AD
331
62AF
331
62B1
331
62B3
331
62B5
331
62B7
331
62B9
331
62BB
331
62BD
331
62BF
331
62C1
331
62C4
331
62C6
331
62C8
331
62CA
331
62CC
331
62CE
331
62D0
331
62D2
331
62D4
331
62D6
331
62D8
331
62DB
331
62DD
331
62DF
331
62E1
331
62E3
331
62E5
331
62E7
331
62E9
331
62EB
331
62ED
331
62F0
331
62F3
331
62F6
331
62F8
331
62FB
331
62FD
331
62FF
331
6302
331
6304
331
6307
331
6309
331
630C
331
630E
331
6311
331
6314
331
6318
331
631C
331
631E
331
6320
331
6322
331
6324
331
6326
331
6329
331
632D
331
6331
331
6333
331
6335
331
6337
331
633B
331
633D
331
633F
331
6341
331
6343
331
6347
331
6349
331
634B
331
634D
331
6351
331
6355
331
6357
331
6359
331
635B
331
635D
331
635F
331
6361
331
6363
331
6366
331
637A
331
637F
331
6386
331
638C
331
6394
331
6398
331
639C
331
6416
331
64D9
331
6501
331
6516
331
651F
331
6526
331
6B34
331
6B36
331
7698
331
769A
331
769C
331
769E
331
76A0
331
76A2
331
76A4
331
76A6
331
7A73
331
7A75
331
7A77
331
7A79
331
7A7B
331
7A7D
331
7A7F
331
7A81
331
7B1A
331
7B1C
331
2296
331
229A
331
23DD
331
23E2
331
23E5
331
23E7
331
23E9
331
23F0
331
23FB
331
23FF
331
2401
331
2403
331
2405
331
2408
331
240A
331
240C
331
240E
331
2410
331
2412
331
2417
331
2419
331
241B
331
241D
331
2420
331
2422
331
2424
331
2426
331
2428
331
242A
331
242D
331
2430
331
2432
331
2434
331
2436
331
2438
331
243A
331
243C
331
243E
331
2440
331
2442
331
2444
331
2446
331
2448
331
244A
331
244C
331
244F
331
2451
331
2453
331
2455
331
2458
331
245B
331
245D
331
245F
331
2461
331
2463
331
2465
331
2468
331
246A
331
246C
331
246E
331
2470
331
2472
331
2474
331
2476
331
2478
331
247A
331
247C
331
247E
331
2480
331
2482
331
2484
331
2486
331
2488
331
248A
331
248C
331
248E
331
2490
331
2492
331
2494
331
2496
331
2498
331
249C
331
249E
331
24A0
331
24A2
331
24A4
331
24A6
331
24A8
331
24AA
331
24AC
331
24AE
331
24B0
331
24B3
331
24B5
331
24B7
331
24B9
331
24BB
331
24BD
331
24BF
331
24C1
331
24C3
331
24C5
331
24C7
331
24CA
331
24CC
331
24CE
331
24D0
331
24D2
331
24D4
331
24D6
331
24D8
331
24DA
331
24DC
331
24DE
331
24E0
331
24E2
331
24E4
331
24E6
331
24E8
331
24EA
331
24EC
331
24EE
331
24F0
331
24F2
331
24F4
331
24F6
331
24F8
331
24FA
331
24FC
331
24FE
331
2500
331
2502
331
2504
331
2506
331
2508
331
250A
331
250C
331
250E
331
2510
331
2512
331
2514
331
2516
331
2518
331
251A
331
251C
331
251E
331
2520
331
2522
331
2524
331
2526
331
2528
331
252A
331
252C
331
252E
331
2530
331
2532
331
2534
331
2536
331
2538
331
253A
331
253C
331
253E
331
2540
331
2542
331
2544
331
2546
331
2548
331
254A
331
254C
331
254E
331
2550
331
2552
331
2554
331
2556
331
2559
331
255B
331
255D
331
255F
331
2561
331
2563
331
2565
331
2567
331
2569
331
256B
331
256D
331
256F
331
2571
331
2573
331
2575
331
2577
331
2579
331
257B
331
257D
331
257F
331
2581
331
2584
331
2586
331
2588
331
258A
331
258C
331
258E
331
2590
331
2592
331
2594
331
2596
331
2598
331
259B
331
259D
331
259F
331
25A1
331
25A3
331
25A5
331
25A7
331
25A9
331
25AB
331
25AD
331
25B0
331
25B3
331
25B6
331
25B8
331
25BB
331
25BD
331
25BF
331
25C2
331
25C4
331
25C7
331
25C9
331
25CC
331
25CE
331
25D1
331
25D4
331
25D8
331
25DC
331
25DE
331
25E0
331
25E2
331
25E4
331
25E6
331
25E9
331
25ED
331
25F1
331
25F3
331
25F5
331
25F7
331
25FB
331
25FD
331
25FF
331
2601
331
2603
331
2607
331
2609
331
260B
331
260D
331
2611
331
2615
331
2617
331
2619
331
261B
331
261D
331
261F
331
2621
331
2623
331
2626
331
263A
331
263F
331
2646
331
264C
331
2654
331
2658
331
265C
331
26D6
331
2799
331
27C1
331
27D6
331
27DF
331
27E6
331
2E1E
331
2E20
331
5AB5
331
5AB7
331
5ABA
331
5ABC
331
5B15
331
5B3C
331
5FD6
331
5FDA
102
}
 70
     0
280
     1
281
     0
1001
AcDbDynamicBlockGUID
1000
{3B46BFE2-49EE-4D54-911C-6E39B2D2CE87}
  0
BLOCK_RECORD
  5
1DB5
330
1
100
AcDbSymbolTableRecord
100
AcDbBlockTableRecord
  2
zw$D007
340
0
102
{BLKREFS
331
38B4
331
38B6
331
38C9
331
38CB
331
39C3
331
39C5
331
39C7
331
39C9
331
3FE3
331
3FE5
331
1DB3
331
60EC
331
6369
331
637D
331
6381
331
6383
331
6388
331
639A
331
63BA
331
6559
331
65F3
331
65F5
331
6614
331
661A
331
6677
331
6679
331
667B
331
667D
331
66B6
331
66B8
331
695E
331
6960
331
69CD
331
69CF
331
69F1
331
69F3
331
6A6D
331
6A6F
331
6B08
331
6B0A
331
6B55
331
6B57
331
758F
331
7591
331
75A4
331
75A6
331
768D
331
768F
331
7691
331
7693
331
7C8A
331
7C8C
331
227E
331
2286
331
228E
331
23AC
331
2629
331
263D
331
2641
331
2643
331
2648
331
265A
331
267A
331
2819
331
28B3
331
28B5
331
28DC
331
28E2
331
293F
331
2941
331
2943
331
2945
331
2984
331
2986
331
2C48
331
2C4A
331
2CB7
331
2CB9
331
2CDB
331
2CDD
331
2D57
331
2D59
331
2DF2
331
2DF4
331
2E3F
331
2E41
331
5B0D
331
5FBE
331
5FC6
331
5FCE
102
}
 70
     0
280
     1
281
     0
  0
BLOCK_RECORD
  5
2149
330
1
100
AcDbSymbolTableRecord
100
AcDbBlockTableRecord
  2
42煤进风
340
0
102
{BLKREFS
331
38C5
331
3998
331
399A
331
399C
331
399E
331
39A0
331
39A2
331
39A4
331
39BE
331
3A21
331
3A80
331
3ABB
331
3DAE
331
3F3C
331
3F3E
331
3FEB
331
3FED
331
60F9
331
632B
331
6445
331
646E
331
6471
331
6535
331
65BA
331
6642
331
6644
331
667F
331
6681
331
6685
331
6687
331
689B
331
6A5D
331
6A61
331
6A63
331
6A65
331
6A7B
331
6A83
331
6AB9
331
6B1F
331
6B3B
331
6B3D
331
6C46
331
6C54
331
6C56
331
6C58
331
6C5A
331
6C62
331
6C94
331
75A0
331
7662
331
7664
331
7666
331
7668
331
766A
331
766C
331
766E
331
7688
331
76EB
331
774A
331
7785
331
7A55
331
7BE3
331
7BE5
331
7C92
331
7C94
331
2147
331
2152
331
2161
331
2163
331
2167
331
2169
331
216D
331
216F
331
2171
331
219D
331
219F
331
21A1
331
21A3
331
21A5
331
21A7
331
21A9
331
21AB
331
21AD
331
21B1
331
21B3
331
21B5
331
21B7
331
21B9
331
21BB
331
21BD
331
21BF
331
21C1
331
21C3
331
21C5
331
21C7
331
21C9
331
2211
331
23B9
331
25EB
331
2705
331
272E
331
2731
331
27F5
331
287A
331
290A
331
290C
331
2947
331
2949
331
294D
331
294F
331
2B69
331
2D47
331
2D4B
331
2D4D
331
2D4F
331
2D65
331
2D6D
331
2DA3
331
2E09
331
2E25
331
2E27
331
2F6B
331
2F79
331
2F7B
331
2F7D
331
2F7F
331
2F87
331
2FB9
331
5E9B
331
5E9D
331
5EA1
331
5EA3
331
5EA7
331
5EA9
331
5EAD
331
5EAF
331
5EB1
331
5EDD
331
5EDF
331
5EE1
331
5EE3
331
5EE5
331
5EE7
331
5EE9
331
5EEB
331
5EED
331
5EF1
331
5EF3
331
5EF5
331
5EF7
331
5EF9
331
5EFB
331
5EFD
331
5EFF
331
5F01
331
5F03
331
5F05
331
5F07
331
5F09
331
5F51
102
}
 70
     0
280
     1
281
     0
  0
BLOCK_RECORD
  5
2156
330
1
100
AcDbSymbolTableRecord
100
AcDbBlockTableRecord
  2
42煤回风
340
0
102
{BLKREFS
331
6683
331
2154
331
2165
331
216B
331
294B
331
5E9F
331
5EA5
331
5EAB
102
}
 70
     0
280
     1
281
     0
  0
BLOCK_RECORD
  5
3923
102
{ACAD_XDICTIONARY
360
3924
102
}
330
1
100
AcDbSymbolTableRecord
100
AcDbBlockTableRecord
  2
A$C12A72C33
340
0
102
{BLKREFS
331
3922
331
3BE9
331
75FD
331
78AC
102
}
 70
     0
280
     1
281
     0
1001
AcDbDynamicBlockGUID
1000
{7B3EC870-A1BE-48EC-96F6-02C252519883}
1001
AcDbBlockRepETag
1070
     1
1071
        7
  0
BLOCK_RECORD
  5
396A
330
1
100
AcDbSymbolTableRecord
100
AcDbBlockTableRecord
  2
659496584165
340
0
310
2800000020000000200000000100080000000000000400004600360043004600000000000000000000000000000080000080000000808000800000008000800080800000C0C0C000C0DCC000F0CAA6000020400000206000002080000020A0000020C0000020E00000400000004020000040400000406000004080000040A0
310
000040C0000040E00000600000006020000060400000606000006080000060A0000060C0000060E00000800000008020000080400000806000008080000080A0000080C0000080E00000A0000000A0200000A0400000A0600000A0800000A0A00000A0C00000A0E00000C0000000C0200000C0400000C0600000C0800000C0
310
A00000C0C00000C0E00000E0000000E0200000E0400000E0600000E0800000E0A00000E0C00000E0E00040000000400020004000400040006000400080004000A0004000C0004000E00040200000402020004020400040206000402080004020A0004020C0004020E000404000004040200040404000404060004040800040
310
40A0004040C0004040E00040600000406020004060400040606000406080004060A0004060C0004060E00040800000408020004080400040806000408080004080A0004080C0004080E00040A0000040A0200040A0400040A0600040A0800040A0A00040A0C00040A0E00040C0000040C0200040C0400040C0600040C08000
310
40C0A00040C0C00040C0E00040E0000040E0200040E0400040E0600040E0800040E0A00040E0C00040E0E00080000000800020008000400080006000800080008000A0008000C0008000E00080200000802020008020400080206000802080008020A0008020C0008020E00080400000804020008040400080406000804080
310
008040A0008040C0008040E00080600000806020008060400080606000806080008060A0008060C0008060E00080800000808020008080400080806000808080008080A0008080C0008080E00080A0000080A0200080A0400080A0600080A0800080A0A00080A0C00080A0E00080C0000080C0200080C0400080C0600080C0
310
800080C0A00080C0C00080C0E00080E0000080E0200080E0400080E0600080E0800080E0A00080E0C00080E0E000C0000000C0002000C0004000C0006000C0008000C000A000C000C000C000E000C0200000C0202000C0204000C0206000C0208000C020A000C020C000C020E000C0400000C0402000C0404000C0406000C0
310
408000C040A000C040C000C040E000C0600000C0602000C0604000C0606000C0608000C060A000C060C000C060E000C0800000C0802000C0804000C0806000C0808000C080A000C080C000C080E000C0A00000C0A02000C0A04000C0A06000C0A08000C0A0A000C0A0C000C0A0E000C0C00000C0C02000C0C04000C0C06000
310
C0C08000C0C0A000F0FBFF00A4A0A000808080000000FF0000FF000000FFFF00FF000000FF00FF00FFFF0000FFFFFF0000000000000000000000000000000000000000000000000000000000000000000000000000000000000000000000000000000000000000000000000000000000000000000040606060606060601000
310
0000000000000000000000000000000000000000000040F0F0FEFEFEB8F0600000000000000000000000000000000000000000000000000000FEFEB80000000000000000000000000000000000000000000000000000000000F0FEB80000000000000000000000000000000000000000000000000000000000F0FEB8000000
310
0000000000000000000000000000000000000000000000000000F0FEB80000000000000000000000000000000000000000000000000000000000F0FEB80000000000000000000000000000000000000000000000000000000000F0FEB80000000000000000000000000000000000000000000000000000000000F0FEB80000
310
000000000000000000000000000000000000000000000000000000F0FEB80000000000000000000000000000000000000000000000000000000000F0FEB80000000000000040B80000000000000000000000000000000000000000F0FEB80000000000000040B80000000000000000000000000000000000000000F0FEB800
310
00000000000090B80000000000000000000000000000000000000000F0FEB800000000000000F0B80000000000000000000000000000000000000000F0FEFE606060606006FEFEB80000000000000000000000000000000000000000F0FEFEF0F0F0F0F0F0FEFEB80000000000000000000000000000000000000000F0FEB8
310
00000000000000F0B80000000000000000000000000000000000000000F0FEB80000000000000040B80000000000000000000000000000000000000000F0FEB80000000000000040B80000000000000000000000000000000000000000F0FEB80000000000000040600000000000000000000000000000000000000000F0FE
310
B80000000000000000000000000000000000000000000000000000000000F0FEB80000000000000000000000000000000000000000000000000000000000F0FEB8000000000000000000000040B810000000000000000000000000000000F0FEB80000000000000000000000F0B800000000000000000000000000000000F0
310
FEB80000000000000000000090FE7000000000000000000000000000000000F0FEB800000000000000000090FEFE1000000000000000000000000000000040FEFEFE1000000000000050F0FEFEB8000000000000000000000000000040FEFEFEFEFEFEFEFEFEFEFEFEFEFEFEFE700000000000000000000000000000000000
310
0000000000000000000000000000000000000000000000000000000000000000000000000000000000000000000000000000000000000000
102
{BLKREFS
331
3968
331
396F
331
3971
331
3973
331
3975
331
3977
331
3979
331
397B
331
397D
331
397F
331
3981
331
398E
331
3990
331
3A0D
331
3A1A
331
3A1C
331
3A36
331
3E0B
331
3E0D
331
3E0F
331
3E17
331
3E1D
331
3E2E
331
3E30
331
3E32
331
3E3A
331
3E40
331
3E51
331
3E53
331
3E55
331
3E5D
331
3E80
331
3E89
331
3E8F
331
3E98
331
3E9E
331
3EA7
331
3EAD
331
3EB6
331
3EBC
331
3EC5
331
3ECB
331
3ED4
331
3EDA
331
3EE3
331
3EE9
331
3EF2
331
3EF8
331
3F01
331
3F07
331
3F10
331
3F1C
331
3F1E
331
3F27
331
3F2D
331
3F36
331
3F49
331
3F5A
331
3F5C
331
3F5E
331
3F66
331
3F6C
331
3F7D
331
3F7F
331
3F81
331
3F89
331
3F8F
331
3FA0
331
3FA2
331
3FA4
331
3FAC
331
3FB2
331
3FC2
331
3FC4
331
3FC6
331
3FCE
331
3FD9
331
3FDF
331
7637
331
7639
331
763B
331
763D
331
763F
331
7641
331
7643
331
7645
331
7647
331
7649
331
764B
331
7658
331
765A
331
76D7
331
76E4
331
76E6
331
7700
331
7AB2
331
7AB4
331
7AB6
331
7ABE
331
7AC4
331
7AD5
331
7AD7
331
7AD9
331
7AE1
331
7AE7
331
7AF8
331
7AFA
331
7AFC
331
7B04
331
7B27
331
7B30
331
7B36
331
7B3F
331
7B45
331
7B4E
331
7B54
331
7B5D
331
7B63
331
7B6C
331
7B72
331
7B7B
331
7B81
331
7B8A
331
7B90
331
7B99
331
7B9F
331
7BA8
331
7BAE
331
7BB7
331
7BC3
331
7BC5
331
7BCE
331
7BD4
331
7BDD
331
7BF0
331
7C01
331
7C03
331
7C05
331
7C0D
331
7C13
331
7C24
331
7C26
331
7C28
331
7C30
331
7C36
331
7C47
331
7C49
331
7C4B
331
7C53
331
7C59
331
7C69
331
7C6B
331
7C6D
331
7C75
331
7C80
331
7C86
102
}
 70
     0
280
     1
281
     0
  0
BLOCK_RECORD
  5
3B7F
102
{ACAD_XDICTIONARY
360
3B80
102
}
330
1
100
AcDbSymbolTableRecord
100
AcDbBlockTableRecord
  2
A$C0F3E0099
340
0
102
{BLKREFS
331
3B7D
331
3C09
331
3C0B
331
3C0D
331
3C0F
331
3C11
331
3C13
331
3C15
331
3C20
331
3C75
331
3C8F
331
3C91
331
3C99
331
3CB8
331
3CC3
331
3CD2
331
3CD4
331
3CE0
331
3CEF
331
3D04
331
3D08
331
3D0A
331
3D11
331
3D30
331
3D51
331
3D5D
331
3D7F
331
3D8A
331
3DA0
331
7847
331
78C5
331
78C7
331
78C9
331
78CB
331
78CD
331
78CF
331
78D1
331
78D5
331
7923
331
793D
331
793F
331
7947
331
7966
331
796A
331
7979
331
797B
331
7987
331
7996
331
79AB
331
79AF
331
79B1
331
79B8
331
79D7
331
79F8
331
7A04
331
7A26
331
7A31
331
7A47
102
}
 70
     0
280
     1
281
     0
  0
BLOCK_RECORD
  5
3BEF
330
1
100
AcDbSymbolTableRecord
100
AcDbBlockTableRecord
  2
临时双向风门42
340
0
310
2800000020000000200000000100080000000000000400005030C82200000000000000000000000000000000000080000080000000808000800000008000800080800000C0C0C000C0DCC000F0CAA6000020400000206000002080000020A0000020C0000020E00000400000004020000040400000406000004080000040A0
310
000040C0000040E00000600000006020000060400000606000006080000060A0000060C0000060E00000800000008020000080400000806000008080000080A0000080C0000080E00000A0000000A0200000A0400000A0600000A0800000A0A00000A0C00000A0E00000C0000000C0200000C0400000C0600000C0800000C0
310
A00000C0C00000C0E00000E0000000E0200000E0400000E0600000E0800000E0A00000E0C00000E0E00040000000400020004000400040006000400080004000A0004000C0004000E00040200000402020004020400040206000402080004020A0004020C0004020E000404000004040200040404000404060004040800040
310
40A0004040C0004040E00040600000406020004060400040606000406080004060A0004060C0004060E00040800000408020004080400040806000408080004080A0004080C0004080E00040A0000040A0200040A0400040A0600040A0800040A0A00040A0C00040A0E00040C0000040C0200040C0400040C0600040C08000
310
40C0A00040C0C00040C0E00040E0000040E0200040E0400040E0600040E0800040E0A00040E0C00040E0E00080000000800020008000400080006000800080008000A0008000C0008000E00080200000802020008020400080206000802080008020A0008020C0008020E00080400000804020008040400080406000804080
310
008040A0008040C0008040E00080600000806020008060400080606000806080008060A0008060C0008060E00080800000808020008080400080806000808080008080A0008080C0008080E00080A0000080A0200080A0400080A0600080A0800080A0A00080A0C00080A0E00080C0000080C0200080C0400080C0600080C0
310
800080C0A00080C0C00080C0E00080E0000080E0200080E0400080E0600080E0800080E0A00080E0C00080E0E000C0000000C0002000C0004000C0006000C0008000C000A000C000C000C000E000C0200000C0202000C0204000C0206000C0208000C020A000C020C000C020E000C0400000C0402000C0404000C0406000C0
310
408000C040A000C040C000C040E000C0600000C0602000C0604000C0606000C0608000C060A000C060C000C060E000C0800000C0802000C0804000C0806000C0808000C080A000C080C000C080E000C0A00000C0A02000C0A04000C0A06000C0A08000C0A0A000C0A0C000C0A0E000C0C00000C0C02000C0C04000C0C06000
310
C0C08000C0C0A000F0FBFF00A4A0A000808080000000FF0000FF000000FFFF00FF000000FF00FF00FFFF0000FFFFFF000000000000000000000000000000000000000000000000000000000000000000000000000000000000000000FEFEFEFEFEFEFEFEFE0000000000000000000000000000000000000000FEFEFE000000
310
000000000000FEFEFE000000000000000000000000000000FEFE000000000000000000000000000000FEFE000000000000000000000000FE00000000000000000000000000000000000000FE00000000000000000000FE000000000000000000000000000000000000000000FE0000000000000000FE000000000000000000
310
0000000000000000000000000000FEFE0000000000FE00000000000000000000000000000000000000000000000000FE00000000FE000000000000000000000000000000000000000000000000000000FE000000FEFEFEFEFEFEFEFEFEFEFEFEFEFEFEFEFEFEFEFEFEFEFEFEFEFEFEFEFE0000000000000000000000000000
310
00000000000000000000000000000000000000000000000000000000000000000000000000000000000000000000000000000000000000000000000000000000000000000000000000000000000000000000000000000000000000000000000000000000000000000000000000000000000000000000000000000000000000
310
00000000000000000000000000000000000000000000000000000000000000000000000000000000000000000000000000000000000000000000000000000000000000000000000000000000000000000000000000000000000000000000000000000000000000000000000000000000000000000000000000000000000000
310
00000000000000000000000000000000000000000000000000000000000000000000000000000000000000000000000000000000000000000000000000000000000000000000000000000000000000000000000000000000FEFEFEFEFEFEFEFEFEFEFEFEFEFEFEFEFEFEFEFEFEFEFEFEFEFEFEFE000000FE00000000000000
310
0000000000000000000000000000000000000000FE00000000FE00000000000000000000000000000000000000000000000000FE0000000000FE00000000000000000000000000000000000000000000000000FE000000000000FEFE000000000000000000000000000000000000000000FEFE000000000000000000FE0000
310
0000000000000000000000000000000000FE000000000000000000000000FEFE000000000000000000000000000000FEFE000000000000000000000000000000FEFE0000000000000000000000FEFE00000000000000000000000000000000000000FEFEFEFEFEFEFEFEFEFEFE000000000000000000000000000000000000
310
0000000000000000000000000000000000000000000000000000000000000000000000000000000000000000000000000000000000000000
102
{BLKREFS
331
3BEE
331
78B1
102
}
 70
     0
280
     1
281
     0
1001
AcDbDynamicBlockGUID
1000
{9933A305-A354-4197-B92A-3C4B7C38CCA1}
  0
BLOCK_RECORD
  5
3C19
102
{ACAD_XDICTIONARY
360
3C1A
102
}
330
1
100
AcDbSymbolTableRecord
100
AcDbBlockTableRecord
  2
A$C428B26A6
340
0
102
{BLKREFS
331
3C17
331
78D3
102
}
 70
     0
280
     1
281
     0
  0
BLOCK_RECORD
  5
3C24
102
{ACAD_XDICTIONARY
360
3C25
102
}
330
1
100
AcDbSymbolTableRecord
100
AcDbBlockTableRecord
  2
A$C154754DE
340
0
102
{BLKREFS
331
3C22
331
78D7
102
}
 70
     0
280
     1
281
     0
  0
BLOCK_RECORD
  5
3CBC
102
{ACAD_XDICTIONARY
360
3CBD
102
}
330
1
100
AcDbSymbolTableRecord
100
AcDbBlockTableRecord
  2
A$C644366BB
340
0
102
{BLKREFS
331
3CBA
331
7968
102
}
 70
     0
280
     1
281
     0
  0
BLOCK_RECORD
  5
28BA
330
1
100
AcDbSymbolTableRecord
100
AcDbBlockTableRecord
  2
永久双向风门42
340
0
310
280000002000000020000000010008000000000000040000F0300C8F7319DB4E000000000000000000000000000080000080000000808000800000008000800080800000C0C0C000C0DCC000F0CAA6000020400000206000002080000020A0000020C0000020E00000400000004020000040400000406000004080000040A0
310
000040C0000040E00000600000006020000060400000606000006080000060A0000060C0000060E00000800000008020000080400000806000008080000080A0000080C0000080E00000A0000000A0200000A0400000A0600000A0800000A0A00000A0C00000A0E00000C0000000C0200000C0400000C0600000C0800000C0
310
A00000C0C00000C0E00000E0000000E0200000E0400000E0600000E0800000E0A00000E0C00000E0E00040000000400020004000400040006000400080004000A0004000C0004000E00040200000402020004020400040206000402080004020A0004020C0004020E000404000004040200040404000404060004040800040
310
40A0004040C0004040E00040600000406020004060400040606000406080004060A0004060C0004060E00040800000408020004080400040806000408080004080A0004080C0004080E00040A0000040A0200040A0400040A0600040A0800040A0A00040A0C00040A0E00040C0000040C0200040C0400040C0600040C08000
310
40C0A00040C0C00040C0E00040E0000040E0200040E0400040E0600040E0800040E0A00040E0C00040E0E00080000000800020008000400080006000800080008000A0008000C0008000E00080200000802020008020400080206000802080008020A0008020C0008020E00080400000804020008040400080406000804080
310
008040A0008040C0008040E00080600000806020008060400080606000806080008060A0008060C0008060E00080800000808020008080400080806000808080008080A0008080C0008080E00080A0000080A0200080A0400080A0600080A0800080A0A00080A0C00080A0E00080C0000080C0200080C0400080C0600080C0
310
800080C0A00080C0C00080C0E00080E0000080E0200080E0400080E0600080E0800080E0A00080E0C00080E0E000C0000000C0002000C0004000C0006000C0008000C000A000C000C000C000E000C0200000C0202000C0204000C0206000C0208000C020A000C020C000C020E000C0400000C0402000C0404000C0406000C0
310
408000C040A000C040C000C040E000C0600000C0602000C0604000C0606000C0608000C060A000C060C000C060E000C0800000C0802000C0804000C0806000C0808000C080A000C080C000C080E000C0A00000C0A02000C0A04000C0A06000C0A08000C0A0A000C0A0C000C0A0E000C0C00000C0C02000C0C04000C0C06000
310
C0C08000C0C0A000F0FBFF00A4A0A000808080000000FF0000FF000000FFFF00FF000000FF00FF00FFFF0000FFFFFF000000000000000000000000000000000000000000000000000000000000000000000000000000000000000000FEFEFEFEFEFEFEFEFE0000000000000000000000000000000000000000FEFEFE000000
310
000000000000FEFEFE000000000000000000000000000000FEFE000000000000000000000000000000FEFE000000000000000000000000FE00000000000000000000000000000000000000FE00000000000000000000FE000000000000000000000000000000000000000000FE0000000000000000FE000000000000000000
310
0000000000000000000000000000FEFE0000000000FE00000000000000000000000000000000000000000000000000FE00000000FE000000000000000000000000000000000000000000000000000000FE000000FEFEFEFEFEFEFEFEFEFEFEFEFEFEFEFEFEFEFEFEFEFEFEFEFEFEFEFEFE0000000000000000000000000000
310
00000000000000000000000000000000000000000000000000000000000000000000000000000000000000000000000000000000000000000000000000000000000000000000000000000000000000000000000000000000000000000000000000000000000000000000000000000000000000000000000000000000000000
310
0000000000000000000000000000000000000000000000FEFEFEFEFEFEFEFEFEFEFEFEFEFEFEFEFEFEFEFEFEFEFEFEFEFEFEFE00000000000000000000000000000000000000000000000000000000000000000000000000000000000000000000000000000000000000000000000000000000000000000000000000000000
310
00000000000000000000000000000000000000000000000000000000000000000000000000000000000000000000000000000000000000000000000000000000000000000000000000000000000000000000000000000000FEFEFEFEFEFEFEFEFEFEFEFEFEFEFEFEFEFEFEFEFEFEFEFEFEFEFEFE000000FE00000000000000
310
0000000000000000000000000000000000000000FE00000000FE00000000000000000000000000000000000000000000000000FE0000000000FE00000000000000000000000000000000000000000000000000FE000000000000FEFE000000000000000000000000000000000000000000FEFE000000000000000000FE0000
310
0000000000000000000000000000000000FE000000000000000000000000FEFE000000000000000000000000000000FEFE000000000000000000000000000000FEFE0000000000000000000000FEFE00000000000000000000000000000000000000FEFEFEFEFEFEFEFEFEFEFE000000000000000000000000000000000000
310
0000000000000000000000000000000000000000000000000000000000000000000000000000000000000000000000000000000000000000
102
{BLKREFS
331
3BF6
331
65F8
331
65FA
331
6A2D
331
6A2F
331
78B2
331
28B8
331
28C2
331
2D17
331
2D19
102
}
 70
     0
280
     1
281
     0
1001
AcDbDynamicBlockGUID
1000
{058168D7-6E07-48B5-908A-E4A278EA21D3}
  0
BLOCK_RECORD
  5
295B
330
1
100
AcDbSymbolTableRecord
100
AcDbBlockTableRecord
  2
zw$2F93
340
0
102
{BLKREFS
331
6691
331
6694
331
2959
331
2962
102
}
 70
     0
280
     1
281
     0
  0
BLOCK_RECORD
  5
2B93
102
{ACAD_XDICTIONARY
360
2B94
102
}
330
1
100
AcDbSymbolTableRecord
100
AcDbBlockTableRecord
  2
W对旋式轴流通风机
340
0
102
{BLKREFS
331
3BEA
331
68C4
331
78AD
331
2B92
102
}
 70
     0
280
     1
281
     0
1001
AcDbDynamicBlockGUID
1000
{04DF98E7-FD9B-4BE2-B299-11C088D2B98F}
1001
AcDbBlockRepETag
1070
     1
1071
       16
  0
BLOCK_RECORD
  5
2C1E
330
1
100
AcDbSymbolTableRecord
100
AcDbBlockTableRecord
  2
zw$78B2
340
0
102
{BLKREFS
331
693A
331
2C1D
102
}
 70
     0
280
     1
281
     0
1001
AcDbDynamicBlockGUID
1000
{3203A4E1-2083-43D1-B992-E8084843D9DE}
  0
BLOCK_RECORD
  5
2E91
330
1
100
AcDbSymbolTableRecord
100
AcDbBlockTableRecord
  2
W指北针
340
0
102
{BLKREFS
331
6BA6
331
2E90
102
}
 70
     0
280
     1
281
     0
  0
BLOCK_RECORD
  5
8161
330
1
100
AcDbSymbolTableRecord
100
AcDbBlockTableRecord
  2
0.0000
340
0
102
{BLKREFS
331
8160
331
81AD
102
}
 70
     4
280
     1
281
     0
  0
ENDTAB
  0
ENDSEC
  0
SECTION
  2
BLOCKS
  0
BLOCK
  5
20
330
1F
100
AcDbEntity
  8
0
100
AcDbBlockBegin
  2
*MODEL_SPACE
 70
     0
 10
0.0
 20
0.0
 30
0.0
  3
*MODEL_SPACE
  1

  0
ENDBLK
  5
21
330
1F
100
AcDbEntity
  8
0
100
AcDbBlockEnd
  0
BLOCK
  5
194
330
192
100
AcDbEntity
 67
     1
  8
0
100
AcDbBlockBegin
  2
*PAPER_SPACE
 70
     0
 10
0.0
 20
0.0
 30
0.0
  3
*PAPER_SPACE
  1

  0
ENDBLK
  5
195
330
192
100
AcDbEntity
 67
     1
  8
0
100
AcDbBlockEnd
  0
BLOCK
  5
199
330
197
100
AcDbEntity
  8
0
100
AcDbBlockBegin
  2
*PAPER_SPACE0
 70
     0
 10
0.0
 20
0.0
 30
0.0
  3
*PAPER_SPACE0
  1

  0
ENDBLK
  5
19A
330
197
100
AcDbEntity
  8
0
100
AcDbBlockEnd
  0
BLOCK
  5
93C
330
939
100
AcDbEntity
  8
0
 62
     0
100
AcDbBlockBegin
  2
42煤调节风窗
 70
     0
 10
0.0
 20
0.0
 30
0.0
  3
42煤调节风窗
  1

  0
LINE
  5
93D
330
939
100
AcDbEntity
  8
0
 62
     4
 48
1.000000000000000E+16
100
AcDbLine
 10
0.673949420275676
 20
2.925254292509634
 30
0.0
 11
0.6721442033413041
 21
13.72811469586304
 31
0.0
  0
LINE
  5
93E
330
939
100
AcDbEntity
  8
0
 62
     4
 48
1.000000000000000E+16
100
AcDbLine
 10
4.72988438217362
 20
2.92525429251691
 30
0.0
 11
4.728079165239249
 21
13.72811469587032
 31
0.0
  0
LINE
  5
93F
330
939
100
AcDbEntity
  8
0
 62
     4
 48
1.000000000000000E+16
100
AcDbLine
 10
0.6735745680198307
 20
5.168462024965263
 30
0.0
 11
4.729509529917777
 21
5.168462025372718
 31
0.0
  0
LINE
  5
940
330
939
100
AcDbEntity
  8
0
 62
     4
 48
1.000000000000000E+16
100
AcDbLine
 10
4.729400621912643
 20
5.820194212763452
 30
0.0
 11
3.688555347163855
 21
6.553193584470136
 31
0.0
  0
LINE
  5
941
330
939
100
AcDbEntity
  8
0
 62
     4
 48
1.000000000000000E+16
100
AcDbLine
 10
3.688555347163855
 20
6.553193584470136
 30
0.0
 11
0.673949420279314
 21
6.553193584470136
 31
0.0
  0
LINE
  5
942
330
939
100
AcDbEntity
  8
0
 62
     4
 48
1.000000000000000E+16
100
AcDbLine
 10
0.673949420279314
 20
6.553193584470136
 30
0.0
 11
1.717083672214356
 21
5.818582235457142
 31
0.0
  0
LINE
  5
943
330
939
100
AcDbEntity
  8
0
 62
     4
 48
1.000000000000000E+16
100
AcDbLine
 10
1.717083672214356
 20
5.818582235457142
 30
0.0
 11
4.729400621912643
 21
5.820194212647037
 31
0.0
  0
LINE
  5
944
330
939
100
AcDbEntity
  8
0
 62
     4
 48
1.000000000000000E+16
100
AcDbLine
 10
4.730006870373472
 20
7.247391935568882
 30
0.0
 11
3.689161595624681
 21
7.980391307275565
 31
0.0
  0
LINE
  5
945
330
939
100
AcDbEntity
  8
0
 62
     4
 48
1.000000000000000E+16
100
AcDbLine
 10
3.689161595624681
 20
7.980391307275565
 30
0.0
 11
0.6745556687401404
 21
7.980391307275565
 31
0.0
  0
LINE
  5
946
330
939
100
AcDbEntity
  8
0
 62
     4
 48
1.000000000000000E+16
100
AcDbLine
 10
0.6745556687401404
 20
7.980391307275565
 30
0.0
 11
1.717689920675184
 21
7.245779958262572
 31
0.0
  0
LINE
  5
947
330
939
100
AcDbEntity
  8
0
 62
     4
 48
1.000000000000000E+16
100
AcDbLine
 10
1.717689920675184
 20
7.245779958262572
 30
0.0
 11
4.730006870373472
 21
7.247391935452466
 31
0.0
  0
LINE
  5
948
330
939
100
AcDbEntity
  8
0
 62
     4
 48
1.000000000000000E+16
100
AcDbLine
 10
4.728923721830141
 20
8.674081152763392
 30
0.0
 11
3.688078447081351
 21
9.407080524470076
 31
0.0
  0
LINE
  5
949
330
939
100
AcDbEntity
  8
0
 62
     4
 48
1.000000000000000E+16
100
AcDbLine
 10
3.688078447081351
 20
9.407080524470076
 30
0.0
 11
0.6734725201968104
 21
9.407080524470076
 31
0.0
  0
LINE
  5
94A
330
939
100
AcDbEntity
  8
0
 62
     4
 48
1.000000000000000E+16
100
AcDbLine
 10
0.6734725201968104
 20
9.407080524470076
 30
0.0
 11
1.716606772131854
 21
8.672469175457081
 31
0.0
  0
LINE
  5
94B
330
939
100
AcDbEntity
  8
0
 62
     4
 48
1.000000000000000E+16
100
AcDbLine
 10
1.716606772131854
 20
8.672469175457081
 30
0.0
 11
4.728923721830141
 21
8.674081152646976
 31
0.0
  0
LINE
  5
94C
330
939
100
AcDbEntity
  8
0
 62
     4
 48
1.000000000000000E+16
100
AcDbLine
 10
4.735155235424826
 20
10.10178738120885
 30
0.0
 11
3.694309960676037
 21
10.83478675291553
 31
0.0
  0
LINE
  5
94D
330
939
100
AcDbEntity
  8
0
 62
     4
 48
1.000000000000000E+16
100
AcDbLine
 10
3.694309960676037
 20
10.83478675291553
 30
0.0
 11
0.6797040337914951
 21
10.83478675291553
 31
0.0
  0
LINE
  5
94E
330
939
100
AcDbEntity
  8
0
 62
     4
 48
1.000000000000000E+16
100
AcDbLine
 10
0.6797040337914951
 20
10.83478675291553
 30
0.0
 11
1.722838285726538
 21
10.10017540390254
 31
0.0
  0
LINE
  5
94F
330
939
100
AcDbEntity
  8
0
 62
     4
 48
1.000000000000000E+16
100
AcDbLine
 10
1.722838285726538
 20
10.10017540390254
 30
0.0
 11
4.735155235424826
 21
10.10178738109243
 31
0.0
  0
LINE
  5
950
330
939
100
AcDbEntity
  8
0
 62
     4
 48
1.000000000000000E+16
100
AcDbLine
 10
0.6724839304170022
 20
11.69510464365157
 30
0.0
 11
4.728418892314948
 21
11.69510464405903
 31
0.0
  0
ENDBLK
  5
951
330
939
100
AcDbEntity
  8
0
 62
     0
100
AcDbBlockEnd
  0
BLOCK
  5
D28
330
D25
100
AcDbEntity
  8
0
 62
     0
100
AcDbBlockBegin
  2
A$C68FC7CD3
 70
     0
 10
0.0
 20
0.0
 30
0.0
  3
A$C68FC7CD3
  1

  0
ENDBLK
  5
D2B
330
D25
100
AcDbEntity
  8
0
 62
     0
100
AcDbBlockEnd
  0
BLOCK
  5
F36
330
F33
100
AcDbEntity
  8
0
 62
     0
100
AcDbBlockBegin
  2
42煤回风方向1
 70
     0
 10
0.0
 20
0.0
 30
0.0
  3
42煤回风方向1
  1

  0
ENDBLK
  5
F3A
330
F33
100
AcDbEntity
  8
0
 62
     0
100
AcDbBlockEnd
  0
BLOCK
  5
15B0
330
15AD
100
AcDbEntity
  8
0
 62
     0
100
AcDbBlockBegin
  2
A$C13D54782
 70
     0
 10
0.0
 20
0.0
 30
0.0
  3
A$C13D54782
  1

  0
ENDBLK
  5
15B6
330
15AD
100
AcDbEntity
  8
0
 62
     0
100
AcDbBlockEnd
  0
BLOCK
  5
17D6
330
17D3
100
AcDbEntity
  8
0
 62
     0
100
AcDbBlockBegin
  2
$AUDIT_BAD_BLOCK_RECORD19
 70
     0
 10
0.0
 20
0.0
 30
0.0
  3
$AUDIT_BAD_BLOCK_RECORD19
  1

  0
LINE
  5
17DA
330
17D3
100
AcDbEntity
  8
0
  6
DASH
 62
     3
 48
1.000000000000000E+16
100
AcDbLine
 10
7.213923501135343
 20
8.687352235520627
 30
0.0
 11
2.854517343323878
 21
3.126345498831127
 31
0.0
1001
AcDbBlockRepETag
1070
     1
1071
        5
1005
17DA
  0
LINE
  5
17DB
330
17D3
100
AcDbEntity
  8
0
  6
DASH
 62
     3
 48
1.000000000000000E+16
100
AcDbLine
 10
2.854517343323878
 20
3.126345498831127
 30
0.0
 11
7.213923501135343
 21
-2.43265396440551
 31
0.0
1001
AcDbBlockRepETag
1070
     1
1071
        6
1005
17DB
  0
HATCH
  5
17DC
330
17D3
100
AcDbEntity
  8
0
  6
DASH
 62
     3
 48
1.000000000000000E+16
100
AcDbHatch
 10
0.0
 20
0.0
 30
0.0
210
0.0
220
0.0
230
1.0
  2
SOLID
 70
     1
 71
     0
 91
        2
 92
        7
 72
     0
 73
     1
 93
        4
 10
2.854517343323878
 20
3.126345498831127
 10
7.213923501135343
 20
8.687352235520627
 10
-15.7574781604991
 20
3.127349135557556
 10
-15.7523816851725
 20
3.126115583550928
 97
        0
 92
        7
 72
     0
 73
     1
 93
        3
 10
7.213923501135343
 20
-2.43265396440551
 10
2.854517343323878
 20
3.126345498831126
 10
-15.7523816851725
 20
3.126115583550928
 97
        0
 75
     0
 76
     1
 47
0.0524821823897721
 98
        2
 10
-4.02734544975101
 20
4.092804580457594
 10
-3.659679591801248
 20
1.836080628312629
1001
ACAD
1010
0.0
1020
0.0
1030
0.0
1001
AcDbBlockRepETag
1070
     1
1071
        7
1005
17DC
  0
ENDBLK
  5
17DD
330
17D3
100
AcDbEntity
  8
0
 62
     0
100
AcDbBlockEnd
  0
BLOCK
  5
1D5A
330
1D59
100
AcDbEntity
  8
0
 48
1.000000000000000E+16
100
AcDbBlockBegin
  2
42上煤临时密闭
 70
     0
 10
0.0
 20
0.0
 30
0.0
  3
42上煤临时密闭
  1

  0
LINE
  5
1D5B
330
1D59
100
AcDbEntity
  8
0
 62
     4
 48
1.000000000000000E+16
100
AcDbLine
 10
-3.320137314478415
 20
0.0000061439095589
 30
0.0
 11
16.60068657239208
 21
-0.0000012287819118
 31
0.0
  0
ENDBLK
  5
1D5C
330
1D59
100
AcDbEntity
  8
0
 48
1.000000000000000E+16
100
AcDbBlockEnd
  0
BLOCK
  5
1DB6
330
1DB5
100
AcDbEntity
  8
0
 48
1.000000000000000E+16
100
AcDbBlockBegin
  2
zw$D007
 70
     0
 10
0.0
 20
0.0
 30
0.0
  3
zw$D007
  1

  0
ENDBLK
  5
1DBA
330
1DB5
100
AcDbEntity
  8
0
 48
1.000000000000000E+16
100
AcDbBlockEnd
  0
BLOCK
  5
214A
330
2149
100
AcDbEntity
  8
0
 48
1.000000000000000E+16
100
AcDbBlockBegin
  2
42煤进风
 70
     0
 10
0.0
 20
0.0
 30
0.0
  3
42煤进风
  1

  0
ENDBLK
  5
2151
330
2149
100
AcDbEntity
  8
0
 48
1.000000000000000E+16
100
AcDbBlockEnd
  0
BLOCK
  5
2157
330
2156
100
AcDbEntity
  8
0
 48
1.000000000000000E+16
100
AcDbBlockBegin
  2
42煤回风
 70
     0
 10
0.0
 20
0.0
 30
0.0
  3
42煤回风
  1

  0
ENDBLK
  5
2160
330
2156
100
AcDbEntity
  8
0
 48
1.000000000000000E+16
100
AcDbBlockEnd
  0
BLOCK
  5
3926
330
3923
100
AcDbEntity
  8
0
 62
     0
100
AcDbBlockBegin
  2
A$C12A72C33
 70
     0
 10
0.0
 20
0.0
 30
0.0
  3
A$C12A72C33
  1

  0
ENDBLK
  5
392E
330
3923
100
AcDbEntity
  8
0
 62
     0
100
AcDbBlockEnd
  0
BLOCK
  5
396B
330
396A
100
AcDbEntity
  8
0
 62
     1
 48
1.000000000000000E+32
370
     9
100
AcDbBlockBegin
  2
659496584165
 70
     0
 10
0.0
 20
0.0
 30
0.0
  3
659496584165
  1

  0
ENDBLK
  5
396E
330
396A
100
AcDbEntity
  8
0
 62
     1
 48
1.000000000000000E+32
370
     9
100
AcDbBlockEnd
  0
BLOCK
  5
3B82
330
3B7F
100
AcDbEntity
  8
0
 62
     2
 48
1.000000000000000E+16
100
AcDbBlockBegin
  2
A$C0F3E0099
 70
     0
 10
0.0
 20
0.0
 30
0.0
  3
A$C0F3E0099
  1

  0
ENDBLK
  5
3B85
330
3B7F
100
AcDbEntity
  8
0
 62
     2
 48
1.000000000000000E+16
100
AcDbBlockEnd
  0
BLOCK
  5
3BF0
330
3BEF
100
AcDbEntity
  8
0
 62
     1
 48
1.000000000000000E+16
370
    -3
100
AcDbBlockBegin
  2
临时双向风门42
 70
     0
 10
0.0
 20
0.0
 30
0.0
  3
临时双向风门42
  1

  4
gbt38110-2019
  0
ENDBLK
  5
3BF5
330
3BEF
100
AcDbEntity
  8
0
 62
     1
 48
1.000000000000000E+16
370
    -3
100
AcDbBlockEnd
  0
BLOCK
  5
3C1C
330
3C19
100
AcDbEntity
  8
0
 62
     2
 48
1.000000000000000E+16
100
AcDbBlockBegin
  2
A$C428B26A6
 70
     0
 10
0.0
 20
0.0
 30
0.0
  3
A$C428B26A6
  1

  0
ENDBLK
  5
3C1F
330
3C19
100
AcDbEntity
  8
0
 62
     2
 48
1.000000000000000E+16
100
AcDbBlockEnd
  0
BLOCK
  5
3C27
330
3C24
100
AcDbEntity
  8
0
 62
     2
 48
1.000000000000000E+16
100
AcDbBlockBegin
  2
A$C154754DE
 70
     0
 10
0.0
 20
0.0
 30
0.0
  3
A$C154754DE
  1

  0
ENDBLK
  5
3C2A
330
3C24
100
AcDbEntity
  8
0
 62
     2
 48
1.000000000000000E+16
100
AcDbBlockEnd
  0
BLOCK
  5
3CBF
330
3CBC
100
AcDbEntity
  8
0
 62
     2
 48
1.000000000000000E+16
100
AcDbBlockBegin
  2
A$C644366BB
 70
     0
 10
0.0
 20
0.0
 30
0.0
  3
A$C644366BB
  1

  0
ENDBLK
  5
3CC2
330
3CBC
100
AcDbEntity
  8
0
 62
     2
 48
1.000000000000000E+16
100
AcDbBlockEnd
  0
BLOCK
  5
28BB
330
28BA
100
AcDbEntity
  8
0
 62
     1
 48
1.000000000000000E+16
370
    -3
100
AcDbBlockBegin
  2
永久双向风门42
 70
     0
 10
0.0
 20
0.0
 30
0.0
  3
永久双向风门42
  1

  4
gbt38110-2019
  0
ENDBLK
  5
28C1
330
28BA
100
AcDbEntity
  8
0
 62
     1
 48
1.000000000000000E+16
370
    -3
100
AcDbBlockEnd
  0
BLOCK
  5
295C
330
295B
100
AcDbEntity
  8
0
 48
1.000000000000000E+16
100
AcDbBlockBegin
  2
zw$2F93
 70
     0
 10
0.0
 20
0.0
 30
0.0
  3
zw$2F93
  1

  0
ENDBLK
  5
2960
330
295B
100
AcDbEntity
  8
0
 48
1.000000000000000E+16
100
AcDbBlockEnd
  0
BLOCK
  5
2B96
330
2B93
100
AcDbEntity
  8
0
 62
     5
100
AcDbBlockBegin
  2
W对旋式轴流通风机
 70
     0
 10
0.0
 20
0.0
 30
0.0
  3
W对旋式轴流通风机
  1

  0
ENDBLK
  5
2BA7
330
2B93
100
AcDbEntity
  8
0
 62
     5
100
AcDbBlockEnd
  0
BLOCK
  5
2C1F
330
2C1E
100
AcDbEntity
  8
0
  6
0a26剥蚀边界
100
AcDbBlockBegin
  2
zw$78B2
 70
     0
 10
0.0
 20
0.0
 30
0.0
  3
zw$78B2
  1

  0
HATCH
  5
2C20
330
2C1E
100
AcDbEntity
  8
0
370
     0
100
AcDbHatch
 10
0.0
 20
0.0
 30
0.0
210
0.0
220
0.0
230
1.0
  2
SOLID
 70
     1
 71
     0
 91
        1
 92
        7
 72
     1
 73
     1
 93
       19
 10
-2.121320343559546
 20
-7.9449015729042
 42
0.0
 10
0.5303300858877265
 20
-5.293251143457155
 42
0.0
 10
3.181980515340001
 20
-7.944901572904428
 42
0.0
 10
10.24416083189044
 20
-0.8827212563512603
 42
0.0482480207399435
 10
7.627500259628503
 20
0.7432588584965743
 42
0.0
 10
3.18198051534182
 20
-3.702260885786698
 42
0.0
 10
2.651650429452272
 20
-3.171930799892833
 42
0.0
 10
6.903117822520473
 20
1.079536593175814
 42
0.0530433430143735
 10
3.672763588908308
 20
2.091823046677973
 42
0.0
 10
0.5303300858877265
 20
-1.0506104563392
 42
0.0
 10
0.0
 20
-0.5202803704453345
 42
0.0
 10
2.766669564046424
 20
2.246389193599497
 42
0.0660305455341636
 10
-1.440792975875409
 20
2.281567340798574
 42
0.0
 10
-4.242640687117726
 20
-0.5202803704451071
 42
0.0
 10
-1.590990257671363
 20
-3.171930799892606
 42
0.0
 10
-2.121320343559546
 20
-3.702260885786472
 42
0.0
 10
-5.303300858894997
 20
-0.5202803704453345
 42
0.0
 10
-2.711417831019388
 20
2.071602657440279
 42
0.1125725483798627
 10
-9.183500660113622
 20
-0.882721256349896
 42
0.0
 97
        0
 75
     1
 76
     1
 47
0.0
 98
        1
 10
-6.551465501202526
 20
-2.256121443962455
450
        1
451
        0
460
5.497787143782136
461
1.0
452
        0
462
1.0
453
        2
463
0.0
 63
   242
421
 12654880
463
1.0
 63
    40
421
 16231424
470
SPHERICAL
1001
ACAD
1010
0.0
1020
0.0
1030
0.0
  0
HATCH
  5
2C21
330
2C1E
100
AcDbEntity
  8
0
 62
   242
100
AcDbHatch
 10
0.0
 20
0.0
 30
0.0
210
0.0
220
0.0
230
1.0
  2
SOLID
 70
     1
 71
     0
 91
        4
 92
        7
 72
     1
 73
     1
 93
        5
 10
-9.54594154601864
 20
-0.5202803704451071
 42
0.0
 10
-9.183500660113622
 20
-0.882721256349896
 42
-0.1125725483798627
 10
-2.711417831007111
 20
2.071602657442781
 42
0.0
 10
0.0
 20
4.783020488448753
 42
0.0
 10
-2.121320343559546
 20
6.904340832013986
 42
0.0
 97
        0
 92
        7
 72
     1
 73
     1
 93
        4
 10
2.766669564046424
 20
2.24638919359927
 42
0.0
 10
5.303300858900001
 20
4.783020488449208
 42
0.0
 10
3.181980515340908
 20
6.904340832013756
 42
0.0
 10
-1.440792975875409
 20
2.281567340798574
 42
-0.0660305455341636
 97
        0
 92
        7
 72
     1
 73
     1
 93
        4
 10
6.903117822520473
 20
1.079536593175589
 42
0.0
 10
7.954951288346817
 20
2.131370059001937
 42
0.0
 10
5.833630944787727
 20
4.252690402554661
 42
0.0
 10
3.672763588908308
 20
2.091823046678425
 42
-0.0530433430143735
 97
        0
 92
        7
 72
     1
 73
     1
 93
        4
 10
10.60660171780091
 20
-0.5202803704453345
 42
0.0
 10
8.485281374240912
 20
1.601039973107615
 42
0.0
 10
7.627500259628503
 20
0.7432588584965743
 42
-0.0482480207399435
 10
10.24416083189226
 20
-0.8827212563528519
 42
0.0
 97
        0
 75
     1
 76
     1
 47
0.0
 98
        4
 10
-4.11737853394743
 20
3.501430420890301
 10
2.482741896492369
 20
3.361002326625337
 10
5.291303781786155
 20
2.705671220056272
 10
8.661578044138877
 20
0.8801059946163148
1001
ACAD
1010
0.0
1020
0.0
1030
0.0
  0
MTEXT
  5
2C22
330
2C1E
100
AcDbEntity
  8
0
 62
     0
100
AcDbMText
 10
-11.80473751812906
 20
-10.44527352684553
 30
0.0
 40
3.0
 41
28.4148120833385
 46
5.549020541527369
 71
     1
 72
     1
  1
{\fSimHei|b1|i0|c134|p2;国家能源集团}
  7
黑体
 73
     1
 44
1.0
1001
ACAD
1000
MTEXTBEGIN
1070
    73
1070
     1
1070
    44
1040
1.0
1070
    74
1070
     0
1000
MTEXTEND
  0
MTEXT
  5
2C23
330
2C1E
100
AcDbEntity
  8
0
 62
     0
100
AcDbMText
 10
-9.317245551237192
 20
-15.95841678038914
 30
0.0
 40
2.399999999999999
 41
22.77011877385375
 46
3.348546878507903
 71
     1
 72
     1
  1
{\fSimHei|b1|i0|c134|p2;\W1.2;CHN ENERGY}
  7
黑体
 73
     1
 44
1.0
1001
ACAD
1000
MTEXTBEGIN
1070
    73
1070
     1
1070
    44
1040
1.0
1070
    74
1070
     0
1000
MTEXTEND
  0
ENDBLK
  5
2C24
330
2C1E
100
AcDbEntity
  8
0
  6
0a26剥蚀边界
100
AcDbBlockEnd
  0
BLOCK
  5
2E92
330
2E91
100
AcDbEntity
  8
经纬网
100
AcDbBlockBegin
  2
W指北针
 70
     0
 10
0.0
 20
0.0
 30
0.0
  3
W指北针
  1

  0
LWPOLYLINE
  5
2E93
330
2E91
100
AcDbEntity
  8
经纬网
100
AcDbPolyline
 90
        2
 70
     0
 43
0.15
 10
-3.862818884197622
 20
11.36127766879508
 42
6.047727933567202
 10
3.862818884197622
 20
11.36127766879508
  0
LWPOLYLINE
  5
2E94
330
2E91
100
AcDbEntity
  8
经纬网
100
AcDbPolyline
 90
        2
 70
     0
 43
0.15
 10
-3.647035091184077
 20
13.51662439532811
 42
7.544929979512557
 10
3.647035091184077
 20
13.51662439532811
  0
LWPOLYLINE
  5
2E95
330
2E91
100
AcDbEntity
  8
经纬网
100
AcDbPolyline
 90
        2
 70
     0
 43
0.15
 10
0.0
 20
50.0
 10
-6.037496098782867
 20
-10.37496098683914
  0
LWPOLYLINE
  5
2E96
330
2E91
100
AcDbEntity
  8
经纬网
100
AcDbPolyline
 90
        2
 70
     0
 43
0.15
 10
0.0
 20
50.0
 10
6.037262627389281
 20
-10.37262627540622
  0
LWPOLYLINE
  5
2E97
330
2E91
100
AcDbEntity
  8
经纬网
100
AcDbPolyline
 90
        2
 70
     0
 43
0.15
 10
8.0
 20
-30.0
 10
3.607200142927466
 20
-13.52700053405715
  0
LWPOLYLINE
  5
2E98
330
2E91
100
AcDbEntity
  8
经纬网
100
AcDbPolyline
 90
        2
 70
     0
 43
0.15
 10
-3.754322791006416
 20
12.44608614704339
 42
6.777809891014008
 10
3.754322791006416
 20
12.44608614704339
  0
LWPOLYLINE
  5
2E99
330
2E91
100
AcDbEntity
  8
经纬网
100
AcDbPolyline
 90
        2
 70
     0
 43
0.15
 10
-7.593198624439537
 20
-25.93198623944772
 10
-6.333251837640999
 20
-23.74969439039706
  0
LWPOLYLINE
  5
2E9A
330
2E91
100
AcDbEntity
  8
经纬网
100
AcDbPolyline
 90
        2
 70
     0
 43
0.15
 10
-7.351300669368356
 20
-23.51300669152988
 10
-5.342146606650202
 20
-20.03304977511289
  0
LWPOLYLINE
  5
2E9B
330
2E91
100
AcDbEntity
  8
经纬网
100
AcDbPolyline
 90
        2
 70
     0
 43
0.15
 10
-7.109402714762835
 20
-21.09402714355383
 10
-4.351041375659406
 20
-16.31640515982872
  0
LWPOLYLINE
  5
2E9C
330
2E91
100
AcDbEntity
  8
经纬网
100
AcDbPolyline
 90
        2
 70
     0
 43
0.15
 10
-6.867504759691655
 20
-18.67504759563599
 10
-3.855682116001844
 20
-13.45841775409644
  0
LWPOLYLINE
  5
2E9D
330
2E91
100
AcDbEntity
  8
经纬网
100
AcDbPolyline
 90
        2
 70
     0
 43
0.15
 10
-6.625606805086133
 20
-16.25606804771814
 10
-4.827144155744462
 20
-13.14103936339961
  0
LWPOLYLINE
  5
2E9E
330
2E91
100
AcDbEntity
  8
经纬网
100
AcDbPolyline
 90
        2
 70
     0
 43
0.15
 10
-6.383708850480616
 20
-13.83708849968388
 10
-5.761297408491372
 20
-12.75904025958152
  0
LWPOLYLINE
  5
2E9F
330
2E91
100
AcDbEntity
  8
经纬网
100
AcDbPolyline
 90
        2
 70
     0
 43
0.15
 10
-5.899912940803915
 20
-8.999129403848201
 10
0.0
 20
1.21981956908712
  0
LWPOLYLINE
  5
2EA0
330
2E91
100
AcDbEntity
  8
经纬网
100
AcDbPolyline
 90
        2
 70
     0
 43
0.15
 10
-4.206627257168292
 20
7.933727431867738
 10
0.0
 20
15.21981956908712
  0
LWPOLYLINE
  5
2EA1
330
2E91
100
AcDbEntity
  8
经纬网
100
AcDbPolyline
 90
        2
 70
     0
 43
0.15
 10
-4.206627257168292
 20
7.933727431867738
 10
0.0
 20
15.21981956908712
  0
LWPOLYLINE
  5
2EA2
330
2E91
100
AcDbEntity
  8
经纬网
100
AcDbPolyline
 90
        2
 70
     0
 43
0.15
 10
-4.448525211773811
 20
5.514747883949893
 10
0.0
 20
13.21981956908712
  0
LWPOLYLINE
  5
2EA3
330
2E91
100
AcDbEntity
  8
经纬网
100
AcDbPolyline
 90
        2
 70
     0
 43
0.15
 10
-4.690423166844992
 20
3.095768335915636
 10
0.0
 20
11.21981956908712
  0
LWPOLYLINE
  5
2EA4
330
2E91
100
AcDbEntity
  8
经纬网
100
AcDbPolyline
 90
        2
 70
     0
 43
0.15
 10
-4.932321121450511
 20
0.6767887879977934
 10
0.0
 20
9.219819569087119
  0
LWPOLYLINE
  5
2EA5
330
2E91
100
AcDbEntity
  8
经纬网
100
AcDbPolyline
 90
        2
 70
     0
 43
0.15
 10
-5.658014985732733
 20
-6.58014985587215
 10
0.0
 20
3.21981956908712
  0
LWPOLYLINE
  5
2EA6
330
2E91
100
AcDbEntity
  8
经纬网
100
AcDbPolyline
 90
        2
 70
     0
 43
0.15
 10
-2.755239527672529
 20
22.44760471954942
 10
0.0
 20
27.21981956908712
  0
LWPOLYLINE
  5
2EA7
330
2E91
100
AcDbEntity
  8
经纬网
100
AcDbPolyline
 90
        2
 70
     0
 43
0.15
 10
-2.755239527672529
 20
22.44760471954942
 10
0.0
 20
27.21981956908712
  0
LWPOLYLINE
  5
2EA8
330
2E91
100
AcDbEntity
  8
经纬网
100
AcDbPolyline
 90
        2
 70
     0
 43
0.15
 10
-2.997137483209371
 20
20.02862517163157
 10
0.0
 20
25.21981956908712
  0
LWPOLYLINE
  5
2EA9
330
2E91
100
AcDbEntity
  8
经纬网
100
AcDbPolyline
 90
        2
 70
     0
 43
0.15
 10
-3.239035437814891
 20
17.60964562371373
 10
0.0
 20
23.21981956908712
  0
LWPOLYLINE
  5
2EAA
330
2E91
100
AcDbEntity
  8
经纬网
100
AcDbPolyline
 90
        2
 70
     0
 43
0.15
 10
-3.480933392886071
 20
15.19066607567947
 10
0.0
 20
21.21981956908712
  0
LWPOLYLINE
  5
2EAB
330
2E91
100
AcDbEntity
  8
经纬网
100
AcDbPolyline
 90
        2
 70
     0
 43
0.15
 10
-4.206627257168292
 20
7.933727431867738
 10
0.0
 20
15.21981956908712
  0
LWPOLYLINE
  5
2EAC
330
2E91
100
AcDbEntity
  8
经纬网
100
AcDbPolyline
 90
        2
 70
     0
 43
0.15
 10
-1.303851799108086
 20
36.96148200734751
 10
0.0
 20
39.21981956908712
  0
LWPOLYLINE
  5
2EAD
330
2E91
100
AcDbEntity
  8
经纬网
100
AcDbPolyline
 90
        2
 70
     0
 43
0.15
 10
-1.303851799108086
 20
36.96148200734751
 10
0.0
 20
39.21981956908712
  0
LWPOLYLINE
  5
2EAE
330
2E91
100
AcDbEntity
  8
经纬网
100
AcDbPolyline
 90
        2
 70
     0
 43
0.15
 10
-1.545749753713606
 20
34.54250245931326
 10
0.0
 20
37.21981956908712
  0
LWPOLYLINE
  5
2EAF
330
2E91
100
AcDbEntity
  8
经纬网
100
AcDbPolyline
 90
        2
 70
     0
 43
0.15
 10
-1.787647708319125
 20
32.12352291139541
 10
0.0
 20
35.21981956908712
  0
LWPOLYLINE
  5
2EB0
330
2E91
100
AcDbEntity
  8
经纬网
100
AcDbPolyline
 90
        2
 70
     0
 43
0.15
 10
-2.029545663390308
 20
29.70454336336116
 10
0.0
 20
33.21981956908712
  0
LWPOLYLINE
  5
2EB1
330
2E91
100
AcDbEntity
  8
经纬网
100
AcDbPolyline
 90
        2
 70
     0
 43
0.15
 10
-2.755239527672529
 20
22.44760471954942
 10
0.0
 20
27.21981956908712
  0
LWPOLYLINE
  5
2EB2
330
2E91
100
AcDbEntity
  8
经纬网
100
AcDbPolyline
 90
        2
 70
     0
 43
0.15
 10
-0.0943620251491666
 20
49.05637974699494
 10
0.0
 20
49.21981956908711
  0
LWPOLYLINE
  5
2EB3
330
2E91
100
AcDbEntity
  8
经纬网
100
AcDbPolyline
 90
        2
 70
     0
 43
0.15
 10
-0.0943620251491666
 20
49.05637974699494
 10
0.0
 20
49.21981956908711
  0
LWPOLYLINE
  5
2EB4
330
2E91
100
AcDbEntity
  8
经纬网
100
AcDbPolyline
 90
        2
 70
     0
 43
0.15
 10
-0.3362599797546863
 20
46.63740019907709
 10
0.0
 20
47.2198195690871
  0
LWPOLYLINE
  5
2EB5
330
2E91
100
AcDbEntity
  8
经纬网
100
AcDbPolyline
 90
        2
 70
     0
 43
0.15
 10
-0.5781579343602063
 20
44.21842065115924
 10
0.0
 20
45.2198195690871
  0
LWPOLYLINE
  5
2EB6
330
2E91
100
AcDbEntity
  8
经纬网
100
AcDbPolyline
 90
        2
 70
     0
 43
0.15
 10
-1.303851799108086
 20
36.96148200734751
 10
0.0
 20
39.21981956908712
  0
LWPOLYLINE
  5
2EB7
330
2E91
100
AcDbEntity
  8
经纬网
100
AcDbPolyline
 90
        2
 70
     0
 43
0.15
 10
-8.0
 20
-30.0
 10
-3.607260449789464
 20
-13.52722668659408
  0
LWPOLYLINE
  5
2EB8
330
2E91
100
AcDbEntity
  8
经纬网
100
AcDbPolyline
 90
        2
 70
     0
 43
0.15
 10
-0.5781579343602063
 20
44.21842065115924
 10
0.0
 20
45.2198195690871
  0
LWPOLYLINE
  5
2EB9
330
2E91
100
AcDbEntity
  8
经纬网
100
AcDbPolyline
 90
        2
 70
     0
 43
0.15
 10
-3.964729302562773
 20
10.35270697978558
 10
0.0
 20
17.21981956908711
  0
LWPOLYLINE
  5
2EBA
330
2E91
100
AcDbEntity
  8
经纬网
100
AcDbPolyline
 90
        2
 70
     0
 43
0.15
 10
-3.722831347491591
 20
12.77168652776163
 10
0.0
 20
19.21981956908712
  0
LWPOLYLINE
  5
2EBB
330
2E91
100
AcDbEntity
  8
经纬网
100
AcDbPolyline
 90
        2
 70
     0
 43
0.15
 10
-2.513341573067009
 20
24.86658426752547
 10
0.0
 20
29.21981956908712
  0
LWPOLYLINE
  5
2EBC
330
2E91
100
AcDbEntity
  8
经纬网
100
AcDbPolyline
 90
        2
 70
     0
 43
0.15
 10
-2.271443617995826
 20
27.28556381544331
 10
0.0
 20
31.21981956908712
  0
LWPOLYLINE
  5
2EBD
330
2E91
100
AcDbEntity
  8
经纬网
100
AcDbPolyline
 90
        2
 70
     0
 43
0.15
 10
-1.061953844036904
 20
39.38046155526535
 10
0.0
 20
41.21981956908712
  0
LWPOLYLINE
  5
2EBE
330
2E91
100
AcDbEntity
  8
经纬网
100
AcDbPolyline
 90
        2
 70
     0
 43
0.15
 10
-0.820055889431387
 20
41.79944110318319
 10
0.0
 20
43.2198195690871
  0
LWPOLYLINE
  5
2EBF
330
2E91
100
AcDbEntity
  8
经纬网
100
AcDbPolyline
 90
        2
 70
     0
 43
0.15
 10
-5.416117031127214
 20
-4.161170307954305
 10
0.0
 20
5.219819569087119
  0
LWPOLYLINE
  5
2EC0
330
2E91
100
AcDbEntity
  8
经纬网
100
AcDbPolyline
 90
        2
 70
     0
 43
0.15
 10
-5.174219076521693
 20
-1.742190759920049
 10
0.0
 20
7.219819569087121
  0
LWPOLYLINE
  5
2EC1
330
2E91
100
AcDbEntity
  8
经纬网
100
AcDbPolyline
 90
        2
 70
     0
 43
0.15
 10
-7.835096579045057
 20
-28.35096578748198
 10
-7.324357068631798
 20
-27.46633900573943
  0
LWPOLYLINE
  5
2EC2
330
2E91
100
AcDbEntity
  8
经纬网
100
AcDbPolyline
 90
        2
 70
     0
 43
0.15
 10
0.0
 20
50.0
 10
0.0
 20
0.0
  0
LWPOLYLINE
  5
2EC3
330
2E91
100
AcDbEntity
  8
经纬网
100
AcDbPolyline
 90
        2
 70
     0
 43
0.15
 10
6.252560853958127
 20
-12.52560853632167
 10
8.0
 20
-30.0
  0
LWPOLYLINE
  5
2EC4
330
2E91
100
AcDbEntity
  8
经纬网
100
AcDbPolyline
 90
        2
 70
     0
 43
0.15
 10
3.092688124626873
 20
-11.59758046671049
 10
0.0
 20
0.0
  0
LWPOLYLINE
  5
2EC5
330
2E91
100
AcDbEntity
  8
经纬网
100
AcDbPolyline
 90
        2
 70
     0
 43
0.15
 10
-3.092522961087523
 20
-11.59696110209916
 10
0.0
 20
0.0
  0
LWPOLYLINE
  5
2EC6
330
2E91
100
AcDbEntity
  8
经纬网
100
AcDbPolyline
 90
        2
 70
     0
 43
0.15
 10
-3.811034922953695
 20
-11.38108654721873
 10
-2.368830914609134
 20
-8.883115929202176
  0
LWPOLYLINE
  5
2EC7
330
2E91
100
AcDbEntity
  8
经纬网
100
AcDbPolyline
 90
        2
 70
     0
 43
0.15
 10
-4.757256763521581
 20
-11.01999085006537
 10
-1.377725684083997
 20
-5.166471313859799
  0
LWPOLYLINE
  5
2EC8
330
2E91
100
AcDbEntity
  8
经纬网
100
AcDbPolyline
 90
        2
 70
     0
 43
0.15
 10
-5.660604952834545
 20
-10.58463581139222
 10
-0.3866204530932009
 20
-1.449826698692049
  0
LWPOLYLINE
  5
2EC9
330
2E91
100
AcDbEntity
  8
经纬网
100
AcDbPolyline
 90
        2
 70
     0
 43
0.15
 10
-6.252563349902627
 20
-12.52563350257696
 10
-8.0
 20
-30.0
  0
HATCH
  5
2ECA
330
2E91
100
AcDbEntity
  8
经纬网
100
AcDbHatch
 10
0.0
 20
0.0
 30
0.0
210
0.0
220
0.0
230
1.0
  2
SOLID
 70
     1
 71
     0
 91
        1
 92
       19
 72
     0
 73
     1
 93
      660
 10
-3.648416659794747
 20
13.51626314676832
 10
-3.858944469131527
 20
13.45787861821009
 10
-4.093225353863089
 20
13.38848145853262
 10
-4.326259409077463
 20
13.31500610319199
 10
-4.557975649833678
 20
13.23747493344126
 10
-4.788303493522106
 20
13.15591156604932
 10
-5.017172781284898
 20
13.07034084602492
 10
-5.244513795711099
 20
12.98078883904963
 10
-5.470257286913692
 20
12.88728282338707
 10
-5.69433449069038
 20
12.78985128208296
 10
-5.916677151806652
 20
12.68852389359381
 10
-6.137217542622237
 20
12.58333152328851
 10
-6.3558884835802
 20
12.47430621372769
 10
-6.572623366955667
 20
12.36148117511766
 10
-6.78735617082566
 20
12.24489077506587
 10
-7.000021487474441
 20
12.12457052804529
 10
-7.210554536432027
 20
12.00055708491709
 10
-7.418891186825931
 20
11.87288822128903
 10
-7.624967977404593
 20
11.74160282628145
 10
-7.828722136560827
 20
11.60674089082749
 10
-8.030091596301645
 20
11.46834349510027
 10
-8.229015019722281
 20
11.32645279634744
 10
-8.425431811716407
 20
11.18111201567808
 10
-8.619282142259178
 20
11.03236542554805
 10
-8.810506962239742
 20
10.88025833544088
 10
-8.999048023018984
 20
10.72483707871288
 10
-9.184847893659023
 20
10.56614899821579
 10
-9.367849976755676
 20
10.40424243174493
 10
-9.547998527996242
 20
10.23916669777827
 10
-9.725238674320276
 20
10.07097207976039
 10
-9.899516423698511
 20
9.899709811725188
 10
-10.07077869260683
 20
9.725432061473835
 10
-10.2389733097516
 20
9.5481919159065
 10
-10.4040490440093
 20
9.36804336408386
 10
-10.56595561048016
 20
9.185041280929
 10
-10.72464369097724
 20
8.999241410638203
 10
-10.88006494799629
 20
8.810700349800754
 10
-11.03217203775421
 20
8.619475529587361
 10
-11.18091862788424
 20
8.425625199161004
 10
-11.32625940907746
 20
8.229208407166879
 10
-11.46815010765567
 20
8.03028498403728
 10
-11.60654750326648
 20
7.828915523656177
 10
-11.74140943866223
 20
7.625161365314851
 10
-11.87269483366981
 20
7.419084574386942
 10
-12.00036369729787
 20
7.210747923760209
 10
-12.12437714030966
 20
7.000214875093661
 10
-12.24469738733023
 20
6.787549558561295
 10
-12.36128778755665
 20
6.572816754051017
 10
-12.47411282593384
 20
6.356081871374044
 10
-12.58313813572749
 20
6.137410930183248
 10
-12.68833050597459
 20
5.916870539425872
 10
-12.78965789452195
 20
5.694527878134977
 10
-12.88708943594247
 20
5.470450673892626
 10
-12.98059545177966
 20
5.244707182864658
 10
-13.0701474584639
 20
5.017366168729495
 10
-13.15571817848831
 20
4.788496881606988
 10
-13.23728154599666
 20
4.558169037452898
 10
-13.31481271516532
 20
4.326452796347438
 10
-13.3882880709134
 20
4.093418741191271
 10
-13.45768523076549
 20
3.859137856459708
 10
-13.52298305556178
 20
3.623681506491265
 10
-13.58416165551171
 20
3.387121413426939
 10
-13.64120239485055
 20
3.149529635906219
 10
-13.69408789789304
 20
2.910978546540718
 10
-13.74280205601826
 20
2.671540810319128
 10
-13.78733002999797
 20
2.431289362430105
 10
-13.8276582560502
 20
2.190297385677693
 10
-13.86377445003018
 20
1.948638288478831
 10
-13.89566761022434
 20
1.706385682686232
 10
-13.92332802247256
 20
1.463613360829184
 10
-13.94674726063385
 20
1.220395273528992
 10
-13.9659181907773
 20
0.9768055074964648
 10
-13.98083497444168
 20
0.7329182624816895
 10
-13.99149306584149
 20
0.4888078289222906
 10
-13.99788921978325
 20
0.2445485652424395
 10
-14.00002148747444
 20
0.0002148750936612
 10
-13.99788921978325
 20
-0.2441188149969093
 10
-13.99149306584149
 20
-0.4883780787931756
 10
-13.98083497444168
 20
-0.7324885123525747
 10
-13.9659181907773
 20
-0.9763757573673499
 10
-13.94674726063385
 20
-1.219965523399878
 10
-13.92332802247256
 20
-1.463183610700069
 10
-13.89566761022434
 20
-1.705955932557117
 10
-13.86377445003018
 20
-1.948208538349715
 10
-13.8276582560502
 20
-2.189867635432165
 10
-13.78733002999797
 20
-2.43085961230099
 10
-13.74280205601826
 20
-2.67111106024822
 10
-13.69408789789304
 20
-2.910548796411603
 10
-13.64120239485055
 20
-3.149099885777103
 10
-13.58416165551171
 20
-3.386691663356031
 10
-13.52298305556178
 20
-3.623251756362151
 10
-13.45768523076549
 20
-3.858708106388803
 10
-13.3882880709134
 20
-4.092988991003948
 10
-13.31481271516532
 20
-4.326023046218322
 10
-13.23728154599666
 20
-4.557739287323784
 10
-13.15571817848831
 20
-4.788067131477871
 10
-13.0701474584639
 20
-5.01693641854217
 10
-12.98059545177966
 20
-5.244277432735541
 10
-12.88708943594247
 20
-5.47002092376351
 10
-12.78965789452195
 20
-5.694098128005862
 10
-12.68833050597459
 20
-5.916440789296758
 10
-12.58313813572749
 20
-6.13698117993772
 10
-12.47411282593384
 20
-6.355652121303137
 10
-12.36128778755665
 20
-6.572387003921901
 10
-12.24469738733023
 20
-6.787119808315763
 10
-12.12437714030966
 20
-6.999785124906338
 10
-12.00036369729787
 20
-7.210318173689302
 10
-11.87269483366981
 20
-7.418654824141412
 10
-11.74140943866223
 20
-7.624731615127529
 10
-11.60654750326648
 20
-7.828485773527061
 10
-11.46815010765567
 20
-8.029855233791749
 10
-11.32625940907746
 20
-8.228778657037763
 10
-11.18091862788424
 20
-8.425195449031887
 10
-11.03217203775421
 20
-8.619045779516453
 10
-10.88006494799629
 20
-8.810270599671639
 10
-10.72464369097724
 20
-8.99881166050909
 10
-10.56595561048016
 20
-9.184611530799882
 10
-10.4040490440093
 20
-9.367613614012952
 10
-10.2389733097516
 20
-9.547762165777383
 10
-10.07077869260683
 20
-9.725002311344724
 10
-9.899516423698511
 20
-9.899280061596071
 10
-9.725238674320276
 20
-10.07054232963128
 10
-9.547998527996242
 20
-10.23873694764916
 10
-9.367849976755676
 20
-10.40381268161582
 10
-9.184847893659023
 20
-10.56571924808668
 10
-8.999048023018984
 20
-10.72440732858376
 10
-8.810506962239742
 20
-10.87982858531177
 10
-8.619282142259178
 20
-11.03193567547714
 10
-8.425431811716407
 20
-11.18068226560717
 10
-8.229015019722281
 20
-11.32602304621832
 10
-8.030091596301645
 20
-11.46791374497115
 10
-7.828722136560827
 20
-11.60631114069838
 10
-7.624967977404593
 20
-11.74117307615233
 10
-7.418891186825931
 20
-11.87245847110171
 10
-7.210554536432027
 20
-12.00012733472977
 10
-7.000021487474441
 20
-12.12414077791618
 10
-6.78735617082566
 20
-12.24446102482034
 10
-6.572623366955667
 20
-12.36105142498854
 10
-6.3558884835802
 20
-12.47387646354036
 10
-6.137217542622237
 20
-12.58290177315939
 10
-5.916677151806652
 20
-12.68809414346469
 10
-5.69433449069038
 20
-12.78942153195385
 10
-5.470257286913692
 20
-12.88685307325795
 10
-5.244513795711099
 20
-12.9803590888041
 10
-5.017172781284898
 20
-13.0699110958958
 10
-4.788303493522106
 20
-13.15548181592021
 10
-4.557975649833678
 20
-13.23704518331215
 10
-4.326259409077463
 20
-13.31457635306287
 10
-4.093225353863089
 20
-13.38805170840351
 10
-3.858944469131527
 20
-13.45744886808097
 10
-3.623488119337707
 20
-13.52274669299368
 10
-3.386928025633096
 20
-13.58392529282719
 10
-3.149336248636245
 20
-13.64096603187499
 10
-2.91078515863046
 20
-13.69385153520852
 10
-2.671347422990945
 20
-13.74256569315912
 10
-2.431095974985509
 20
-13.78709366713883
 10
-2.190103997942058
 20
-13.82742189330747
 10
-1.948444900568573
 20
-13.86353808734566
 10
-1.706192295067012
 20
-13.89543124794727
 10
-1.463419972918925
 20
-13.92309166007908
 10
-1.220201885793356
 20
-13.94651089824037
 10
-0.9766121199354527
 20
-13.96568182855844
 10
-0.7327248752117157
 20
-13.98059861146612
 10
-0.4886144413612783
 20
-13.99125670315698
 10
-0.2443551779724657
 20
-13.99765285709873
 10
-0.0000214874744415
 20
-13.99978512490634
 10
0.2443122030235827
 20
-13.99765285709873
 10
0.4885714664123955
 20
-13.99125670315698
 10
0.7326819002628328
 20
-13.98059861146612
 10
0.9765691449865695
 20
-13.96568182855844
 10
1.220158910844475
 20
-13.94651089824037
 10
1.463376997970043
 20
-13.92309166007908
 10
1.706149320118129
 20
-13.89543124794727
 10
1.948401925619689
 20
-13.86353808734566
 10
2.190061022993175
 20
-13.82742189330747
 10
2.431053000036627
 20
-13.78709366713883
 10
2.671304448042064
 20
-13.74256569315912
 10
2.910742183681577
 20
-13.69385153520852
 10
3.14929327275604
 20
-13.64096603187499
 10
3.386885050684213
 20
-13.58392529282719
 10
3.623445144388823
 20
-13.52274669299368
 10
3.858901494182646
 20
-13.45744886808097
 10
4.093182378448545
 20
-13.38805170840351
 10
4.326216434128581
 20
-13.31457635306287
 10
4.557932674884796
 20
-13.23704518331215
 10
4.788260518573222
 20
-13.15548181592021
 10
5.017129806336013
 20
-13.0699110958958
 10
5.244470820762217
 20
-12.9803590888041
 10
5.470214311033487
 20
-12.88685307325795
 10
5.694291515741497
 20
-12.78942153195385
 10
5.916634176857766
 20
-12.68809414346469
 10
6.137174567673355
 20
-12.58290177315939
 10
6.355845508631317
 20
-12.47387646354036
 10
6.572580391075462
 20
-12.36105142498854
 10
6.787313195876777
 20
-12.24446102482034
 10
6.999978512525557
 20
-12.12414077791618
 10
7.210511561483142
 20
-12.00012733472977
 10
7.418848211877048
 20
-11.87245847110171
 10
7.624925002455711
 20
-11.74117307615233
 10
7.82867916068062
 20
-11.60631114069838
 10
8.030048621352761
 20
-11.46791374497115
 10
8.228972044773398
 20
-11.32602304621832
 10
8.425388836767522
 20
-11.18068226560717
 10
8.619239167310297
 20
-11.03193567547714
 10
8.810463987290859
 20
-10.87982858531177
 10
8.999005048070101
 20
-10.72440732858376
 10
9.184804918710142
 20
-10.56571924808668
 10
9.367807001806797
 20
-10.40381268161582
 10
9.547955553047355
 20
-10.23873694764916
 10
9.725195699371395
 20
-10.07054232963128
 10
9.899473448749633
 20
-9.899280061596071
 10
10.07073571765795
 20
-9.725002311344724
 10
10.23893033480272
 20
-9.547762165777383
 10
10.40400606906041
 20
-9.367613614012952
 10
10.56591263553127
 20
-9.184611530799882
 10
10.72460071602836
 20
-8.99881166050909
 10
10.8800219730474
 20
-8.810270599671639
 10
11.03212906280532
 20
-8.619045779516453
 10
11.18087565293535
 20
-8.425195449031887
 10
11.32621643412858
 20
-8.228778657037763
 10
11.46810713270679
 20
-8.029855233791749
 10
11.6065045283176
 20
-7.828485773527061
 10
11.74136646371334
 20
-7.624731615127529
 10
11.87265185872093
 20
-7.418654824141412
 10
12.00032072234899
 20
-7.210318173689302
 10
12.12433416536078
 20
-6.999785124906338
 10
12.24465441238135
 20
-6.787119808315763
 10
12.36124481260776
 20
-6.572387003921901
 10
12.47406985098496
 20
-6.355652121303137
 10
12.58309516077861
 20
-6.13698117993772
 10
12.68828753102571
 20
-5.916440789296758
 10
12.78961491957307
 20
-5.694098128005862
 10
12.88704646099359
 20
-5.47002092376351
 10
12.98055247683078
 20
-5.244277432735541
 10
13.07010448351502
 20
-5.01693641854217
 10
13.15567520353943
 20
-4.788067131477871
 10
13.23723857104778
 20
-4.557739287323784
 10
13.31476974021643
 20
-4.326023046218322
 10
13.38824509596452
 20
-4.092988991003948
 10
13.45764225581661
 20
-3.858708106388803
 10
13.5229400806129
 20
-3.623251756362151
 10
13.58411868056282
 20
-3.386691663356031
 10
13.64115941990167
 20
-3.149099885777103
 10
13.69404492294416
 20
-2.910548796411603
 10
13.74275908106938
 20
-2.67111106024822
 10
13.78728705504909
 20
-2.43085961230099
 10
13.82761528110131
 20
-2.189867635432165
 10
13.86373147508129
 20
-1.948208538349715
 10
13.89562463527545
 20
-1.705955932557117
 10
13.92328504752368
 20
-1.463183610700069
 10
13.94670428568497
 20
-1.219965523399878
 10
13.96587521582842
 20
-0.9763757573673499
 10
13.98079199949279
 20
-0.7324885123525747
 10
13.99145009089261
 20
-0.4883780787931756
 10
13.99784624483436
 20
-0.2441188149969093
 10
13.99997851252556
 20
0.0002148750936612
 10
13.99784624483436
 20
0.2445485652424395
 10
13.99145009089261
 20
0.4888078289222906
 10
13.98079199949279
 20
0.7329182624816895
 10
13.96587521582842
 20
0.9768055074964648
 10
13.94670428568497
 20
1.220395273528992
 10
13.92328504752368
 20
1.463613360829184
 10
13.89562463527545
 20
1.706385682686232
 10
13.86373147508129
 20
1.948638288478831
 10
13.82761528110131
 20
2.190297385677693
 10
13.78728705504909
 20
2.431289362430105
 10
13.74275908106938
 20
2.671540810319128
 10
13.69404492294416
 20
2.910978546540718
 10
13.64115941990167
 20
3.149529635906219
 10
13.58411868056282
 20
3.387121413426939
 10
13.5229400806129
 20
3.623681506491265
 10
13.45764225581661
 20
3.859137856459708
 10
13.38824509596452
 20
4.093418741191271
 10
13.31476974021643
 20
4.326452796347438
 10
13.23723857104778
 20
4.558169037452898
 10
13.15567520353943
 20
4.788496881606988
 10
13.07010448351502
 20
5.017366168729495
 10
12.98055247683078
 20
5.244707182864658
 10
12.88704646099359
 20
5.470450673892626
 10
12.78961491957307
 20
5.694527878134977
 10
12.68828753102571
 20
5.916870539425872
 10
12.58309516077861
 20
6.137410930183248
 10
12.47406985098496
 20
6.356081871374044
 10
12.36124481260776
 20
6.572816754051017
 10
12.24465441238135
 20
6.787549558561295
 10
12.12433416536078
 20
7.000214875093661
 10
12.00032072234899
 20
7.210747923760209
 10
11.87265185872093
 20
7.419084574386942
 10
11.74136646371334
 20
7.625161365314851
 10
11.6065045283176
 20
7.828915523656177
 10
11.46810713270679
 20
8.03028498403728
 10
11.32621643412858
 20
8.229208407166879
 10
11.18087565293535
 20
8.425625199161004
 10
11.03212906280532
 20
8.619475529587361
 10
10.8800219730474
 20
8.810700349800754
 10
10.72460071602836
 20
8.999241410638203
 10
10.56591263553127
 20
9.185041280929
 10
10.40400606906041
 20
9.36804336408386
 10
10.23893033480272
 20
9.5481919159065
 10
10.07073571765795
 20
9.725432061473835
 10
9.899473448749633
 20
9.899709811725188
 10
9.725195699371395
 20
10.07097207976039
 10
9.547955553047355
 20
10.23916669777827
 10
9.367807001806797
 20
10.40424243174493
 10
9.184804918710142
 20
10.56614899821579
 10
8.999005048070101
 20
10.72483707871288
 10
8.810463987290859
 20
10.88025833544088
 10
8.619239167310297
 20
11.03236542554805
 10
8.425388836767522
 20
11.18111201567808
 10
8.228972044773398
 20
11.32645279634744
 10
8.030048621352761
 20
11.46834349510027
 10
7.82867916068062
 20
11.60674089082749
 10
7.624925002455711
 20
11.74160282628145
 10
7.418848211877048
 20
11.87288822128903
 10
7.210511561483142
 20
12.00055708491709
 10
6.999978512525557
 20
12.12457052804529
 10
6.787313195876777
 20
12.24489077506587
 10
6.572580391075462
 20
12.36148117511766
 10
6.355845508631317
 20
12.47430621372769
 10
6.137174567673355
 20
12.58333152328851
 10
5.916634176857766
 20
12.68852389359381
 10
5.694291515741497
 20
12.78985128208296
 10
5.470214311033487
 20
12.88728282338707
 10
5.244470820762217
 20
12.98078883904963
 10
5.017129806336013
 20
13.07034084602492
 10
4.788260518573222
 20
13.15591156604932
 10
4.557932674884796
 20
13.23747493344126
 10
4.326216434128581
 20
13.31500610319199
 10
4.093182378448545
 20
13.38848145853262
 10
3.858901494182646
 20
13.45787861821009
 10
3.648373684845862
 20
13.51626314676832
 10
3.7554383398965
 20
12.44561660016188
 10
3.800810673739761
 20
12.43217670253943
 10
4.017199439462273
 20
12.36394958692835
 10
4.232364520430563
 20
12.29195635783253
 10
4.446240375749766
 20
12.21621894527925
 10
4.658761856611818
 20
12.13676041952567
 10
4.869864226784556
 20
12.05360498448135
 10
5.079483182635158
 20
11.96677796996664
 10
5.287554872687906
 20
11.87630582443671
 10
5.494015914853662
 20
11.78221610654145
 10
5.698803421109912
 20
11.68453747691819
 10
5.901855009142306
 20
11.58329968951875
 10
6.103108828421682
 20
11.47853358217981
 10
6.302503575570881
 20
11.37027106789173
 10
6.499978512525557
 20
11.25854512426303
 10
6.695473486091941
 20
11.14338978414889
 10
6.888928947504607
 20
11.02484012505738
 10
7.080285967793315
 20
10.90293225838104
 10
7.269486257340759
 20
10.77770331827923
 10
7.456472185440361
 20
10.64919145079329
 10
7.641186792403459
 20
10.51743580197217
 10
7.823573813773691
 20
10.38247650570702
 10
8.00357769196853
 20
10.24435467197327
 10
8.181143595837056
 20
10.10311237402493
 10
8.356217438820749
 20
9.958792635588904
 10
8.528745889663696
 20
9.811439417942892
 10
8.698676395229995
 20
9.66109760623658
 10
8.865957193076607
 20
9.507812996103892
 10
9.030537328217176
 20
9.351632279518526
 10
9.192366668023167
 20
9.192603030533064
 10
9.351395917125048
 20
9.030773691076319
 10
9.507576633244751
 20
8.866193555819336
 10
9.660861243959514
 20
8.69891275773989
 10
9.811203055083751
 20
8.528982251940758
 10
9.958556273020805
 20
8.356453801039606
 10
10.1028760112822
 20
8.181379958696197
 10
10.24411830911413
 20
8.003814054245593
 10
10.38224014360457
 20
7.823810176050756
 10
10.51719943946227
 20
7.641423154913352
 10
10.64895508810878
 20
7.456708547659218
 10
10.77746695559472
 20
7.269722620199901
 10
10.90269589563831
 20
7.080522330303208
 10
11.0246037626639
 20
6.889165310072712
 10
11.14315342158079
 20
6.695709848834668
 10
11.25830876175314
 20
6.500214875093661
 10
11.37003470491618
 20
6.302739938255396
 10
11.4782972196117
 20
6.103345191280822
 10
11.58306332677603
 20
5.902091371710412
 10
11.68430111417547
 20
5.699039783328771
 10
11.7819797443226
 20
5.494252277712801
 10
11.87606946146115
 20
5.287791235081383
 10
11.9665416078642
 20
5.079719545377884
 10
12.05336862197146
 20
4.870100589469075
 10
12.13652405655011
 20
4.658998219179919
 10
12.21598258242011
 20
4.446476738317869
 10
12.29171999543905
 20
4.232600882998665
 10
12.36371322441846
 20
4.017435801972167
 10
12.43194034043699
 20
3.801047036482485
 10
12.49638055916875
 20
3.583500500652006
 10
12.55701425438747
 20
3.364862461399751
 10
12.61382295424118
 20
3.145199517894068
 10
12.66678935429081
 20
2.924578581529202
 10
12.71589732170105
 20
2.703066855669021
 10
12.7611318975687
 20
2.480731814983298
 10
12.80247930157929
 20
2.257641184784004
 10
12.83992694038898
 20
2.033862920536193
 10
12.87346340622753
 20
1.809465187601745
 10
12.90307848388329
 20
1.584516339353284
 10
12.92876315210014
 20
1.359084897558204
 10
12.95050958776846
 20
1.133239530783612
 10
12.96831116592511
 20
0.9070490337908267
 10
12.98216246441006
 20
0.6805823062313721
 10
12.99205926340073
 20
0.4539083322160879
 10
12.99799854960292
 20
0.2270961587200873
 10
12.99997851252556
 20
0.0002148750936612
 10
12.99799854960292
 20
-0.2266664085909724
 10
12.99205926340073
 20
-0.4534785820287654
 10
12.98216246441006
 20
-0.6801525561022573
 10
12.96831116592511
 20
-0.9066192835452966
 10
12.95050958776846
 20
-1.132809780654497
 10
12.92876315210014
 20
-1.358655147429089
 10
12.90307848388329
 20
-1.584086589165963
 10
12.87346340622753
 20
-1.809035437356214
 10
12.83992694038898
 20
-2.033433170465285
 10
12.80247930157929
 20
-2.257211434596681
 10
12.7611318975687
 20
-2.480302064795977
 10
12.71589732170105
 20
-2.702637105539904
 10
12.66678935429081
 20
-2.924148831458296
 10
12.61382295424118
 20
-3.144769767706748
 10
12.55701425438747
 20
-3.364432711270636
 10
12.49638055916875
 20
-3.583070750522892
 10
12.43194034043699
 20
-3.800617286295162
 10
12.36371322441846
 20
-4.017006051843052
 10
12.29171999543905
 20
-4.232171132869551
 10
12.21598258242011
 20
-4.446046988130547
 10
12.13652405655011
 20
-4.658568468992596
 10
12.05336862197146
 20
-4.86967083933996
 10
11.9665416078642
 20
-5.079289795306974
 10
11.87606946146115
 20
-5.287361484894063
 10
11.7819797443226
 20
-5.493822527583688
 10
11.68430111417547
 20
-5.698610033199654
 10
11.58306332677603
 20
-5.901661621523089
 10
11.4782972196117
 20
-6.102915441151707
 10
11.37003470491618
 20
-6.302310188126282
 10
11.25830876175314
 20
-6.499785124906338
 10
11.14315342158079
 20
-6.69528009876376
 10
11.0246037626639
 20
-6.888735559943595
 10
10.90269589563831
 20
-7.080092580174093
 10
10.77746695559472
 20
-7.269292870070785
 10
10.64895508810878
 20
-7.456278797530102
 10
10.51719943946227
 20
-7.640993404784237
 10
10.38224014360457
 20
-7.823380425863432
 10
10.24411830911413
 20
-8.003384304174687
 10
10.1028760112822
 20
-8.180950208567081
 10
9.958556273020805
 20
-8.356024050794076
 10
9.811203055083751
 20
-8.528552501869851
 10
9.660861243959514
 20
-8.698483007610775
 10
9.507576633244751
 20
-8.865763805748429
 10
9.351395917125048
 20
-9.030343940888995
 10
9.192366668023167
 20
-9.192173280403947
 10
9.030537328217176
 20
-9.351202529331203
 10
8.865957193076607
 20
-9.507383245974779
 10
8.698676395229995
 20
-9.660667856165671
 10
8.528745889663696
 20
-9.811009667813776
 10
8.356217438820749
 20
-9.958362885459791
 10
8.181143595837056
 20
-10.10268262383761
 10
8.00357769196853
 20
-10.24392492184415
 10
7.823573813773691
 20
-10.38204675551969
 10
7.641186792403459
 20
-10.51700605184305
 10
7.456472185440361
 20
-10.64876170066418
 10
7.269486257340759
 20
-10.77727356815012
 10
7.080285967793315
 20
-10.90250250819372
 10
6.888928947504607
 20
-11.02441037492826
 10
6.695473486091941
 20
-11.14296003401978
 10
6.499978512525557
 20
-11.25811537413392
 10
6.302503575570881
 20
-11.36984131776261
 10
6.103108828421682
 20
-11.47810383205069
 10
5.901855009142306
 20
-11.58286993944784
 10
5.698803421109912
 20
-11.68410772684729
 10
5.494015914853662
 20
-11.78178635641234
 10
5.287554872687906
 20
-11.8758760743076
 10
5.079483182635158
 20
-11.96634821977932
 10
4.869864226784556
 20
-12.05317523435224
 10
4.658761856611818
 20
-12.13633066939656
 10
4.446240375749766
 20
-12.21578919515013
 10
4.232364520430563
 20
-12.29152660770342
 10
4.017199439462273
 20
-12.36351983679924
 10
3.800810673739761
 20
-12.43174695241032
 10
3.583264137618243
 20
-12.4961871720734
 10
3.364626099355518
 20
-12.55682086665183
 10
3.144963155034929
 20
-12.61362956650555
 10
2.924342218786478
 20
-12.66659596713725
 10
2.702830493450164
 20
-12.71570393443107
 10
2.480495451949536
 20
-12.76093850977486
 10
2.257404821924865
 20
-12.8022859141347
 10
2.033626557793466
 20
-12.83973355265334
 10
1.809228824917225
 20
-12.87327001860831
 10
1.58427997678518
 20
-12.90288509626407
 10
1.358848535455763
 20
-12.92856976477196
 10
1.133003168739376
 20
-12.95031620014924
 10
0.9068126706406474
 20
-12.96811777830589
 10
0.6803459436632693
 20
-12.98196907679084
 10
0.4536719694733621
 20
-12.99186587613076
 10
0.2268597958609462
 20
-12.9978051619837
 10
-0.0000214874744415
 20
-12.99978512490634
 10
-0.2269027708098292
 20
-12.9978051619837
 10
-0.4537149444222452
 20
-12.99186587613076
 10
-0.6803889186121525
 20
-12.98196907679084
 10
-0.906855646520853
 20
-12.96811777830589
 10
-1.133046143688259
 20
-12.95031620014924
 10
-1.358891510404646
 20
-12.92856976477196
 10
-1.584322951734066
 20
-12.90288509626407
 10
-1.80927179986611
 20
-12.87327001860831
 10
-2.033669532742349
 20
-12.83973355265334
 10
-2.257447796873746
 20
-12.8022859141347
 10
-2.480538426898418
 20
-12.76093850977486
 10
-2.702873468399046
 20
-12.71570393443107
 10
-2.924385193735361
 20
-12.66659596713725
 10
-3.145006130449473
 20
-12.61362956650555
 10
-3.364669074304401
 20
-12.55682086665183
 10
-3.583307113498447
 20
-12.4961871720734
 10
-3.800853648688642
 20
-12.43174695241032
 10
-4.017242414411156
 20
-12.36351983679924
 10
-4.232407495379447
 20
-12.29152660770342
 10
-4.446283350698648
 20
-12.21578919515013
 10
-4.658804831560701
 20
-12.13633066939656
 10
-4.86990720173344
 20
-12.05317523435224
 10
-5.07952615758404
 20
-11.96634821977932
 10
-5.287597847636789
 20
-11.8758760743076
 10
-5.494058889802545
 20
-11.78178635641234
 10
-5.698846396058797
 20
-11.68410772684729
 10
-5.901897984091192
 20
-11.58286993944784
 10
-6.103151803370565
 20
-11.47810383205069
 10
-6.302546550985423
 20
-11.36984131776261
 10
-6.500021487474441
 20
-11.25811537413392
 10
-6.695516461040824
 20
-11.14296003401978
 10
-6.888971922453491
 20
-11.02441037492826
 10
-7.080328942742197
 20
-10.90250250819372
 10
-7.269529232289642
 20
-10.77727356815012
 10
-7.456515160389244
 20
-10.64876170066418
 10
-7.641229767352342
 20
-10.51700605184305
 10
-7.823616788722574
 20
-10.38204675551969
 10
-8.003620666917411
 20
-10.24392492184415
 10
-8.181186570785937
 20
-10.10268262383761
 10
-8.356260413769632
 20
-9.958362885459791
 10
-8.528788864612579
 20
-9.811009667813776
 10
-8.698719370178878
 20
-9.660667856165671
 10
-8.866000168025491
 20
-9.507383245974779
 10
-9.030580303631722
 20
-9.351202529331203
 10
-9.192409642972053
 20
-9.192173280403947
 10
-9.351438892073927
 20
-9.030343940888995
 10
-9.507619608193637
 20
-8.865763805748429
 10
-9.660904218908401
 20
-8.698483007610775
 10
-9.811246030032632
 20
-8.528552501869851
 10
-9.958599247969683
 20
-8.356024050794076
 10
-10.10291898623109
 20
-8.180950208567081
 10
-10.24416128452867
 20
-8.003384304174687
 10
-10.38228311855346
 20
-7.823380425863432
 10
-10.51724241441116
 20
-7.640993404784237
 10
-10.64899806305766
 20
-7.456278797530102
 10
-10.7775099305436
 20
-7.269292870070785
 10
-10.9027388705872
 20
-7.080092580174093
 10
-11.02464673761278
 20
-6.888735559943595
 10
-11.14319639652967
 20
-6.69528009876376
 10
-11.25835173670202
 20
-6.499785124906338
 10
-11.37007767986506
 20
-6.302310188126282
 10
-11.47834019456059
 20
-6.102915441151707
 10
-11.58310630172491
 20
-5.901661621523089
 10
-11.68434408912435
 20
-5.698610033199654
 10
-11.78202271927148
 20
-5.493822527583688
 10
-11.87611243641004
 20
-5.287361484894063
 10
-11.96658458281308
 20
-5.079289795306974
 10
-12.05341159692034
 20
-4.86967083933996
 10
-12.13656703243032
 20
-4.658568468992596
 10
-12.21602555736899
 20
-4.446046988130547
 10
-12.29176297038793
 20
-4.232171132869551
 10
-12.36375619936734
 20
-4.017006051843052
 10
-12.43198331538588
 20
-3.800617286295162
 10
-12.49642353504896
 20
-3.583070750522892
 10
-12.55705722933635
 20
-3.364432711270636
 10
-12.61386592919007
 20
-3.144769767706748
 10
-12.66683233017102
 20
-2.924148831458296
 10
-12.71594029758125
 20
-2.702637105539904
 10
-12.76117487251758
 20
-2.480302064795977
 10
-12.80252227652818
 20
-2.257211434596681
 10
-12.83996991533786
 20
-2.033433170465285
 10
-12.87350638117641
 20
-1.809035437356214
 10
-12.90312145883217
 20
-1.584086589165963
 10
-12.92880612751469
 20
-1.358655147429089
 10
-12.95055256271735
 20
-1.132809780654497
 10
-12.968354140874
 20
-0.9066192835452966
 10
-12.98220543935895
 20
-0.6801525561022573
 10
-12.99210223834961
 20
-0.4534785820287654
 10
-12.99804152455181
 20
-0.2266664085909724
 10
-13.00002148747444
 20
0.0002148750936612
 10
-12.99804152455181
 20
0.2270961587200873
 10
-12.99210223834961
 20
0.4539083322160879
 10
-12.98220543935895
 20
0.6805823062313721
 10
-12.968354140874
 20
0.9070490337908267
 10
-12.95055256271735
 20
1.133239530783612
 10
-12.92880612751469
 20
1.359084897558204
 10
-12.90312145883217
 20
1.584516339353284
 10
-12.87350638117641
 20
1.809465187601745
 10
-12.83996991533786
 20
2.033862920536193
 10
-12.80252227652818
 20
2.257641184784004
 10
-12.76117487251758
 20
2.480731814983298
 10
-12.71594029758125
 20
2.703066855669021
 10
-12.66683233017102
 20
2.924578581529202
 10
-12.61386592919007
 20
3.145199517894068
 10
-12.55705722933635
 20
3.364862461399751
 10
-12.49642353504896
 20
3.583500500652006
 10
-12.43198331538588
 20
3.801047036482485
 10
-12.36375619936734
 20
4.017435801972167
 10
-12.29176297038793
 20
4.232600882998665
 10
-12.21602555736899
 20
4.446476738317869
 10
-12.13656703243032
 20
4.658998219179919
 10
-12.05341159692034
 20
4.870100589469075
 10
-11.96658458281308
 20
5.079719545377884
 10
-11.87611243641004
 20
5.287791235081383
 10
-11.78202271927148
 20
5.494252277712801
 10
-11.68434408912435
 20
5.699039783328771
 10
-11.58310630172491
 20
5.902091371710412
 10
-11.47834019456059
 20
6.103345191280822
 10
-11.37007767986506
 20
6.302739938255396
 10
-11.25835173670202
 20
6.500214875093661
 10
-11.14319639652967
 20
6.695709848834668
 10
-11.02464673761278
 20
6.889165310072712
 10
-10.9027388705872
 20
7.080522330303208
 10
-10.7775099305436
 20
7.269722620199901
 10
-10.64899806305766
 20
7.456708547659218
 10
-10.51724241441116
 20
7.641423154913352
 10
-10.38228311855346
 20
7.823810176050756
 10
-10.24416128452867
 20
8.003814054245593
 10
-10.10291898623109
 20
8.181379958696197
 10
-9.958599247969683
 20
8.356453801039606
 10
-9.811246030032632
 20
8.528982251940758
 10
-9.660904218908401
 20
8.69891275773989
 10
-9.507619608193637
 20
8.866193555819336
 10
-9.351438892073927
 20
9.030773691076319
 10
-9.192409642972053
 20
9.192603030533064
 10
-9.030580303631722
 20
9.351632279518526
 10
-8.866000168025491
 20
9.507812996103892
 10
-8.698719370178878
 20
9.66109760623658
 10
-8.528788864612579
 20
9.811439417942892
 10
-8.356260413769632
 20
9.958792635588904
 10
-8.181186570785937
 20
10.10311237402493
 10
-8.003620666917411
 20
10.24435467197327
 10
-7.823616788722574
 20
10.38247650570702
 10
-7.641229767352342
 20
10.51743580197217
 10
-7.456515160389244
 20
10.64919145079329
 10
-7.269529232289642
 20
10.77770331827923
 10
-7.080328942742197
 20
10.90293225838104
 10
-6.888971922453491
 20
11.02484012505738
 10
-6.695516461040824
 20
11.14338978414889
 10
-6.500021487474441
 20
11.25854512426303
 10
-6.302546550985423
 20
11.37027106789173
 10
-6.103151803370565
 20
11.47853358217981
 10
-5.901897984091192
 20
11.58329968951875
 10
-5.698846396058797
 20
11.68453747691819
 10
-5.494058889802545
 20
11.78221610654145
 10
-5.287597847636789
 20
11.87630582443671
 10
-5.07952615758404
 20
11.96677796996664
 10
-4.86990720173344
 20
12.05360498448135
 10
-4.658804831560701
 20
12.13676041952567
 10
-4.446283350698648
 20
12.21621894527925
 10
-4.232407495379447
 20
12.29195635783253
 10
-4.017242414411156
 20
12.36394958692835
 10
-3.800853648688642
 20
12.43217670253943
 10
-3.755481314845383
 20
12.44561660016188
 97
        0
 75
     0
 76
     1
 98
        1
 10
527.2645833333954
 20
437.5583333332906
  0
ENDBLK
  5
2ECB
330
2E91
100
AcDbEntity
  8
经纬网
100
AcDbBlockEnd
  0
BLOCK
  5
8162
330
8161
100
AcDbEntity
  8
0
 62
     1
100
AcDbBlockBegin
  2
0.0000
 70
     0
 10
0.0
 20
0.0
 30
0.0
  3
0.0000
  1

  0
LINE
  5
8164
330
8161
100
AcDbEntity
  8
0
 62
     1
100
AcDbLine
 10
6655.117982071155
 20
20407.64635104736
 30
0.0
 11
6619.231063068612
 21
20371.73391231382
 31
0.0
  0
ARC
  5
8165
330
8161
100
AcDbEntity
  8
0
 62
     1
100
AcDbCircle
 10
6620.13492482441
 20
20371.25700510779
 30
0.0
 40
1.021962111217089
100
AcDbArc
 50
152.1823960986962
 51
226.9951655552616
  0
LINE
  5
8167
330
8161
100
AcDbEntity
  8
0
 62
     1
100
AcDbLine
 10
6619.437885278299
 20
20370.50964814627
 30
0.0
 11
6655.102547643953
 21
20334.86972240774
 31
0.0
  0
LINE
  5
8168
330
8161
100
AcDbEntity
  8
0
 62
     1
100
AcDbLine
 10
6680.886536363846
 20
20334.90558331
 30
0.0
 11
6716.775828796627
 21
20370.82225464511
 31
0.0
  0
LINE
  5
8169
330
8161
100
AcDbEntity
  8
0
 62
     1
100
AcDbLine
 10
6716.775828796627
 20
20370.82225464511
 30
0.0
 11
6716.677345793811
 21
20371.80708467323
 31
0.0
  0
LINE
  5
816A
330
8161
100
AcDbEntity
  8
0
 62
     1
100
AcDbLine
 10
6716.677345793811
 20
20371.80708467323
 30
0.0
 11
6706.878287013998
 21
20381.65538495446
 31
0.0
  0
LINE
  5
816B
330
8161
100
AcDbEntity
  8
0
 62
     1
100
AcDbLine
 10
6706.878287013998
 20
20381.65538495446
 30
0.0
 11
6680.928015772952
 21
20356.14828722608
 31
0.0
  0
LINE
  5
816C
330
8161
100
AcDbEntity
  8
0
 62
     1
100
AcDbLine
 10
6680.928015772952
 20
20356.14828722608
 30
0.0
 11
6678.613665206866
 21
20358.41339629076
 31
0.0
  0
LINE
  5
816D
330
8161
100
AcDbEntity
  8
0
 62
     1
100
AcDbLine
 10
6678.613665206866
 20
20358.41339629076
 30
0.0
 11
6703.919551249448
 21
20383.630674805
 31
0.0
  0
ARC
  5
816E
330
8161
100
AcDbEntity
  8
0
 62
     1
100
AcDbCircle
 10
6702.839163234997
 20
20384.1406488084
 30
0.0
 40
1.194701530059115
100
AcDbArc
 50
334.7313510793638
 51
40.53531009499861
  0
LINE
  5
816F
330
8161
100
AcDbEntity
  8
0
 62
     1
100
AcDbLine
 10
6703.747143065543
 20
20384.91710510032
 30
0.0
 11
6693.886759676097
 21
20394.65673124479
 31
0.0
  0
LINE
  5
8170
330
8161
100
AcDbEntity
  8
0
 62
     1
100
AcDbLine
 10
6693.886759676097
 20
20394.65673124479
 30
0.0
 11
6668.192615263776
 21
20369.02733467205
 31
0.0
  0
LINE
  5
8171
330
8161
100
AcDbEntity
  8
0
 62
     1
100
AcDbLine
 10
6668.192615263776
 20
20369.02733467205
 30
0.0
 11
6665.800093814207
 21
20371.15979944232
 31
0.0
  0
LINE
  5
8172
330
8161
100
AcDbEntity
  8
0
 62
     1
100
AcDbLine
 10
6665.800093814207
 20
20371.15979944232
 30
0.0
 11
6691.33037813456
 21
20396.87836479848
 31
0.0
  0
LINE
  5
8173
330
8161
100
AcDbEntity
  8
0
 62
     1
100
AcDbLine
 10
6691.33037813456
 20
20396.87836479848
 30
0.0
 11
6681.221975010121
 21
20407.51416286854
 31
0.0
  0
LINE
  5
8174
330
8161
100
AcDbEntity
  8
0
 62
     1
100
AcDbLine
 10
6681.221975010121
 20
20407.51416286854
 30
0.0
 11
6644.584389855778
 21
20371.41913596467
 31
0.0
  0
LINE
  5
8175
330
8161
100
AcDbEntity
  8
0
 62
     1
100
AcDbLine
 10
6644.584389855778
 20
20371.41913596467
 30
0.0
 11
6657.427188941277
 21
20358.53632815929
 31
0.0
  0
LINE
  5
8176
330
8161
100
AcDbEntity
  8
0
 62
     1
100
AcDbLine
 10
6657.427188941277
 20
20358.53632815929
 30
0.0
 11
6655.186700627296
 21
20356.17581368562
 31
0.0
  0
LINE
  5
8177
330
8161
100
AcDbEntity
  8
0
 62
     1
100
AcDbLine
 10
6655.186700627296
 20
20356.17581368562
 30
0.0
 11
6640.143421947724
 21
20371.21909236521
 31
0.0
  0
LINE
  5
8178
330
8161
100
AcDbEntity
  8
0
 62
     1
100
AcDbLine
 10
6640.143421947724
 20
20371.21909236521
 30
0.0
 11
6665.127153041656
 21
20396.50908157644
 31
0.0
  0
ARC
  5
8179
330
8161
100
AcDbEntity
  8
0
 62
     1
100
AcDbCircle
 10
6664.508180216536
 20
20397.16484162032
 30
0.0
 40
0.9017475219693359
100
AcDbArc
 50
313.3469732447389
 51
54.28117642289739
  0
LINE
  5
817A
330
8161
100
AcDbEntity
  8
0
 62
     1
100
AcDbLine
 10
6665.034627612593
 20
20397.89696301229
 30
0.0
 11
6655.117982071155
 21
20407.64635104736
 31
0.0
  0
ARC
  5
817B
330
8161
100
AcDbEntity
  8
0
 62
     1
100
AcDbCircle
 10
6664.117445653537
 20
20305.31085305292
 30
0.0
 40
76.63407332764531
100
AcDbArc
 50
101.1383833606066
 51
124.0855445123993
  0
ARC
  5
817C
330
8161
100
AcDbEntity
  8
0
 62
     1
100
AcDbCircle
 10
6667.782291687007
 20
20292.73974035766
 30
0.0
 40
89.57472804885178
100
AcDbArc
 50
58.27459808908496
 51
68.20773888101832
  0
ARC
  5
817D
330
8161
100
AcDbEntity
  8
0
 62
     1
100
AcDbCircle
 10
6667.782291687007
 20
20292.73974035766
 30
0.0
 40
89.57472804885178
100
AcDbArc
 50
70.6202951173492
 51
81.77912581824667
  0
ARC
  5
817E
330
8161
100
AcDbEntity
  8
0
 62
     1
100
AcDbCircle
 10
6667.782291687007
 20
20292.73974035766
 30
0.0
 40
89.57472804885178
100
AcDbArc
 50
84.44366392709442
 51
98.42192702615317
  0
ENDBLK
  5
817F
330
8161
100
AcDbEntity
  8
0
 62
     1
100
AcDbBlockEnd
  0
ENDSEC
  0
SECTION
  2
ENTITIES
  0
INSERT
  5
5816
102
{ACAD_XDICTIONARY
360
5817
102
}
330
1F
100
AcDbEntity
  8
0
 62
     4
370
     0
100
AcDbBlockReference
  2
A$C68FC7CD3
 10
7634.353999382527
 20
1709.886487571542
 30
0.0
 50
248.569689592158
  0
INSERT
  5
7847
330
1F
100
AcDbEntity
  8
图例及图签
 62
     7
 48
1.000000000000000E+16
100
AcDbBlockReference
 66
     1
  2
A$C0F3E0099
 10
-4741.537631013181
 20
-3273.231534125909
 30
0.0
 41
3.0
 42
3.0
 43
3.0
 50
179.6781498592954
  0
SEQEND
  5
7848
330
7847
100
AcDbEntity
  8
0
 48
1.000000000000000E+16
  0
LWPOLYLINE
  5
7E3E
330
1F
100
AcDbEntity
  8
图例及图签
 62
     7
 48
1.000000000000000E+16
370
    20
100
AcDbPolyline
 90
        4
 70
     1
 43
0.0
 10
74.97919018317043
 20
76.03025771808098
 10
2723.878838623287
 20
76.03025774633715
 10
2723.878838617248
 20
642.5882763952467
 10
74.97919018317043
 20
642.8068646559039
  0
LWPOLYLINE
  5
7E3F
330
1F
100
AcDbEntity
  8
图例及图签
 48
1.000000000000000E+16
100
AcDbPolyline
 90
        4
 70
     1
 43
0.0
 10
663.6484702805463
 20
553.5569963676971
 10
818.5556618466362
 20
553.5569963676971
 10
818.5556618466362
 20
473.0853298934562
 10
663.6484702805463
 20
473.0853298934562
  0
LWPOLYLINE
  5
7E40
330
1F
100
AcDbEntity
  8
图例及图签
 48
1.000000000000000E+16
100
AcDbPolyline
 90
        4
 70
     1
 43
0.0
 10
663.6484702805463
 20
253.5569963676971
 10
818.5556618466362
 20
253.5569963676971
 10
818.5556618466362
 20
173.0853298934562
 10
663.6484702805463
 20
173.0853298934562
  0
LINE
  5
7E41
330
1F
100
AcDbEntity
  8
图例及图签
 62
     4
 48
1.000000000000000E+16
100
AcDbLine
 10
914.0231963242056
 20
525.403265379653
 30
0.000000004715112
 11
926.9870653221968
 21
517.8376547697044
 31
0.000000004715112
  0
LINE
  5
7E42
330
1F
100
AcDbEntity
  8
图例及图签
 62
     4
 48
1.000000000000000E+16
100
AcDbLine
 10
926.9870653221968
 20
517.8376547697044
 30
0.000000004715112
 11
957.0070244088928
 21
517.8595787978628
 31
0.000000004715112
  0
LINE
  5
7E43
330
1F
100
AcDbEntity
  8
图例及图签
 62
     4
 48
1.000000000000000E+16
100
AcDbLine
 10
957.0070244088928
 20
517.8595787978628
 30
0.000000004715112
 11
969.9708934068839
 21
525.4251893854598
 31
0.000000004715112
  0
LINE
  5
7E44
330
1F
100
AcDbEntity
  8
图例及图签
 62
     4
 48
1.000000000000000E+16
100
AcDbLine
 10
914.0618194019987
 20
485.9566164467032
 30
0.000000004715112
 11
927.02568839999
 21
493.5222270566518
 31
0.000000004715112
  0
LINE
  5
7E45
330
1F
100
AcDbEntity
  8
图例及图签
 62
     4
 48
1.000000000000000E+16
100
AcDbLine
 10
927.02568839999
 20
493.5222270566518
 30
0.000000004715112
 11
957.0456474866896
 21
493.544151062415
 31
0.000000004715112
  0
LINE
  5
7E46
330
1F
100
AcDbEntity
  8
图例及图签
 62
     4
 48
1.000000000000000E+16
100
AcDbLine
 10
957.0456474866896
 20
493.544151062415
 30
0.000000004715112
 11
970.0095164846809
 21
485.9785404748181
 31
0.000000004715112
  0
LINE
  5
7E47
330
1F
100
AcDbEntity
  8
图例及图签
 62
     1
 48
1.000000000000000E+16
100
AcDbLine
 10
924.6863276766015
 20
505.675065448042
 30
0.000000004715112
 11
959.3205360676147
 21
505.6766997939558
 31
0.000000004715112
  0
LINE
  5
7E48
330
1F
100
AcDbEntity
  8
图例及图签
 62
     1
 48
1.000000000000000E+16
100
AcDbLine
 10
959.3205360676147
 20
505.6766997939558
 30
0.000000004715112
 11
948.9880024839875
 21
508.2273932943862
 31
0.000000004715112
  0
LINE
  5
7E49
330
1F
100
AcDbEntity
  8
图例及图签
 62
     1
 48
1.000000000000000E+16
100
AcDbLine
 10
948.9880024839875
 20
508.2273932943862
 30
0.000000004715112
 11
950.8255434246894
 21
505.6762765137318
 31
0.000000004715112
  0
LINE
  5
7E4A
330
1F
100
AcDbEntity
  8
图例及图签
 62
     1
 48
1.000000000000000E+16
100
AcDbLine
 10
950.8255434246894
 20
505.6762765137318
 30
0.000000004715112
 11
948.9880024839875
 21
503.1260062958681
 31
0.000000004715112
  0
LINE
  5
7E4B
330
1F
100
AcDbEntity
  8
图例及图签
 62
     1
 48
1.000000000000000E+16
100
AcDbLine
 10
948.9880024839875
 20
503.1260062958681
 30
0.000000004715112
 11
959.3205360676147
 21
505.6766997962985
 31
0.000000004715112
  0
MTEXT
  5
7E4C
330
1F
100
AcDbEntity
  8
图例及图签
 62
     1
 48
1.000000000000000E+16
100
AcDbMText
 10
929.6182281407164
 20
502.1443377003087
 30
0.000000004715112
 40
11.39999999999999
 41
0.0
 46
0.0
 71
     1
 72
     5
  1
S
  7
HZ
 11
0.0
 21
1.0
 31
0.0
 73
     1
 44
1.0
1001
ACAD
1000
MTEXTBEGIN
1070
    73
1070
     1
1070
    44
1040
1.0
1070
    74
1070
     0
1000
MTEXTEND
  0
HATCH
  5
7E4D
330
1F
100
AcDbEntity
  8
图例及图签
 62
     1
 48
1.000000000000000E+16
100
AcDbHatch
 10
0.0
 20
0.0
 30
0.000000004715112
210
0.0
220
0.0
230
1.0
  2
SOLID
 70
     1
 71
     0
 91
        2
 92
      137
 93
        4
 72
     1
 10
965.3876058990062
 20
511.8000950818458
 11
947.3879334227458
 21
511.9086802865425
 72
     1
 10
947.3879334227747
 20
511.9086802865585
 11
947.3104881091721
 21
499.0709250567419
 72
     1
 10
947.3104881091513
 20
499.0709250567306
 11
965.3101605854326
 21
498.9623398520278
 72
     1
 10
965.310160585439
 20
498.9623398520342
 11
965.3876058990007
 21
511.8000950818453
 97
        0
 92
       22
 72
     0
 73
     1
 93
        3
 10
959.3205360676147
 20
505.6766997939558
 10
948.9880024839875
 20
508.2273932943862
 10
950.8255272821916
 20
505.6762989248891
 97
        0
 75
     0
 76
     1
 47
0.0
 98
        1
 10
952.2735664671872
 20
506.9594610467246
1001
ACAD
1010
0.0
1020
0.0
1030
0.0
  0
HATCH
  5
7E4E
330
1F
100
AcDbEntity
  8
图例及图签
 62
     1
 48
1.000000000000000E+16
100
AcDbHatch
 10
0.0
 20
0.0
 30
0.000000004715112
210
0.0
220
0.0
230
1.0
  2
SOLID
 70
     1
 71
     0
 91
        2
 92
      137
 93
        4
 72
     1
 10
965.3876058990062
 20
511.8000950818458
 11
947.3879334227458
 21
511.9086802865425
 72
     1
 10
947.3879334227747
 20
511.9086802865585
 11
947.3104881091721
 21
499.0709250567419
 72
     1
 10
947.3104881091513
 20
499.0709250567306
 11
965.3101605854326
 21
498.9623398520278
 72
     1
 10
965.310160585439
 20
498.9623398520342
 11
965.3876058990007
 21
511.8000950818453
 97
        0
 92
       22
 72
     0
 73
     1
 93
        3
 10
950.8245971253726
 20
505.6749631721323
 10
948.9880024839875
 20
503.1260062958681
 10
959.3152149968318
 20
505.6753862345722
 97
        0
 75
     0
 76
     1
 47
0.0
 98
        1
 10
954.0268386766184
 20
504.7963329961567
1001
ACAD
1010
0.0
1020
0.0
1030
0.0
  0
LINE
  5
7E4F
330
1F
100
AcDbEntity
  8
图例及图签
 62
     3
 48
1.000000000000000E+16
100
AcDbLine
 10
942.9480961604786
 20
478.2679134022619
 30
0.000000004715112
 11
942.9477185298964
 21
493.5441510729141
 31
0.000000004715112
  0
HATCH
  5
7E50
330
1F
100
AcDbEntity
  8
图例及图签
 62
     3
 48
1.000000000000000E+16
100
AcDbHatch
 10
0.0
 20
0.0
 30
0.000000004715112
210
0.0
220
0.0
230
1.0
  2
SOLID
 70
     1
 71
     0
 91
        2
 92
      137
 93
        4
 72
     1
 10
936.8230665266983
 20
550.4489534683962
 11
936.7144813219947
 21
532.4492809921347
 72
     1
 10
936.7144813220019
 20
532.4492809921576
 11
949.5522365518281
 21
532.3718356785533
 72
     1
 10
949.5522365518207
 20
532.3718356785538
 11
949.6608217565244
 21
550.3715081548366
 72
     1
 10
949.6608217564881
 20
550.3715081548362
 11
936.8230665266827
 21
550.4489534683965
 97
        0
 92
       22
 72
     0
 73
     1
 93
        3
 10
942.9464618145647
 20
544.3818836370119
 10
940.395768314158
 20
534.0493500533847
 10
942.9468626836532
 20
535.8868748515815
 97
        0
 75
     0
 76
     1
 47
0.0
 98
        1
 10
941.6637005618177
 20
537.3349140365753
1001
ACAD
1010
0.0
1020
0.0
1030
0.0
  0
LINE
  5
7E51
330
1F
100
AcDbEntity
  8
图例及图签
 62
     3
 48
1.000000000000000E+16
100
AcDbLine
 10
942.9464618145647
 20
544.3818836370119
 30
0.000000004715112
 11
940.395768314158
 21
534.0493500533847
 31
0.000000004715112
  0
LINE
  5
7E52
330
1F
100
AcDbEntity
  8
图例及图签
 62
     3
 48
1.000000000000000E+16
100
AcDbLine
 10
945.4971553126759
 20
534.0493500533847
 30
0.000000004715112
 11
942.9464618122363
 21
544.3818836370119
 31
0.000000004715112
  0
HATCH
  5
7E53
330
1F
100
AcDbEntity
  8
图例及图签
 62
     3
 48
1.000000000000000E+16
100
AcDbHatch
 10
0.0
 20
0.0
 30
0.000000004715112
210
0.0
220
0.0
230
1.0
  2
SOLID
 70
     1
 71
     0
 91
        2
 92
      137
 93
        4
 72
     1
 10
936.8230665266983
 20
550.4489534683962
 11
936.7144813219947
 21
532.4492809921347
 72
     1
 10
936.7144813220019
 20
532.4492809921576
 11
949.5522365518281
 21
532.3718356785533
 72
     1
 10
949.5522365518207
 20
532.3718356785538
 11
949.6608217565244
 21
550.3715081548366
 72
     1
 10
949.6608217564881
 20
550.3715081548362
 11
936.8230665266827
 21
550.4489534683965
 97
        0
 92
       22
 72
     0
 73
     1
 93
        3
 10
942.9481984364027
 20
535.8859446947608
 10
945.4971553126759
 20
534.0493500533847
 10
942.9477753739556
 20
544.3765625662345
 97
        0
 75
     0
 76
     1
 47
0.0
 98
        1
 10
943.8268286123877
 20
539.0881862459935
1001
ACAD
1010
0.0
1020
0.0
1030
0.0
  0
LINE
  5
7E54
330
1F
100
AcDbEntity
  8
图例及图签
 62
     3
 48
1.000000000000000E+16
100
AcDbLine
 10
942.9471177032027
 20
517.8493106362801
 30
0.000000004715112
 11
942.9464618145647
 21
544.3818836370119
 31
0.000000004715112
  0
LWPOLYLINE
  5
7E55
330
1F
100
AcDbEntity
  8
图例及图签
 48
1.000000000000000E+16
100
AcDbPolyline
 90
        4
 70
     1
 43
0.0
 10
863.6484702805464
 20
553.5569963676971
 10
1018.555661846636
 20
553.5569963676971
 10
1018.555661846636
 20
473.0853298934562
 10
863.6484702805464
 20
473.0853298934562
  0
TEXT
  5
7E56
330
1F
100
AcDbEntity
  8
图例及图签
370
     0
100
AcDbText
 10
910.5050645398533
 20
434.3032146716686
 30
0.0
 40
20.0
  1
风桥
 50
359.9999997865572
  7
样式 3
100
AcDbText
1001
ZWMCAD_GENSCA_13_
1070
     1
1040
1.0
1001
ZWMCAD_GENSTANDARDFRAME_13_
1070
   410
1000
GB
1070
   411
1000
ZwmFrameMain_
  0
LWPOLYLINE
  5
7E57
330
1F
100
AcDbEntity
  8
图例及图签
 48
1.000000000000000E+16
100
AcDbPolyline
 90
        4
 70
     1
 43
0.0
 10
863.6484702805464
 20
403.5569963676971
 10
1018.555661846636
 20
403.5569963676971
 10
1018.555661846636
 20
323.0853298934562
 10
863.6484702805464
 20
323.0853298934562
  0
LINE
  5
7E58
330
1F
100
AcDbEntity
  8
图例及图签
 62
     4
370
    -3
100
AcDbLine
 10
969.4726233301716
 20
361.2408398518819
 30
0.0
 11
969.4726233301716
 21
367.2448433505851
 31
0.0
  0
LINE
  5
7E59
330
1F
100
AcDbEntity
  8
图例及图签
 62
     4
370
    -3
100
AcDbLine
 10
969.4726233301716
 20
361.2408398518819
 30
0.0
 11
969.4726233301716
 21
367.2448433505851
 31
0.0
  0
LINE
  5
7E5A
330
1F
100
AcDbEntity
  8
图例及图签
 62
     4
370
    -3
100
AcDbLine
 10
938.1725398293726
 20
364.2428416012335
 30
0.0
 11
969.4726233301716
 21
364.2428416012335
 31
0.0
  0
LINE
  5
7E5B
330
1F
100
AcDbEntity
  8
图例及图签
 62
     4
370
    -3
100
AcDbLine
 10
938.1725398293726
 20
364.2428416012335
 30
0.0
 11
969.4726233301716
 21
364.2428416012335
 31
0.0
  0
LINE
  5
7E5C
330
1F
100
AcDbEntity
  8
图例及图签
 62
     4
370
    -3
100
AcDbLine
 10
938.1725398293726
 20
361.2408398518819
 30
0.0
 11
938.1725398293726
 21
367.2448433505851
 31
0.0
  0
LINE
  5
7E5D
330
1F
100
AcDbEntity
  8
图例及图签
 62
     4
370
    -3
100
AcDbLine
 10
938.1725398293726
 20
361.2408398518819
 30
0.0
 11
938.1725398293726
 21
367.2448433505851
 31
0.0
  0
LINE
  5
7E5E
330
1F
100
AcDbEntity
  8
图例及图签
 62
     4
370
    -3
100
AcDbLine
 10
932.9938236533562
 20
361.2714232224025
 30
0.0
 11
932.9938236533562
 21
367.2754267211058
 31
0.0
  0
LINE
  5
7E5F
330
1F
100
AcDbEntity
  8
图例及图签
 62
     4
370
    -3
100
AcDbLine
 10
932.9938236533562
 20
361.2714232224025
 30
0.0
 11
932.9938236533562
 21
367.2754267211058
 31
0.0
  0
LINE
  5
7E60
330
1F
100
AcDbEntity
  8
图例及图签
 62
     4
370
    -3
100
AcDbLine
 10
901.6937401525574
 20
364.2734249717542
 30
0.0
 11
932.9938236533562
 21
364.2734249717542
 31
0.0
  0
LINE
  5
7E61
330
1F
100
AcDbEntity
  8
图例及图签
 62
     4
370
    -3
100
AcDbLine
 10
901.6937401525574
 20
364.2734249717542
 30
0.0
 11
932.9938236533562
 21
364.2734249717542
 31
0.0
  0
LINE
  5
7E62
330
1F
100
AcDbEntity
  8
图例及图签
 62
     4
370
    -3
100
AcDbLine
 10
901.6937401525574
 20
361.2714232224025
 30
0.0
 11
901.6937401525574
 21
367.2754267211058
 31
0.0
  0
LINE
  5
7E63
330
1F
100
AcDbEntity
  8
图例及图签
 62
     4
370
    -3
100
AcDbLine
 10
901.6937401525574
 20
361.2714232224025
 30
0.0
 11
901.6937401525574
 21
367.2754267211058
 31
0.0
  0
LINE
  5
7E64
330
1F
100
AcDbEntity
  8
图例及图签
 62
     4
370
    -3
100
AcDbLine
 10
977.7509258964347
 20
354.346736663385
 30
-0.0000000022890695
 11
898.0446711454206
 21
354.2420714561158
 31
-0.0000000023167346
  0
LINE
  5
7E65
330
1F
100
AcDbEntity
  8
图例及图签
 62
     4
370
    -3
100
AcDbLine
 10
977.7509258964347
 20
372.3467128400443
 30
0.0
 11
898.0446711454206
 21
372.2420475937033
 31
0.0
  0
TEXT
  5
7E66
330
1F
100
AcDbEntity
  8
图例及图签
370
     0
100
AcDbText
 10
910.5050645398533
 20
284.3032146716687
 30
0.0
 40
20.0
  1
风筒
 50
359.9999997865572
  7
样式 3
100
AcDbText
1001
ZWMCAD_GENSCA_13_
1070
     1
1040
1.0
1001
ZWMCAD_GENSTANDARDFRAME_13_
1070
   410
1000
GB
1070
   411
1000
ZwmFrameMain_
  0
LINE
  5
7E67
330
1F
100
AcDbEntity
  8
图例及图签
 62
     1
370
     0
100
AcDbLine
 10
899.420842997206
 20
214.8829839813989
 30
0.0
 11
984.3060717132029
 21
215.0020214947908
 31
0.0
1001
AcDbBlockRepETag
1070
     1
1071
        1
1005
7E67
  0
LINE
  5
7E68
330
1F
100
AcDbEntity
  8
图例及图签
 62
     1
370
     0
100
AcDbLine
 10
984.306071713183
 20
215.0020214929245
 30
0.0
 11
967.0428115876202
 21
210.9263369834152
 31
0.0
1001
AcDbBlockRepETag
1070
     1
1071
        2
1005
7E68
  0
LINE
  5
7E69
330
1F
100
AcDbEntity
  8
图例及图签
 62
     1
370
    35
100
AcDbLine
 10
984.3060717132248
 20
215.002021496839
 30
0.0
 11
967.1293367449687
 21
219.4282083675425
 31
0.0
1001
AcDbBlockRepETag
1070
     1
1071
        4
1005
7E69
  0
LINE
  5
7E6A
330
1F
100
AcDbEntity
  8
图例及图签
  6
DASH
 62
     1
 48
1.000000000000000E+16
100
AcDbLine
 10
967.1293367449687
 20
219.4282083675425
 30
0.0
 11
970.2634329178037
 21
214.9823290132044
 31
0.0
1001
AcDbBlockRepETag
1070
     1
1071
        6
1005
0
  0
LINE
  5
7E6B
330
1F
100
AcDbEntity
  8
图例及图签
  6
DASH
 62
     1
 48
1.000000000000000E+16
100
AcDbLine
 10
970.2634329178037
 20
214.9823290132044
 30
0.0
 11
967.0428115876147
 21
210.9263369834189
 31
0.0
1001
AcDbBlockRepETag
1070
     1
1071
        7
1005
0
  0
HATCH
  5
7E6C
330
1F
100
AcDbEntity
  8
图例及图签
  6
DASH
 62
     1
 48
1.000000000000000E+16
100
AcDbHatch
 10
0.0
 20
0.0
 30
0.0
210
0.0
220
0.0
230
1.0
  2
SOLID
 70
     1
 71
     0
 91
        2
 92
        7
 72
     0
 73
     1
 93
        3
 10
967.1293367449687
 20
219.4282083675425
 10
984.3060717132029
 20
215.0020214947908
 10
970.2634329178037
 20
214.9823290132044
 97
        0
 92
        7
 72
     0
 73
     1
 93
        3
 10
970.2634329178037
 20
214.9823290132008
 10
967.0428115876202
 20
210.9263369834152
 10
984.3060717132029
 20
215.0020214947908
 97
        0
 75
     0
 76
     1
 47
0.0386104166187426
 98
        2
 10
974.1256644109837
 20
215.232888880455
 10
973.1947447020299
 20
214.8173144829562
1001
ACAD
1010
0.0
1020
0.0
1030
0.0
1001
AcDbBlockRepETag
1070
     1
1071
        8
1005
0
  0
TEXT
  5
7E6D
330
1F
100
AcDbEntity
  8
图例及图签
 62
     1
 48
1.000000000000000E+16
100
AcDbText
 10
927.635115287887
 20
221.9164348691484
 30
0.0
 40
20.0
  1
S
 50
270.0
  7
HZ
100
AcDbText
  0
LWPOLYLINE
  5
7E6E
330
1F
100
AcDbEntity
  8
图例及图签
 48
1.000000000000000E+16
100
AcDbPolyline
 90
        4
 70
     1
 43
0.0
 10
863.6484702805464
 20
253.5569963676971
 10
1018.555661846636
 20
253.5569963676971
 10
1018.555661846636
 20
173.0853298934562
 10
863.6484702805464
 20
173.0853298934562
  0
TEXT
  5
7E6F
330
1F
100
AcDbEntity
  8
图例及图签
370
     0
100
AcDbText
 10
884.4959480210528
 20
134.3032146716687
 30
0.0
 40
20.0
  1
回风风流
 50
359.9999997865572
  7
样式 3
100
AcDbText
1001
ZWMCAD_GENSCA_13_
1070
     1
1040
1.0
1001
ZWMCAD_GENSTANDARDFRAME_13_
1070
   410
1000
GB
1070
   411
1000
ZwmFrameMain_
  0
LWPOLYLINE
  5
7E70
330
1F
100
AcDbEntity
  8
图例及图签
 48
1.000000000000000E+16
100
AcDbPolyline
 90
        4
 70
     1
 43
0.0
 10
1063.648470280546
 20
553.5569963676971
 10
1218.555661846636
 20
553.5569963676971
 10
1218.555661846636
 20
473.0853298934562
 10
1063.648470280546
 20
473.0853298934562
  0
HATCH
  5
7E71
330
1F
100
AcDbEntity
  8
图例及图签
 62
    30
370
    -3
100
AcDbHatch
 10
0.0
 20
0.0
 30
0.0
210
0.0
220
0.0
230
1.0
  2
SOLID
 70
     1
 71
     0
 91
        2
 92
        7
 72
     1
 73
     1
 93
        4
 10
1147.567914452309
 20
521.4392450491068
 42
0.5657727783232383
 10
1133.481268379743
 20
515.1457428971424
 42
0.1989123673740825
 10
1135.330574136133
 20
508.5105147102948
 42
0.0
 10
1142.415350209827
 20
514.060438461798
 42
0.0
 97
        0
 92
        7
 72
     1
 73
     1
 93
        3
 10
1149.500126171762
 20
519.6103622691806
 42
0.0743128366356524
 10
1147.567914452309
 20
521.4392450491068
 42
0.0
 10
1142.415350209827
 20
514.060438461798
 42
0.0
 97
        0
 75
     0
 76
     1
 47
0.0202471229033101
 98
        2
 10
1137.431900430376
 20
515.1660536790367
 10
1147.014246027822
 20
518.4078990446505
  0
LWPOLYLINE
  5
7E72
330
1F
100
AcDbEntity
  8
图例及图签
 62
    30
370
    -3
100
AcDbPolyline
 90
        2
 70
     0
 43
0.0
 10
1145.957738134917
 20
516.8354004213688
 10
1138.872962150628
 20
511.2854766251621
  0
CIRCLE
  5
7E73
330
1F
100
AcDbEntity
  8
图例及图签
 62
    30
370
    50
100
AcDbCircle
 10
1142.415350209827
 20
514.060438461798
 30
0.0
 40
8.999761326329609
  0
CIRCLE
  5
7E74
330
1F
100
AcDbEntity
  8
图例及图签
 62
    30
370
    50
100
AcDbCircle
 10
1142.415350209827
 20
514.060438461798
 30
0.0
 40
31.10738621191905
  0
ARC
  5
7E75
330
1F
100
AcDbEntity
  8
图例及图签
 62
    30
370
    50
100
AcDbCircle
 10
1142.415350142774
 20
514.0604385232656
 30
0.0
 40
15.0
100
AcDbArc
 50
280.114206109229
 51
279.6037761179944
  0
TEXT
  5
7E76
330
1F
100
AcDbEntity
  8
图例及图签
370
     0
100
AcDbText
 10
1084.495948021054
 20
434.3032146716686
 30
0.0
 40
20.0
  1
回风立井
 50
359.9999997865572
  7
样式 3
100
AcDbText
1001
ZWMCAD_GENSCA_13_
1070
     1
1040
1.0
1001
ZWMCAD_GENSTANDARDFRAME_13_
1070
   410
1000
GB
1070
   411
1000
ZwmFrameMain_
  0
LINE
  5
7E77
102
{ACAD_REACTORS
330
7E7C
102
}
330
1F
100
AcDbEntity
  8
图例及图签
 62
     3
 48
2.0
370
     0
100
AcDbLine
 10
1094.561763331657
 20
363.1609132910162
 30
0.0
 11
1194.464063439171
 21
363.1621477291265
 31
0.0
1001
AcDbBlockRepETag
1070
     1
1071
        1
1005
7E77
  0
LINE
  5
7E78
102
{ACAD_REACTORS
330
7E7C
102
}
330
1F
100
AcDbEntity
  8
图例及图签
 62
     3
 48
2.0
370
     0
100
AcDbLine
 10
1094.561763346566
 20
363.1621477291265
 30
0.0
 11
1117.54849271378
 21
368.7258607399563
 31
0.0
1001
AcDbBlockRepETag
1070
     1
1071
        2
1005
7E78
  0
LINE
  5
7E79
102
{ACAD_REACTORS
330
7E7C
102
}
330
1F
100
AcDbEntity
  8
图例及图签
 62
     3
 48
2.0
370
     0
100
AcDbLine
 10
1094.561763346566
 20
363.1621477291265
 30
0.0
 11
1117.54849271378
 21
357.5984347182967
 31
0.0
1001
AcDbBlockRepETag
1070
     1
1071
        4
1005
7E79
  0
LINE
  5
7E7A
102
{ACAD_REACTORS
330
7E7C
102
}
330
1F
100
AcDbEntity
  8
图例及图签
  6
DASH
 62
     3
 48
1.000000000000000E+16
100
AcDbLine
 10
1117.54849271378
 20
368.7258607399563
 30
0.0
 11
1113.186177735037
 21
363.1611434227234
 31
0.0
1001
AcDbBlockRepETag
1070
     1
1071
        5
1005
7E7A
  0
LINE
  5
7E7B
102
{ACAD_REACTORS
330
7E7C
102
}
330
1F
100
AcDbEntity
  8
图例及图签
  6
DASH
 62
     3
 48
1.000000000000000E+16
100
AcDbLine
 10
1113.186177735037
 20
363.1611434227234
 30
0.0
 11
1117.54849271378
 21
357.5984347182967
 31
0.0
1001
AcDbBlockRepETag
1070
     1
1071
        6
1005
7E7B
  0
HATCH
  5
7E7C
330
1F
100
AcDbEntity
  8
图例及图签
  6
DASH
 62
     3
 48
1.000000000000000E+16
100
AcDbHatch
 10
0.0
 20
0.0
 30
0.0
210
0.0
220
0.0
230
1.0
  2
SOLID
 70
     1
 71
     1
 91
        2
 92
        7
 72
     0
 73
     1
 93
        4
 10
1113.186177735037
 20
363.1611434227238
 10
1117.54849271378
 20
368.7258607399563
 10
1094.561763346566
 20
363.1621477291265
 10
1094.566863222523
 20
363.1609133540327
 97
        4
330
7E7A
330
7E78
330
7E79
330
7E77
 92
        7
 72
     0
 73
     1
 93
        3
 10
1117.54849271378
 20
357.5984347182967
 10
1113.186177735036
 20
363.1611434227238
 10
1094.566863222523
 20
363.1609133540327
 97
        3
330
7E7B
330
7E77
330
7E79
 75
     0
 76
     1
 47
0.0524821823897721
 98
        2
 10
-49412.92626659127
 20
13164.05019249705
 10
-49412.55860073332
 20
13161.79346854491
1001
ACAD
1010
0.0
1020
0.0
1030
0.0
1001
AcDbBlockRepETag
1070
     1
1071
        7
1005
7E7C
  0
LWPOLYLINE
  5
7E7D
330
1F
100
AcDbEntity
  8
图例及图签
 48
1.000000000000000E+16
100
AcDbPolyline
 90
        4
 70
     1
 43
0.0
 10
1063.648470280546
 20
403.5569963676971
 10
1218.555661846636
 20
403.5569963676971
 10
1218.555661846636
 20
323.0853298934562
 10
1063.648470280546
 20
323.0853298934562
  0
TEXT
  5
7E7E
330
1F
100
AcDbEntity
  8
图例及图签
370
     0
100
AcDbText
 10
1084.495948021054
 20
284.3032146716687
 30
0.0
 40
20.0
  1
进风风流
 50
359.9999997865572
  7
样式 3
100
AcDbText
1001
ZWMCAD_GENSCA_13_
1070
     1
1040
1.0
1001
ZWMCAD_GENSTANDARDFRAME_13_
1070
   410
1000
GB
1070
   411
1000
ZwmFrameMain_
  0
TEXT
  5
7E7F
330
1F
100
AcDbEntity
  8
图例及图签
370
     0
100
AcDbText
 10
1087.183857340498
 20
134.3032146716687
 30
0.0
 40
20.0
  1
局部风机
 50
359.9999997865572
  7
样式 3
100
AcDbText
1001
ZWMCAD_GENSCA_13_
1070
     1
1040
1.0
1001
ZWMCAD_GENSTANDARDFRAME_13_
1070
   410
1000
GB
1070
   411
1000
ZwmFrameMain_
  0
LWPOLYLINE
  5
7E80
330
1F
100
AcDbEntity
  8
图例及图签
 48
1.000000000000000E+16
100
AcDbPolyline
 90
        4
 70
     1
 43
0.0
 10
1063.648470280546
 20
253.5569963676971
 10
1218.555661846636
 20
253.5569963676971
 10
1218.555661846636
 20
173.0853298934562
 10
1063.648470280546
 20
173.0853298934562
  0
LWPOLYLINE
  5
7E81
330
1F
100
AcDbEntity
  8
图例及图签
 48
1.000000000000000E+16
100
AcDbPolyline
 90
        4
 70
     1
 43
0.0
 10
1263.648470280546
 20
553.5569963676971
 10
1418.555661846636
 20
553.5569963676971
 10
1418.555661846636
 20
473.0853298934562
 10
1263.648470280546
 20
473.0853298934562
  0
LINE
  5
7E82
330
1F
100
AcDbEntity
  8
图例及图签
  6
ByBlock
 62
    30
370
    50
100
AcDbLine
 10
1351.74874675463
 20
541.2094075935092
 30
0.0
 11
1401.309928404182
 21
541.2094075934946
 31
0.0
  0
LINE
  5
7E83
330
1F
100
AcDbEntity
  8
图例及图签
  6
ByBlock
 62
    30
370
    50
100
AcDbLine
 10
1276.226943509653
 20
495.24054078888
 30
0.0
 11
1309.857751296835
 21
495.24054078888
 31
0.0
  0
LINE
  5
7E84
330
1F
100
AcDbEntity
  8
图例及图签
  6
ByBlock
 62
    30
370
    50
100
AcDbLine
 10
1401.309928404182
 20
541.2094075934946
 30
0.0
 11
1372.399243759006
 21
512.3315444322287
 31
0.0
  0
LINE
  5
7E85
330
1F
100
AcDbEntity
  8
图例及图签
  6
ByBlock
 62
    30
370
    50
100
AcDbLine
 10
1347.618652941674
 20
518.2249741902559
 30
0.0
 11
1351.74874675463
 21
541.2094075935092
 31
0.0
  0
ARC
  5
7E86
330
1F
100
AcDbEntity
  8
图例及图签
  6
ByBlock
 62
    30
370
    50
100
AcDbCircle
 10
1309.267749803141
 20
566.9002382377148
 30
0.0
 40
83.44655696549727
100
AcDbArc
 50
270.0
 51
319.1609914701018
  0
ARC
  5
7E87
330
1F
100
AcDbEntity
  8
图例及图签
  6
ByBlock
 62
    30
370
    50
100
AcDbCircle
 10
1309.857751296835
 20
537.7512661138535
 30
0.0
 40
42.51072532369508
100
AcDbArc
 50
270.0
 51
332.6563597520542
  0
LINE
  5
7E88
330
1F
100
AcDbEntity
  8
图例及图签
  6
ByBlock
 62
    30
370
    50
100
AcDbLine
 10
1309.267749803141
 20
483.4536812728256
 30
0.0
 11
1275.907782721057
 21
483.4536812728256
 31
0.0
  0
TEXT
  5
7E89
330
1F
100
AcDbEntity
  8
图例及图签
370
     0
100
AcDbText
 10
1293.908231548936
 20
434.3032146716686
 30
0.0
 40
20.0
  1
扩散器
 50
359.9999997865572
  7
样式 3
100
AcDbText
1001
ZWMCAD_GENSCA_13_
1070
     1
1040
1.0
1001
ZWMCAD_GENSTANDARDFRAME_13_
1070
   410
1000
GB
1070
   411
1000
ZwmFrameMain_
  0
LWPOLYLINE
  5
7E8A
330
1F
100
AcDbEntity
  8
图例及图签
 48
1.000000000000000E+16
100
AcDbPolyline
 90
        4
 70
     1
 43
0.0
 10
1263.648470280546
 20
403.5569963676971
 10
1418.555661846636
 20
403.5569963676971
 10
1418.555661846636
 20
323.0853298934562
 10
1263.648470280546
 20
323.0853298934562
  0
TEXT
  5
7E8B
330
1F
100
AcDbEntity
  8
图例及图签
370
     0
100
AcDbText
 10
1256.006332426843
 20
284.3032146716687
 30
0.0
 40
20.0
  1
临时单向风门
 50
359.9999997865572
  7
样式 3
100
AcDbText
1001
ZWMCAD_GENSCA_13_
1070
     1
1040
1.0
1001
ZWMCAD_GENSTANDARDFRAME_13_
1070
   410
1000
GB
1070
   411
1000
ZwmFrameMain_
  0
LWPOLYLINE
  5
7E8C
330
1F
100
AcDbEntity
  8
图例及图签
 48
1.000000000000000E+16
100
AcDbPolyline
 90
        4
 70
     1
 43
0.0
 10
1263.648470280546
 20
253.5569963676971
 10
1418.555661846636
 20
253.5569963676971
 10
1418.555661846636
 20
173.0853298934562
 10
1263.648470280546
 20
173.0853298934562
  0
TEXT
  5
7E8D
330
1F
100
AcDbEntity
  8
图例及图签
370
     0
100
AcDbText
 10
1284.495948021053
 20
134.3032146716687
 30
0.0
 40
20.0
  1
临时密闭
 50
359.9999997865572
  7
样式 3
100
AcDbText
1001
ZWMCAD_GENSCA_13_
1070
     1
1040
1.0
1001
ZWMCAD_GENSTANDARDFRAME_13_
1070
   410
1000
GB
1070
   411
1000
ZwmFrameMain_
  0
LWPOLYLINE
  5
7E8E
330
1F
100
AcDbEntity
  8
图例及图签
 48
1.000000000000000E+16
100
AcDbPolyline
 90
        4
 70
     1
 43
0.0
 10
1463.648470280546
 20
553.5569963676971
 10
1618.555661846636
 20
553.5569963676971
 10
1618.555661846636
 20
473.0853298934562
 10
1463.648470280546
 20
473.0853298934562
  0
ARC
  5
7E8F
330
1F
100
AcDbEntity
  8
图例及图签
 62
     4
 48
1.000000000000000E+16
100
AcDbCircle
 10
1546.495700329369
 20
513.1541343584395
 30
0.0
 40
19.92082388687595
100
AcDbArc
 50
270.0
 51
90.0
  0
LINE
  5
7E90
330
1F
100
AcDbEntity
  8
图例及图签
 62
     4
 48
1.000000000000000E+16
100
AcDbLine
 10
1546.495700329369
 20
493.2333104715799
 30
0.0
 11
1546.495700329369
 21
473.3400977951458
 31
0.0
  0
LINE
  5
7E91
330
1F
100
AcDbEntity
  8
图例及图签
 62
     4
 48
1.000000000000000E+16
100
AcDbLine
 10
1546.495700329369
 20
552.9681709217546
 30
0.0
 11
1546.495700329369
 21
533.0749582453209
 31
0.0
  0
TEXT
  5
7E92
330
1F
100
AcDbEntity
  8
图例及图签
370
     0
100
AcDbText
 10
1456.945550523349
 20
434.3032146716686
 30
0.0
 40
20.0
  1
临时调节风门
 50
359.9999997865572
  7
样式 3
100
AcDbText
1001
ZWMCAD_GENSCA_13_
1070
     1
1040
1.0
1001
ZWMCAD_GENSTANDARDFRAME_13_
1070
   410
1000
GB
1070
   411
1000
ZwmFrameMain_
  0
LINE
  5
7E93
330
1F
100
AcDbEntity
  8
图例及图签
  6
井田边界
 62
     4
 48
100.0
370
    -3
100
AcDbLine
 10
1502.510845765864
 20
372.2179902608514
 30
0.0
 11
1585.547401294505
 21
372.5947411435663
 31
0.0
  0
LWPOLYLINE
  5
7E94
330
1F
100
AcDbEntity
  8
图例及图签
  6
井田边界
 62
     4
 48
100.0
370
    -3
100
AcDbPolyline
 90
        4
 70
     0
 43
0.0
 10
1568.1608185027
 20
372.5272959436296
 10
1556.469041079675
 20
354.5877142327845
 10
1531.864953026568
 20
354.4992225433706
 10
1520.074306428827
 20
372.3091194855988
  0
LWPOLYLINE
  5
7E95
330
1F
100
AcDbEntity
  8
图例及图签
  6
井田边界
 62
     4
 48
100.0
370
    -3
100
AcDbPolyline
 90
        4
 70
     0
 43
0.0
 10
1508.120869972205
 20
372.2496083418846
 10
1526.505201146399
 20
344.4798808510423
 10
1561.900724992549
 20
344.6071852895439
 10
1580.132520705854
 20
372.5816135372042
  0
LINE
  5
7E96
330
1F
100
AcDbEntity
  8
图例及图签
  6
井田边界
 62
     4
 48
100.0
370
    -3
100
AcDbLine
 10
1502.510845742538
 20
372.2179902608514
 30
0.0
 11
1585.547401271178
 21
372.5947411435663
 31
0.0
  0
LWPOLYLINE
  5
7E97
330
1F
100
AcDbEntity
  8
图例及图签
  6
井田边界
 62
     4
 48
100.0
370
    -3
100
AcDbPolyline
 90
        4
 70
     0
 43
0.0
 10
1568.160818479373
 20
372.5272959436296
 10
1556.469041056349
 20
354.5877142327845
 10
1531.864953003242
 20
354.4992225433706
 10
1520.074306405498
 20
372.3091194855988
  0
LWPOLYLINE
  5
7E98
330
1F
100
AcDbEntity
  8
图例及图签
  6
井田边界
 62
     4
 48
100.0
370
    -3
100
AcDbPolyline
 90
        4
 70
     0
 43
0.0
 10
1508.120869948878
 20
372.2496083418846
 10
1526.505201123073
 20
344.4798808510423
 10
1561.900724969222
 20
344.6071852895439
 10
1580.132520682528
 20
372.5816135372042
  0
LWPOLYLINE
  5
7E99
330
1F
100
AcDbEntity
  8
图例及图签
 48
1.000000000000000E+16
100
AcDbPolyline
 90
        4
 70
     1
 43
0.0
 10
1463.648470280546
 20
403.5569963676971
 10
1618.555661846636
 20
403.5569963676971
 10
1618.555661846636
 20
323.0853298934562
 10
1463.648470280546
 20
323.0853298934562
  0
TEXT
  5
7E9A
330
1F
100
AcDbEntity
  8
图例及图签
370
     0
100
AcDbText
 10
1510.505064539851
 20
284.3032146716687
 30
0.0
 40
20.0
  1
水仓
 50
359.9999997865572
  7
样式 3
100
AcDbText
1001
ZWMCAD_GENSCA_13_
1070
     1
1040
1.0
1001
ZWMCAD_GENSTANDARDFRAME_13_
1070
   410
1000
GB
1070
   411
1000
ZwmFrameMain_
  0
LWPOLYLINE
  5
7E9B
330
1F
100
AcDbEntity
  8
图例及图签
 48
1.000000000000000E+16
100
AcDbPolyline
 90
        4
 70
     1
 43
0.0
 10
1463.648470280546
 20
253.5569963676971
 10
1618.555661846636
 20
253.5569963676971
 10
1618.555661846636
 20
173.0853298934562
 10
1463.648470280546
 20
173.0853298934562
  0
TEXT
  5
7E9C
330
1F
100
AcDbEntity
  8
图例及图签
370
     0
100
AcDbText
 10
1484.495948021053
 20
134.3032146716687
 30
0.0
 40
20.0
  1
调节风窗
 50
359.9999997865572
  7
样式 3
100
AcDbText
1001
ZWMCAD_GENSCA_13_
1070
     1
1040
1.0
1001
ZWMCAD_GENSTANDARDFRAME_13_
1070
   410
1000
GB
1070
   411
1000
ZwmFrameMain_
  0
TEXT
  5
7E9D
330
1F
100
AcDbEntity
  8
图例及图签
370
     0
100
AcDbText
 10
1687.183857340496
 20
434.3032146716686
 30
0.0
 40
20.0
  1
网络节点
 50
359.9999997865572
  7
样式 3
100
AcDbText
1001
ZWMCAD_GENSCA_13_
1070
     1
1040
1.0
1001
ZWMCAD_GENSTANDARDFRAME_13_
1070
   410
1000
GB
1070
   411
1000
ZwmFrameMain_
  0
CIRCLE
  5
7E9E
330
1F
100
AcDbEntity
  8
图例及图签
 62
     6
370
    -3
100
AcDbCircle
 10
1741.833830554948
 20
513.639584403616
 30
348.0
 40
34.32009048847645
  0
LWPOLYLINE
  5
7E9F
330
1F
100
AcDbEntity
  8
图例及图签
 48
1.000000000000000E+16
100
AcDbPolyline
 90
        4
 70
     1
 43
0.0
 10
1663.648470280546
 20
553.5569963676971
 10
1818.555661846636
 20
553.5569963676971
 10
1818.555661846636
 20
473.0853298934562
 10
1663.648470280546
 20
473.0853298934562
  0
LWPOLYLINE
  5
7EA0
330
1F
100
AcDbEntity
  8
图例及图签
 48
1.000000000000000E+16
100
AcDbPolyline
 90
        4
 70
     1
 43
0.0
 10
1663.648470280546
 20
403.5569963676971
 10
1818.555661846636
 20
403.5569963676971
 10
1818.555661846636
 20
323.0853298934562
 10
1663.648470280546
 20
323.0853298934562
  0
TEXT
  5
7EA1
330
1F
100
AcDbEntity
  8
图例及图签
370
     0
100
AcDbText
 10
1667.84344639478
 20
284.3032146716687
 30
0.0
 40
20.0
  1
消防材料库
 50
359.9999997865572
  7
样式 3
100
AcDbText
1001
ZWMCAD_GENSCA_13_
1070
     1
1040
1.0
1001
ZWMCAD_GENSTANDARDFRAME_13_
1070
   410
1000
GB
1070
   411
1000
ZwmFrameMain_
  0
ARC
  5
7EA2
330
1F
100
AcDbEntity
  8
图例及图签
 62
     4
370
     0
100
AcDbCircle
 10
1740.957920587163
 20
359.3522473562625
 30
0.0
 40
16.53915435355398
100
AcDbArc
 50
21.85456256474907
 51
152.4459081594935
1001
AcDbBlockRepETag
1000

  0
LINE
  5
7EA3
330
1F
100
AcDbEntity
  8
图例及图签
 62
     4
 48
1.000000000000000E+16
370
    -3
100
AcDbLine
 10
1726.294727920474
 20
367.0030255879465
 30
0.0
 11
1725.642115721486
 21
347.6651720502778
 31
0.0
  0
LINE
  5
7EA4
330
1F
100
AcDbEntity
  8
图例及图签
 62
     4
 48
1.000000000000000E+16
370
    -3
100
AcDbLine
 10
1725.870004305041
 20
354.4178439413154
 30
0.0
 11
1733.275874557825
 21
353.9660995415834
 31
0.0
  0
LINE
  5
7EA5
330
1F
100
AcDbEntity
  8
图例及图签
 62
     4
 48
1.000000000000000E+16
370
    -3
100
AcDbLine
 10
1733.275874557825
 20
353.9660995415834
 30
0.0
 11
1732.939936091199
 21
347.2206929784225
 31
0.0
  0
LINE
  5
7EA6
330
1F
100
AcDbEntity
  8
图例及图签
 62
     4
 48
1.000000000000000E+16
370
    -3
100
AcDbLine
 10
1725.642115721486
 20
347.6651720502778
 30
0.0
 11
1755.697750282832
 21
346.5057841143353
 31
0.0
  0
LINE
  5
7EA7
330
1F
100
AcDbEntity
  8
图例及图签
 62
     4
 48
1.000000000000000E+16
370
    -3
100
AcDbLine
 10
1755.697750282832
 20
346.5057841143353
 30
0.0
 11
1756.308434921615
 21
365.5089783393996
 31
0.0
  0
LWPOLYLINE
  5
7EA8
330
1F
100
AcDbEntity
  8
图例及图签
 48
1.000000000000000E+16
100
AcDbPolyline
 90
        4
 70
     1
 43
0.0
 10
1663.648470280546
 20
253.5569963676971
 10
1818.555661846636
 20
253.5569963676971
 10
1818.555661846636
 20
173.0853298934562
 10
1663.648470280546
 20
173.0853298934562
  0
TEXT
  5
7EA9
330
1F
100
AcDbEntity
  8
图例及图签
370
     0
100
AcDbText
 10
1710.505064539853
 20
134.3032146716687
 30
0.0
 40
20.0
  1
斜井
 50
359.9999997865572
  7
样式 3
100
AcDbText
1001
ZWMCAD_GENSCA_13_
1070
     1
1040
1.0
1001
ZWMCAD_GENSTANDARDFRAME_13_
1070
   410
1000
GB
1070
   411
1000
ZwmFrameMain_
  0
TEXT
  5
7EAA
330
1F
100
AcDbEntity
  8
图例及图签
370
     0
100
AcDbText
 10
1908.323789315196
 20
434.3032146716686
 30
0.0
 40
20.0
  1
岩巷
 50
359.9999997865572
  7
样式 3
100
AcDbText
1001
ZWMCAD_GENSCA_13_
1070
     1
1040
1.0
1001
ZWMCAD_GENSTANDARDFRAME_13_
1070
   410
1000
GB
1070
   411
1000
ZwmFrameMain_
  0
LINE
  5
7EAB
330
1F
100
AcDbEntity
  8
图例及图签
 62
    30
370
    -3
100
AcDbLine
 10
1996.764332665639
 20
521.0819171436305
 30
0.0
 11
1887.262222604608
 21
521.0819171436305
 31
0.0
  0
LINE
  5
7EAC
330
1F
100
AcDbEntity
  8
图例及图签
 62
    30
370
    -3
100
AcDbLine
 10
1996.764332665639
 20
506.461789306697
 30
0.0
 11
1887.262222604608
 21
506.461789306697
 31
0.0
  0
LWPOLYLINE
  5
7EAD
330
1F
100
AcDbEntity
  8
图例及图签
 48
1.000000000000000E+16
100
AcDbPolyline
 90
        4
 70
     1
 43
0.0
 10
1863.648470280546
 20
553.5569963676971
 10
2018.555661846638
 20
553.5569963676971
 10
2018.555661846638
 20
473.0853298934562
 10
1863.648470280546
 20
473.0853298934562
  0
LINE
  5
7EAE
330
1F
100
AcDbEntity
  8
图例及图签
 62
     4
 48
1.000000000000000E+16
370
    -3
100
AcDbLine
 10
1918.54491703771
 20
380.4847766432213
 30
0.0
 11
1918.54491703771
 21
341.8698391908839
 31
0.0
  0
LINE
  5
7EAF
330
1F
100
AcDbEntity
  8
图例及图签
 62
     4
 48
1.000000000000000E+16
370
    -3
100
AcDbLine
 10
1957.95923689325
 20
341.8698391908839
 30
0.0
 11
1918.54491703771
 21
341.8698391908839
 31
0.0
  0
LINE
  5
7EB0
330
1F
100
AcDbEntity
  8
图例及图签
 62
     4
 48
1.000000000000000E+16
370
    -3
100
AcDbLine
 10
1957.95923689325
 20
380.4847766432213
 30
0.0
 11
1957.95923689325
 21
341.8698391908839
 31
0.0
  0
ARC
  5
7EB1
330
1F
100
AcDbEntity
  8
图例及图签
 62
     4
 48
1.000000000000000E+16
100
AcDbCircle
 10
1938.252076965466
 20
373.7807448012463
 30
0.0
 40
20.81624834970603
100
AcDbArc
 50
18.78740803692733
 51
161.2125919630726
  0
LINE
  5
7EB2
330
1F
100
AcDbEntity
  8
图例及图签
 62
     4
 48
1.000000000000000E+16
370
    -3
100
AcDbLine
 10
1963.011184368313
 20
335.5296164252504
 30
0.0
 11
1913.743284548924
 21
335.5296164252504
 31
0.0
  0
LINE
  5
7EB3
330
1F
100
AcDbEntity
  8
图例及图签
 62
     4
 48
1.000000000000000E+16
370
    -3
100
AcDbLine
 10
1913.743284548924
 20
383.7982882406795
 30
0.0
 11
1913.743284548924
 21
335.5296164252504
 31
0.0
  0
LINE
  5
7EB4
330
1F
100
AcDbEntity
  8
图例及图签
 62
     4
 48
1.000000000000000E+16
370
    -3
100
AcDbLine
 10
1963.011184368313
 20
383.7982882406795
 30
0.0
 11
1963.011184368313
 21
335.5296164252504
 31
0.0
  0
ARC
  5
7EB5
330
1F
100
AcDbEntity
  8
图例及图签
 62
     4
 48
1.000000000000000E+16
100
AcDbCircle
 10
1938.377234458632
 20
375.4182484382036
 30
0.0
 40
26.02031043713254
100
AcDbArc
 50
18.78740803692733
 51
161.2125919630726
  0
LWPOLYLINE
  5
7EB6
330
1F
100
AcDbEntity
  8
图例及图签
 48
1.000000000000000E+16
100
AcDbPolyline
 90
        4
 70
     1
 43
0.0
 10
1863.648470280546
 20
403.5569963676971
 10
2018.555661846638
 20
403.5569963676971
 10
2018.555661846638
 20
323.0853298934562
 10
1863.648470280546
 20
323.0853298934562
  0
TEXT
  5
7EB7
330
1F
100
AcDbEntity
  8
图例及图签
370
     0
100
AcDbText
 10
1856.319405125679
 20
284.3032146716687
 30
0.0
 40
20.0
  1
永久避难硐室
 50
359.9999997865572
  7
样式 3
100
AcDbText
1001
ZWMCAD_GENSCA_13_
1070
     1
1040
1.0
1001
ZWMCAD_GENSTANDARDFRAME_13_
1070
   410
1000
GB
1070
   411
1000
ZwmFrameMain_
  0
LWPOLYLINE
  5
7EB8
330
1F
100
AcDbEntity
  8
图例及图签
 48
1.000000000000000E+16
100
AcDbPolyline
 90
        4
 70
     1
 43
0.0
 10
1863.648470280546
 20
253.5569963676971
 10
2018.555661846638
 20
253.5569963676971
 10
2018.555661846638
 20
173.0853298934562
 10
1863.648470280546
 20
173.0853298934562
  0
TEXT
  5
7EB9
330
1F
100
AcDbEntity
  8
图例及图签
370
     0
100
AcDbText
 10
1884.495948021053
 20
134.3032146716687
 30
0.0
 40
20.0
  1
永久密闭
 50
359.9999997865572
  7
样式 3
100
AcDbText
1001
ZWMCAD_GENSCA_13_
1070
     1
1040
1.0
1001
ZWMCAD_GENSTANDARDFRAME_13_
1070
   410
1000
GB
1070
   411
1000
ZwmFrameMain_
  0
LWPOLYLINE
  5
7EBA
330
1F
100
AcDbEntity
  8
图例及图签
 48
1.000000000000000E+16
100
AcDbPolyline
 90
        4
 70
     1
 43
0.0
 10
2063.648470280547
 20
553.5569963676971
 10
2218.555661846636
 20
553.5569963676971
 10
2218.555661846636
 20
473.0853298934562
 10
2063.648470280547
 20
473.0853298934562
  0
TEXT
  5
7EBB
330
1F
100
AcDbEntity
  8
图例及图签
370
     0
100
AcDbText
 10
2057.997465892651
 20
434.3032146716686
 30
0.0
 40
20.0
  1
永久双向风门
 50
359.9999997865572
  7
样式 3
100
AcDbText
1001
ZWMCAD_GENSCA_13_
1070
     1
1040
1.0
1001
ZWMCAD_GENSTANDARDFRAME_13_
1070
   410
1000
GB
1070
   411
1000
ZwmFrameMain_
  0
LINE
  5
7EBC
330
1F
100
AcDbEntity
  8
图例及图签
 62
     4
 48
1.000000000000000E+16
370
    -3
100
AcDbLine
 10
2146.843536108653
 20
336.9833135849549
 30
0.0
 11
2146.158708251525
 21
388.5256902634719
 31
0.0
  0
ARC
  5
7EBD
330
1F
100
AcDbEntity
  8
图例及图签
 62
     4
 48
1.000000000000000E+16
100
AcDbCircle
 10
2154.729191023311
 20
362.6076185728162
 30
0.0
 40
19.92082388687595
100
AcDbArc
 50
270.7612267750183
 51
90.76122677543509
  0
LINE
  5
7EBE
330
1F
100
AcDbEntity
  8
图例及图签
 62
     4
 48
1.000000000000000E+16
100
AcDbLine
 10
2154.993849581755
 20
342.6885528271887
 30
0.0
 11
2155.258141310834
 21
322.7970958551014
 31
0.0
  0
LINE
  5
7EBF
330
1F
100
AcDbEntity
  8
图例及图签
 62
     4
 48
1.000000000000000E+16
100
AcDbLine
 10
2154.200240735816
 20
402.4181412905308
 30
0.0
 11
2154.464532464897
 21
382.5266843184654
 31
0.0
  0
LWPOLYLINE
  5
7EC0
330
1F
100
AcDbEntity
  8
图例及图签
 48
1.000000000000000E+16
100
AcDbPolyline
 90
        4
 70
     1
 43
0.0
 10
2063.648470280547
 20
403.5569963676971
 10
2218.555661846636
 20
403.5569963676971
 10
2218.555661846636
 20
323.0853298934562
 10
2063.648470280547
 20
323.0853298934562
  0
TEXT
  5
7EC1
330
1F
100
AcDbEntity
  8
图例及图签
370
     0
100
AcDbText
 10
2057.571695921042
 20
284.3032146716687
 30
0.0
 40
20.0
  1
永久调节风门
 50
359.9999997865572
  7
样式 3
100
AcDbText
1001
ZWMCAD_GENSCA_13_
1070
     1
1040
1.0
1001
ZWMCAD_GENSTANDARDFRAME_13_
1070
   410
1000
GB
1070
   411
1000
ZwmFrameMain_
  0
TEXT
  5
7EC2
330
1F
100
AcDbEntity
  8
图例及图签
370
     0
100
AcDbText
 10
2084.495948021053
 20
134.3032146716687
 30
0.0
 40
20.0
  1
主通风机
 50
359.9999997865572
  7
样式 3
100
AcDbText
1001
ZWMCAD_GENSCA_13_
1070
     1
1040
1.0
1001
ZWMCAD_GENSTANDARDFRAME_13_
1070
   410
1000
GB
1070
   411
1000
ZwmFrameMain_
  0
LWPOLYLINE
  5
7EC3
330
1F
100
AcDbEntity
  8
图例及图签
 48
1.000000000000000E+16
100
AcDbPolyline
 90
        4
 70
     1
 43
0.0
 10
2063.648470280547
 20
253.5569963676971
 10
2218.555661846636
 20
253.5569963676971
 10
2218.555661846636
 20
173.0853298934562
 10
2063.648470280547
 20
173.0853298934562
  0
HATCH
  5
7EC4
330
1F
100
AcDbEntity
  8
图例及图签
 62
     4
100
AcDbHatch
 10
0.0
 20
0.0
 30
0.0
210
0.0
220
0.0
230
1.0
  2
SOLID
 70
     1
 71
     0
 91
        6
 92
        7
 72
     1
 73
     1
 93
        3
 10
2311.265439460047
 20
524.3169477641513
 42
0.0
 10
2311.274940914933
 20
514.5076507119301
 42
0.5328313658465285
 10
2315.809453194808
 20
521.2699028245333
 42
0.3047749703989014
 97
        0
 92
        7
 72
     1
 73
     1
 93
        3
 10
2311.265439460134
 20
524.3169477641584
 42
0.5328313658502275
 10
2306.730927180172
 20
517.5546956515609
 42
0.3047749704027205
 10
2311.274940914991
 20
514.5076507119446
 42
0.0
 97
        0
 92
        7
 72
     1
 73
     1
 93
        3
 10
2311.289848604756
 20
499.116959611616
 42
0.0
 10
2311.294599332169
 20
494.2123110912433
 42
0.0456552623281088
 10
2315.709008148748
 20
496.3497381360575
 42
0.2877823778379751
 97
        0
 92
        7
 72
     1
 73
     1
 93
        3
 10
2311.289848604756
 20
499.1169596116015
 42
0.4142135633055914
 10
2306.389950790464
 20
494.2075603580378
 42
0.0
 10
2311.2945993322
 20
494.2123110854809
 42
0.0
 97
        0
 92
        7
 72
     1
 73
     1
 93
        4
 10
2315.833862323859
 20
496.069914671978
 42
0.0156223712422233
 10
2315.70900814869
 20
496.3497381361885
 42
-0.0456552624830197
 10
2311.294599316571
 20
494.2123110854809
 42
0.0
 10
2316.199247842647
 20
494.2170618129166
 42
0.0971714774831682
 97
        0
 92
        7
 72
     1
 73
     1
 93
        3
 10
2316.199247842647
 20
494.2170618129166
 42
0.0
 10
2306.389950790464
 20
494.2075603580378
 42
0.0971714774825364
 10
2306.755336309252
 20
492.354707498991
 42
0.822869114844493
 97
        0
 75
     0
 76
     1
 47
0.0038336387745525
 98
        6
 10
2313.246179422416
 20
520.7357622757918
 10
2309.445190861494
 20
519.1802829013539
 10
2313.353656509127
 20
497.1993717320875
 10
2309.160355698252
 20
495.8078305701056
 10
2315.300325274868
 20
495.2261862373052
 10
2311.131508380429
 20
492.1034140469927
1001
ACAD
1010
0.0
1020
0.0
1030
0.0
1001
AcDbBlockRepETag
1070
     1
1071
        0
1005
7EC4
  0
LINE
  5
7EC5
330
1F
100
AcDbEntity
  8
图例及图签
 62
     4
100
AcDbLine
 10
2311.245781042869
 20
544.6122873848726
 30
0.0
 11
2311.294599332169
 21
494.2123110912433
 31
0.0
1001
AcDbBlockRepETag
1070
     1
1071
        1
1005
7EC5
  0
ARC
  5
7EC6
330
1F
100
AcDbEntity
  8
图例及图签
 62
     4
100
AcDbCircle
 10
2301.822034110482
 20
519.4031475906231
 30
0.0
 40
26.91296593487618
100
AcDbArc
 50
290.6078761094136
 51
69.50311922337248
1001
AcDbBlockRepETag
1070
     1
1071
        2
1005
7EC6
  0
CIRCLE
  5
7EC7
330
1F
100
AcDbEntity
  8
图例及图签
 62
     4
100
AcDbCircle
 10
2311.27019018749
 20
519.4122992380433
 30
0.0
 40
4.904650826929249
1001
AcDbBlockRepETag
1070
     1
1071
        3
1005
7EC7
  0
CIRCLE
  5
7EC8
330
1F
100
AcDbEntity
  8
图例及图签
 62
     4
100
AcDbCircle
 10
2311.294599316571
 20
494.2123110854809
 30
0.0
 40
4.904650826929249
1001
AcDbBlockRepETag
1070
     1
1071
        4
1005
7EC8
  0
HATCH
  5
7EC9
330
1F
100
AcDbEntity
  8
图例及图签
 62
     4
100
AcDbHatch
 10
0.0
 20
0.0
 30
0.0
210
0.0
220
0.0
230
1.0
  2
SOLID
 70
     1
 71
     0
 91
        6
 92
        7
 72
     1
 73
     1
 93
        3
 10
2355.538997363408
 20
523.5522361590556
 42
0.0
 10
2355.548498818294
 20
513.7429391068361
 42
0.5328313658465285
 10
2360.083011098141
 20
520.5051912194394
 42
0.3047749703989014
 97
        0
 92
        7
 72
     1
 73
     1
 93
        3
 10
2355.538997363467
 20
523.5522361590629
 42
0.5328313658502275
 10
2351.004485083533
 20
516.7899840464668
 42
0.3047749704027205
 10
2355.548498818354
 20
513.7429391068508
 42
0.0
 97
        0
 92
        7
 72
     1
 73
     1
 93
        3
 10
2355.563406508119
 20
498.3522480065221
 42
0.0
 10
2355.568157235533
 20
493.4475994861495
 42
0.0456552623281088
 10
2359.982566052109
 20
495.5850265309636
 42
0.2877823778379751
 97
        0
 92
        7
 72
     1
 73
     1
 93
        3
 10
2355.563406508119
 20
498.3522480065074
 42
0.4142135633055914
 10
2350.663508693797
 20
493.4428487529438
 42
0.0
 10
2355.568157235561
 20
493.4475994803869
 42
0.0
 97
        0
 92
        7
 72
     1
 73
     1
 93
        4
 10
2360.107420227221
 20
495.3052030668841
 42
0.0156223712422233
 10
2359.982566052051
 20
495.5850265310945
 42
-0.0456552624830197
 10
2355.568157219932
 20
493.4475994803869
 42
0.0
 10
2360.472805746009
 20
493.4523502078227
 42
0.0971714774831682
 97
        0
 92
        7
 72
     1
 73
     1
 93
        3
 10
2360.472805746009
 20
493.4523502078227
 42
0.0
 10
2350.663508693797
 20
493.4428487529438
 42
0.0971714774825364
 10
2351.028894212614
 20
491.5899958938971
 42
0.822869114844493
 97
        0
 75
     0
 76
     1
 47
0.0038336387745525
 98
        6
 10
2357.519737325776
 20
519.9710506706979
 10
2353.718748764855
 20
518.4155712962601
 10
2357.627214412489
 20
496.4346601269935
 10
2353.433913601586
 20
495.0431189650116
 10
2359.573883178229
 20
494.4614746322113
 10
2355.405066283791
 20
491.3387024418988
1001
ACAD
1010
0.0
1020
0.0
1030
0.0
1001
AcDbBlockRepETag
1070
     1
1071
        0
1005
7EC9
  0
LINE
  5
7ECA
330
1F
100
AcDbEntity
  8
图例及图签
 62
     4
100
AcDbLine
 10
2355.519338946229
 20
543.8475757797787
 30
0.0
 11
2355.568157235533
 21
493.4475994861495
 31
0.0
1001
AcDbBlockRepETag
1070
     1
1071
        1
1005
7ECA
  0
ARC
  5
7ECB
330
1F
100
AcDbEntity
  8
图例及图签
 62
     4
100
AcDbCircle
 10
2346.095592013844
 20
518.6384359855292
 30
0.0
 40
26.91296593487618
100
AcDbArc
 50
290.6078761094136
 51
69.50311922337248
1001
AcDbBlockRepETag
1070
     1
1071
        2
1005
7ECB
  0
CIRCLE
  5
7ECC
330
1F
100
AcDbEntity
  8
图例及图签
 62
     4
100
AcDbCircle
 10
2355.543748090851
 20
518.6475876329495
 30
0.0
 40
4.904650826929249
1001
AcDbBlockRepETag
1070
     1
1071
        3
1005
7ECC
  0
CIRCLE
  5
7ECD
330
1F
100
AcDbEntity
  8
图例及图签
 62
     4
100
AcDbCircle
 10
2355.568157219932
 20
493.4475994803869
 30
0.0
 40
4.904650826929249
1001
AcDbBlockRepETag
1070
     1
1071
        4
1005
7ECD
  0
LWPOLYLINE
  5
7ECE
330
1F
100
AcDbEntity
  8
图例及图签
 48
1.000000000000000E+16
100
AcDbPolyline
 90
        4
 70
     1
 43
0.0
 10
2263.648470280546
 20
555.5454179188417
 10
2418.555661846637
 20
555.5454179188417
 10
2418.555661846637
 20
475.0737514446009
 10
2263.648470280546
 20
475.0737514446009
  0
TEXT
  5
7ECF
330
1F
100
AcDbEntity
  8
图例及图签
370
     0
100
AcDbText
 10
2284.495948021053
 20
436.2916362228133
 30
0.0
 40
20.0
  1
自动风门
 50
359.9999997865572
  7
样式 3
100
AcDbText
1001
ZWMCAD_GENSCA_13_
1070
     1
1040
1.0
1001
ZWMCAD_GENSTANDARDFRAME_13_
1070
   410
1000
GB
1070
   411
1000
ZwmFrameMain_
  0
LINE
  5
7ED0
330
1F
100
AcDbEntity
  8
图例及图签
 62
    30
370
    -3
100
AcDbLine
 10
1785.872350833635
 20
221.3213273798246
 30
0.0
 11
1685.949232569801
 21
220.2122486578737
 31
0.0
  0
LINE
  5
7ED1
330
1F
100
AcDbEntity
  8
图例及图签
 62
    30
370
    -3
100
AcDbLine
 10
1786.116638104686
 20
205.1230410252174
 30
0.0
 11
1685.949232569801
 21
204.0112508623279
 31
0.0
  0
LWPOLYLINE
  5
7ED2
330
1F
100
AcDbEntity
  8
图例及图签
 62
    30
370
    -3
100
AcDbPolyline
 90
        2
 70
     0
 43
0.0
 10
1769.923507246443
 20
204.9433082778851
 10
1770.046792133966
 20
196.7684921165128
  0
LWPOLYLINE
  5
7ED3
330
1F
100
AcDbEntity
  8
图例及图签
 62
    30
370
    -3
100
AcDbPolyline
 90
        2
 70
     0
 43
0.0
 10
1778.020072697916
 20
205.0331747298042
 10
1778.326017706911
 20
184.7464704428711
  0
LWPOLYLINE
  5
7ED4
330
1F
100
AcDbEntity
  8
图例及图签
 62
    30
370
    -3
100
AcDbPolyline
 90
        2
 70
     0
 43
0.0
 10
1786.599800821336
 20
173.0853298934562
 10
1786.116638104686
 20
205.1230410252174
  0
LWPOLYLINE
  5
7ED5
330
1F
100
AcDbEntity
  8
图例及图签
 62
    30
370
    -3
100
AcDbPolyline
 90
        2
 70
     0
 43
0.0
 10
1769.679219919513
 20
221.1415946547786
 10
1769.558402273129
 20
229.1528096114198
  0
LWPOLYLINE
  5
7ED6
330
1F
100
AcDbEntity
  8
图例及图签
 62
    30
370
    -3
100
AcDbPolyline
 90
        2
 70
     0
 43
0.0
 10
1777.775785382162
 20
221.2314610396643
 10
1777.471335503527
 20
241.4190260980904
  0
LWPOLYLINE
  5
7ED7
330
1F
100
AcDbEntity
  8
图例及图签
 62
    30
370
    -3
100
AcDbPolyline
 90
        2
 70
     0
 43
0.0
 10
1785.386202733585
 20
253.5569963676971
 10
1785.872350833635
 20
221.3213273798246
  0
LWPOLYLINE
  5
7ED8
330
1F
100
AcDbEntity
  8
图例及图签
 62
    30
370
    -3
100
AcDbPolyline
 90
        2
 70
     0
 43
0.0
 10
1769.923507246443
 20
204.9433082779069
 10
1770.046792133966
 20
196.7684921165128
  0
LWPOLYLINE
  5
7ED9
330
1F
100
AcDbEntity
  8
图例及图签
 62
    30
370
    -3
100
AcDbPolyline
 90
        2
 70
     0
 43
0.0
 10
1778.020072697916
 20
205.0331747298697
 10
1778.326017706911
 20
184.746470442893
  0
LWPOLYLINE
  5
7EDA
330
1F
100
AcDbEntity
  8
图例及图签
 62
    30
370
    -3
100
AcDbPolyline
 90
        2
 70
     0
 43
0.0
 10
1786.599800821336
 20
173.0853298934562
 10
1786.116638104686
 20
205.1230410252829
  0
LWPOLYLINE
  5
7EDB
330
1F
100
AcDbEntity
  8
图例及图签
 62
    30
370
    -3
100
AcDbPolyline
 90
        2
 70
     0
 43
0.0
 10
1769.679219919513
 20
221.1415946548004
 10
1769.558402273129
 20
229.1528096114198
  0
LWPOLYLINE
  5
7EDC
330
1F
100
AcDbEntity
  8
图例及图签
 62
    30
370
    -3
100
AcDbPolyline
 90
        2
 70
     0
 43
0.0
 10
1777.775785382162
 20
221.2314610396643
 10
1777.471335503527
 20
241.4190260980904
  0
LWPOLYLINE
  5
7EDD
330
1F
100
AcDbEntity
  8
图例及图签
 62
    30
370
    -3
100
AcDbPolyline
 90
        2
 70
     0
 43
0.0
 10
1785.386202733585
 20
253.5569963676971
 10
1785.872350833635
 20
221.3213273798246
  0
LWPOLYLINE
  5
7EDE
330
1F
100
AcDbEntity
  8
图例及图签
 62
    30
370
    -3
100
AcDbPolyline
 90
        2
 70
     0
 43
0.0
 10
1769.923507246443
 20
204.9433082779069
 10
1770.046792133966
 20
196.7684921165563
  0
LWPOLYLINE
  5
7EDF
330
1F
100
AcDbEntity
  8
图例及图签
 62
    30
370
    -3
100
AcDbPolyline
 90
        2
 70
     0
 43
0.0
 10
1778.020072697916
 20
205.0331747298697
 10
1778.326017706911
 20
184.746470442893
  0
LWPOLYLINE
  5
7EE0
330
1F
100
AcDbEntity
  8
图例及图签
 62
    30
370
    -3
100
AcDbPolyline
 90
        2
 70
     0
 43
0.0
 10
1786.599800821336
 20
173.0853298934562
 10
1786.116638104686
 20
205.1230410253265
  0
LWPOLYLINE
  5
7EE1
330
1F
100
AcDbEntity
  8
图例及图签
 62
    30
370
    -3
100
AcDbPolyline
 90
        2
 70
     0
 43
0.0
 10
1769.679219919513
 20
221.1415946548004
 10
1769.558402273129
 20
229.1528096114198
  0
LWPOLYLINE
  5
7EE2
330
1F
100
AcDbEntity
  8
图例及图签
 62
    30
370
    -3
100
AcDbPolyline
 90
        2
 70
     0
 43
0.0
 10
1777.775785382162
 20
221.2314610396643
 10
1777.471335503527
 20
241.4190260981341
  0
LWPOLYLINE
  5
7EE3
330
1F
100
AcDbEntity
  8
图例及图签
 62
    30
370
    -3
100
AcDbPolyline
 90
        2
 70
     0
 43
0.0
 10
1785.386202733585
 20
253.5569963676971
 10
1785.872350833635
 20
221.3213273798246
  0
MTEXT
  5
7EE4
330
1F
100
AcDbEntity
  8
图例及图签
 62
     6
370
    -3
100
AcDbMText
 10
1771.494358892297
 20
492.9790169480401
 30
348.0
 40
45.0
 41
0.0
 46
0.0
 71
     9
 72
     1
  1
25
  7
HZ
 73
     1
 44
1.0
1001
ACAD
1000
MTEXTBEGIN
1070
    73
1070
     1
1070
    44
1040
1.0
1070
    74
1070
     0
1000
MTEXTEND
  0
MTEXT
  5
7EE5
330
1F
100
AcDbEntity
  8
图例及图签
 62
     4
370
    -3
100
AcDbMText
 10
973.6090433400605
 20
361.685557429344
 30
0.0
 40
4.5
 41
0.0
 46
0.0
 71
     9
 72
     1
  1
F
  7
HZ
 73
     1
 44
1.0
1001
ACAD
1000
MTEXTBEGIN
1070
    73
1070
     1
1070
    44
1040
1.0
1070
    74
1070
     0
1000
MTEXTEND
  0
MTEXT
  5
7EE6
330
1F
100
AcDbEntity
  8
图例及图签
 62
     4
370
    -3
100
AcDbMText
 10
937.1302436632468
 20
361.7161407998665
 30
0.0
 40
4.5
 41
0.0
 46
0.0
 71
     9
 72
     1
  1
F
  7
HZ
 73
     1
 44
1.0
1001
ACAD
1000
MTEXTBEGIN
1070
    73
1070
     1
1070
    44
1040
1.0
1070
    74
1070
     0
1000
MTEXTEND
  0
LWPOLYLINE
  5
7EE7
330
1F
100
AcDbEntity
  8
图例及图签
 48
1.000000000000000E+16
100
AcDbPolyline
 90
        4
 70
     1
 43
0.0
 10
263.6484702805465
 20
553.5569963676971
 10
418.5556618466362
 20
553.5569963676971
 10
418.5556618466362
 20
473.0853298934562
 10
263.6484702805465
 20
473.0853298934562
  0
LINE
  5
7EE8
330
1F
100
AcDbEntity
  8
图例及图签
 62
     4
370
    -3
100
AcDbLine
 10
402.9018747346799
 20
510.5043528218466
 30
0.0
 11
293.3997646736461
 21
510.3605615512206
 31
0.0
  0
LINE
  5
7EE9
330
1F
100
AcDbEntity
  8
图例及图签
 62
     4
370
    -3
100
AcDbLine
 10
402.9018747346799
 20
526.7043690622593
 30
0.0
 11
293.3997646736461
 21
526.5605778331883
 31
0.0
  0
TEXT
  5
7EEA
330
1F
100
AcDbEntity
  8
图例及图签
370
     0
100
AcDbText
 10
284.4959480210528
 20
434.3032146716686
 30
0.0
 40
20.0
  1
42煤巷道
 50
359.9999997865572
  7
样式 3
100
AcDbText
1001
ZWMCAD_GENSCA_13_
1070
     1
1040
1.0
1001
ZWMCAD_GENSTANDARDFRAME_13_
1070
   410
1000
GB
1070
   411
1000
ZwmFrameMain_
  0
LWPOLYLINE
  5
7EEB
330
1F
100
AcDbEntity
  8
图例及图签
 48
1.000000000000000E+16
100
AcDbPolyline
 90
        4
 70
     1
 43
0.0
 10
263.6484702805465
 20
403.5569963676971
 10
418.5556618466362
 20
403.5569963676971
 10
418.5556618466362
 20
323.0853298934562
 10
263.6484702805465
 20
323.0853298934562
  0
TEXT
  5
7EEC
330
1F
100
AcDbEntity
  8
图例及图签
370
     0
100
AcDbText
 10
291.0121443095923
 20
284.3032146716687
 30
0.0
 40
20.0
  1
采空区
 50
359.9999997865572
  7
样式 3
100
AcDbText
1001
ZWMCAD_GENSCA_13_
1070
     1
1040
1.0
1001
ZWMCAD_GENSTANDARDFRAME_13_
1070
   410
1000
GB
1070
   411
1000
ZwmFrameMain_
  0
LWPOLYLINE
  5
7EED
330
1F
100
AcDbEntity
  8
图例及图签
 48
1.000000000000000E+16
100
AcDbPolyline
 90
        4
 70
     1
 43
0.0
 10
263.6484702805465
 20
253.5569963676971
 10
418.5556618466362
 20
253.5569963676971
 10
418.5556618466362
 20
173.0853298934562
 10
263.6484702805465
 20
173.0853298934562
  0
TEXT
  5
7EEE
330
1F
100
AcDbEntity
  8
图例及图签
370
     0
100
AcDbText
 10
297.7538233278392
 20
134.3032146716687
 30
0.0
 40
20.0
  1
测风站
 50
359.9999997865572
  7
样式 3
100
AcDbText
1001
ZWMCAD_GENSCA_13_
1070
     1
1040
1.0
1001
ZWMCAD_GENSTANDARDFRAME_13_
1070
   410
1000
GB
1070
   411
1000
ZwmFrameMain_
  0
LWPOLYLINE
  5
7EEF
330
1F
100
AcDbEntity
  8
图例及图签
 62
     1
 48
1.000000000000000E+16
370
    -3
100
AcDbPolyline
 90
        2
 70
     0
 43
0.0
 10
512.0185711631493
 20
531.4820366394124
 10
538.3463164163694
 20
531.4820366394124
  0
CIRCLE
  5
7EF0
330
1F
100
AcDbEntity
  8
图例及图签
 62
     1
 48
1.000000000000000E+16
100
AcDbCircle
 10
544.4970014751616
 20
531.4820366394124
 30
0.0
 40
6.1506850587769
  0
LWPOLYLINE
  5
7EF1
330
1F
100
AcDbEntity
  8
图例及图签
 62
     1
 48
1.000000000000000E+16
370
    -3
100
AcDbPolyline
 90
        5
 70
     0
 43
0.0
 10
550.6478653261165
 20
531.4820366394124
 10
576.9157853568631
 20
531.4820366394124
 10
576.9157853568631
 20
490.3804676500731
 10
512.0185711631493
 20
490.3804676500731
 10
512.0185711631493
 20
531.4820366394124
  0
LWPOLYLINE
  5
7EF2
330
1F
100
AcDbEntity
  8
图例及图签
 48
1.000000000000000E+16
100
AcDbPolyline
 90
        4
 70
     1
 43
0.0
 10
463.6484702805463
 20
553.5569963676971
 10
618.5556618466363
 20
553.5569963676971
 10
618.5556618466363
 20
473.0853298934562
 10
463.6484702805463
 20
473.0853298934562
  0
TEXT
  5
7EF3
330
1F
100
AcDbEntity
  8
图例及图签
370
     0
100
AcDbText
 10
458.4482994777718
 20
434.3032146716686
 30
0.0
 40
20.0
  1
抽采瓦斯泵站
 50
359.9999997865572
  7
样式 3
100
AcDbText
1001
ZWMCAD_GENSCA_13_
1070
     1
1040
1.0
1001
ZWMCAD_GENSTANDARDFRAME_13_
1070
   410
1000
GB
1070
   411
1000
ZwmFrameMain_
  0
LINE
  5
7EF4
330
1F
100
AcDbEntity
  8
图例及图签
 62
     6
370
    -3
100
AcDbLine
 10
551.9284237087995
 20
361.3943514367493
 30
0.0
 11
551.9284237087995
 21
338.9929180398393
 31
0.0
  0
LINE
  5
7EF5
330
1F
100
AcDbEntity
  8
图例及图签
 62
     6
370
    -3
100
AcDbLine
 10
534.5256572682119
 20
361.3943514367493
 30
0.0
 11
534.5256572682119
 21
338.9929180398393
 31
0.0
  0
ARC
  5
7EF6
330
1F
100
AcDbEntity
  8
图例及图签
 62
     6
370
    -3
100
AcDbCircle
 10
542.5060748736432
 20
361.6680974162882
 30
0.0
 40
19.19011783952273
100
AcDbArc
 50
359.1826511226778
 51
180.8173488773221
  0
LINE
  5
7EF7
330
1F
100
AcDbEntity
  8
图例及图签
 62
     6
370
    -3
100
AcDbLine
 10
514.6026599513715
 20
361.3943514367493
 30
0.0
 11
570.8839471634437
 21
361.3943514367493
 31
0.0
  0
LWPOLYLINE
  5
7EF8
330
1F
100
AcDbEntity
  8
图例及图签
 48
1.000000000000000E+16
100
AcDbPolyline
 90
        4
 70
     1
 43
0.0
 10
463.6484702805463
 20
403.5569963676971
 10
618.5556618466363
 20
403.5569963676971
 10
618.5556618466363
 20
323.0853298934562
 10
463.6484702805463
 20
323.0853298934562
  0
TEXT
  5
7EF9
330
1F
100
AcDbEntity
  8
图例及图签
370
     0
100
AcDbText
 10
502.4037063945598
 20
284.3032146716687
 30
0.0
 40
20.0
  1
防爆盖
 50
359.9999997865572
  7
样式 3
100
AcDbText
1001
ZWMCAD_GENSCA_13_
1070
     1
1040
1.0
1001
ZWMCAD_GENSTANDARDFRAME_13_
1070
   410
1000
GB
1070
   411
1000
ZwmFrameMain_
  0
ELLIPSE
  5
7EFA
330
1F
100
AcDbEntity
  8
图例及图签
  6
ByBlock
 62
    30
100
AcDbEllipse
 10
524.1262335372666
 20
213.4869236974337
 30
0.0
 11
14.5776474143317
 21
-15.68140772683316
 31
0.0
210
0.0
220
0.0
230
-1.0
 40
1.0
 41
2.711279077216935
 42
5.113541245381433
  0
LINE
  5
7EFB
330
1F
100
AcDbEntity
  8
图例及图签
  6
ByBlock
 62
    30
370
    -3
100
AcDbLine
 10
504.3359672265286
 20
221.6575852523529
 30
0.0
 11
490.8119112952189
 21
221.8177687283605
 31
0.0
  0
LINE
  5
7EFC
330
1F
100
AcDbEntity
  8
图例及图签
  6
ByBlock
 62
    30
370
    -3
100
AcDbLine
 10
584.1740155040678
 20
219.9104336130986
 30
0.0
 11
597.0451825362323
 21
219.7579831017065
 31
0.0
  0
ELLIPSE
  5
7EFD
330
1F
100
AcDbEntity
  8
图例及图签
  6
ByBlock
 62
    30
100
AcDbEllipse
 10
564.045257666432
 20
212.6133478444972
 30
0.0
 11
14.5776474143317
 21
-15.68140772683316
 31
0.0
210
0.0
220
0.0
230
-1.0
 40
1.0
 41
2.711279077223641
 42
5.113541245370951
  0
LINE
  5
7EFE
330
1F
100
AcDbEntity
  8
图例及图签
 62
    30
370
    -3
100
AcDbLine
 10
597.0389311192502
 20
213.7743154350901
 30
0.0
 11
490.8036238794375
 21
213.8853044195566
 31
0.0
  0
ELLIPSE
  5
7EFF
330
1F
100
AcDbEntity
  8
图例及图签
  6
ByBlock
 62
    30
100
AcDbEllipse
 10
524.1269932073119
 20
214.2140569765761
 30
0.0
 11
14.61038175301261
 21
15.65091363029618
 31
0.0
210
0.0
220
0.0
230
1.0
 40
1.0
 41
2.711279077225805
 42
5.113541245377055
  0
LINE
  5
7F00
330
1F
100
AcDbEntity
  8
图例及图签
  6
ByBlock
 62
    30
370
    -3
100
AcDbLine
 10
504.3196975742393
 20
206.0847648429044
 30
0.0
 11
490.7953364637141
 21
205.9528401107964
 31
0.0
  0
LINE
  5
7F01
330
1F
100
AcDbEntity
  8
图例及图签
  6
ByBlock
 62
    30
370
    -3
100
AcDbLine
 10
584.1612222238835
 20
207.665091778792
 30
0.0
 11
597.0326797023807
 21
207.790647768692
 31
0.0
  0
ELLIPSE
  5
7F02
330
1F
100
AcDbEntity
  8
图例及图签
  6
ByBlock
 62
    30
100
AcDbEllipse
 10
564.047755522648
 20
215.0042204777419
 30
0.0
 11
14.61038175301261
 21
15.65091363029618
 31
0.0
210
0.0
220
0.0
230
1.0
 40
1.0
 41
2.711279077224169
 42
5.11354124537859
  0
LWPOLYLINE
  5
7F03
330
1F
100
AcDbEntity
  8
图例及图签
 48
1.000000000000000E+16
100
AcDbPolyline
 90
        4
 70
     1
 43
0.0
 10
463.6484702805463
 20
253.5569963676971
 10
618.5556618466363
 20
253.5569963676971
 10
618.5556618466363
 20
173.0853298934562
 10
463.6484702805463
 20
173.0853298934562
  0
TEXT
  5
7F04
330
1F
100
AcDbEntity
  8
图例及图签
370
     0
100
AcDbText
 10
502.4037063945598
 20
134.3032146716687
 30
0.0
 40
20.0
  1
防爆门
 50
359.9999997865572
  7
样式 3
100
AcDbText
1001
ZWMCAD_GENSCA_13_
1070
     1
1040
1.0
1001
ZWMCAD_GENSTANDARDFRAME_13_
1070
   410
1000
GB
1070
   411
1000
ZwmFrameMain_
  0
ARC
  5
7F05
330
1F
100
AcDbEntity
  8
图例及图签
 62
     4
 48
1.000000000000000E+16
100
AcDbCircle
 10
746.6200784734901
 20
510.9935703265546
 30
0.0
 40
29.40163518002032
100
AcDbArc
 50
0.0
 51
180.0
  0
LINE
  5
7F06
330
1F
100
AcDbEntity
  8
图例及图签
 62
     4
 48
1.000000000000000E+16
100
AcDbLine
 10
805.3825967671819
 20
510.9935703265546
 30
0.0
 11
776.0217136535158
 21
510.9935703265546
 31
0.0
  0
LINE
  5
7F07
330
1F
100
AcDbEntity
  8
图例及图签
 62
     4
 48
1.000000000000000E+16
100
AcDbLine
 10
717.2184432934683
 20
510.9935703265546
 30
0.0
 11
687.8575601797729
 21
510.9935703265546
 31
0.0
  0
LINE
  5
7F08
330
1F
100
AcDbEntity
  8
图例及图签
 62
     4
 48
1.000000000000000E+16
370
    -3
100
AcDbLine
 10
805.3825967671819
 20
525.6740118834023
 30
0.0
 11
805.3825967671819
 21
496.3131287697306
 31
0.0
  0
LINE
  5
7F09
330
1F
100
AcDbEntity
  8
图例及图签
 62
     4
 48
1.000000000000000E+16
100
AcDbLine
 10
687.8575601797729
 20
525.6740118834023
 30
0.0
 11
687.8575601797729
 21
496.3131287697306
 31
0.0
  0
TEXT
  5
7F0A
330
1F
100
AcDbEntity
  8
图例及图签
370
     0
100
AcDbText
 10
702.4037063945598
 20
434.3032146716686
 30
0.0
 40
20.0
  1
防火门
 50
359.9999997865572
  7
样式 3
100
AcDbText
1001
ZWMCAD_GENSCA_13_
1070
     1
1040
1.0
1001
ZWMCAD_GENSTANDARDFRAME_13_
1070
   410
1000
GB
1070
   411
1000
ZwmFrameMain_
  0
TEXT
  5
7F0B
330
1F
100
AcDbEntity
  8
图例及图签
370
     0
100
AcDbText
 10
684.4959480210527
 20
134.3032146716687
 30
0.0
 40
20.0
  1
防火密闭
 50
359.9999997865572
  7
样式 3
100
AcDbText
1001
ZWMCAD_GENSCA_13_
1070
     1
1040
1.0
1001
ZWMCAD_GENSTANDARDFRAME_13_
1070
   410
1000
GB
1070
   411
1000
ZwmFrameMain_
  0
MTEXT
  5
7F0C
330
1F
100
AcDbEntity
  8
图例及图签
 62
     1
370
    -3
100
AcDbMText
 10
540.3419562969957
 20
537.383556804998
 30
0.0
 40
12.0
 41
782.260005954047
 46
74.44417949326717
 71
     1
 72
     5
  1
G
 11
0.9999993481957808
 21
-0.0011417565471901
 31
0.0
 73
     1
 44
1.0
1001
ACAD
1000
MTEXTBEGIN
1070
    73
1070
     1
1070
    44
1040
1.0
1070
    74
1070
     0
1000
MTEXTEND
  0
MTEXT
  5
7F0D
330
1F
100
AcDbEntity
  8
图例及图签
100
AcDbMText
 10
151.2386604193816
 20
412.090404907405
 30
0.0
 40
29.99999999999998
 41
52.10596427970809
 46
540.9404201908373
 71
     1
 72
     5
  1
{\C256;图\P\P例}
  7
HZ
 73
     1
 44
1.0
1001
ACAD
1000
MTEXTBEGIN
1070
    73
1070
     1
1070
    44
1040
1.0
1070
    74
1070
     0
1000
MTEXTEND
  0
LINE
  5
7F0E
330
1F
100
AcDbEntity
  8
图例及图签
 62
     4
370
    -3
100
AcDbLine
 10
797.6188874054567
 20
225.0392517135806
 30
0.0
 11
688.1167773443957
 21
224.8954604845167
 31
0.0
  0
LINE
  5
7F0F
330
1F
100
AcDbEntity
  8
图例及图签
 62
     4
370
    -3
100
AcDbLine
 10
797.6188874054567
 20
208.8392354731659
 30
0.0
 11
688.1167773443957
 21
208.6954442025417
 31
0.0
  0
LINE
  5
7F10
330
1F
100
AcDbEntity
  8
图例及图签
 62
     4
370
    -3
100
AcDbLine
 10
401.0796286155163
 20
207.9651363193698
 30
0.0
 11
291.5775185544843
 21
207.8213450487456
 31
0.0
  0
LINE
  5
7F11
330
1F
100
AcDbEntity
  8
图例及图签
 62
     4
370
    -3
100
AcDbLine
 10
1401.057584709699
 20
209.7848501150293
 30
0.0
 11
1291.555474648639
 21
209.6410588443978
 31
0.0
  0
LINE
  5
7F12
330
1F
100
AcDbEntity
  8
图例及图签
 62
     4
370
    -3
100
AcDbLine
 10
1401.057584709699
 20
225.9848663554385
 30
0.0
 11
1291.555474648639
 21
225.8410751263728
 31
0.0
  0
LINE
  5
7F13
330
1F
100
AcDbEntity
  8
图例及图签
  6
ByBlock
 62
     4
370
    -3
100
AcDbLine
 10
1344.160593942717
 20
245.1952967797188
 30
0.0
 11
1344.160593942717
 21
190.8986698989538
 31
0.0
1001
AcDbBlockRepETag
1000

  0
LINE
  5
7F14
330
1F
100
AcDbEntity
  8
图例及图签
 62
     4
370
    -3
100
AcDbLine
 10
1991.460390715336
 20
203.9644470671265
 30
0.0
 11
1881.958280654275
 21
203.8206557965022
 31
0.0
  0
LINE
  5
7F15
330
1F
100
AcDbEntity
  8
图例及图签
 62
     4
370
    -3
100
AcDbLine
 10
1991.460390715336
 20
220.1644633075339
 30
0.0
 11
1881.958280654275
 21
220.0206720784771
 31
0.0
  0
LINE
  5
7F16
330
1F
100
AcDbEntity
  8
图例及图签
 62
     4
 48
1.000000000000000E+16
100
AcDbLine
 10
1933.48256221984
 20
234.860779765273
 30
0.0
 11
1933.389522830317
 21
195.0192406258429
 31
0.0
  0
LINE
  5
7F17
330
1F
100
AcDbEntity
  8
图例及图签
 62
     4
 48
1.000000000000000E+16
100
AcDbLine
 10
1951.869310660666
 20
234.8178491765793
 30
0.0
 11
1951.776271271141
 21
194.9763100371492
 31
0.0
  0
LINE
  5
7F18
330
1F
100
AcDbEntity
  8
图例及图签
 62
     4
370
    -3
100
AcDbLine
 10
1492.3120467271
 20
225.2623906492554
 30
0.0
 11
1601.814156788132
 21
225.4061819199014
 31
0.0
  0
LINE
  5
7F19
330
1F
100
AcDbEntity
  8
图例及图签
 62
     4
370
    -3
100
AcDbLine
 10
1492.3120467271
 20
209.0623744088552
 30
0.0
 11
1601.814156788132
 21
209.2061656379192
 31
0.0
  0
LINE
  5
7F1A
330
1F
100
AcDbEntity
  8
图例及图签
 62
     4
 48
1.000000000000000E+16
100
AcDbLine
 10
1552.942951648547
 20
237.0221168293683
 30
-0.0000000041892671
 11
1552.950172516279
 21
193.8106752159474
 31
-0.0000000041892671
  0
LINE
  5
7F1B
330
1F
100
AcDbEntity
  8
图例及图签
 62
     4
 48
1.000000000000000E+16
100
AcDbLine
 10
1536.719211800948
 20
237.0221168293465
 30
-0.0000000041892671
 11
1536.726432668707
 21
193.8106752159474
 31
-0.0000000041892671
  0
LINE
  5
7F1C
330
1F
100
AcDbEntity
  8
图例及图签
 62
     4
 48
1.000000000000000E+16
100
AcDbLine
 10
1552.944451057578
 20
228.0492858995531
 30
-0.0000000041892671
 11
1536.713436171813
 21
228.049285897916
 31
-0.0000000041892671
  0
LINE
  5
7F1D
330
1F
100
AcDbEntity
  8
图例及图签
 62
     4
 48
1.000000000000000E+16
100
AcDbLine
 10
1552.942951648547
 20
222.510359661519
 30
-0.0000000041892671
 11
1548.770414640799
 21
225.448805057571
 31
-0.0000000041892671
  0
LINE
  5
7F1E
330
1F
100
AcDbEntity
  8
图例及图签
 62
     4
 48
1.000000000000000E+16
100
AcDbLine
 10
1548.770414640799
 20
225.448805057571
 30
-0.0000000041892671
 11
1536.721146841992
 21
225.4423571488114
 31
-0.0000000041892671
  0
LINE
  5
7F1F
330
1F
100
AcDbEntity
  8
图例及图签
 62
     4
 48
1.000000000000000E+16
100
AcDbLine
 10
1536.721146841992
 20
225.4423571488114
 30
-0.0000000041892671
 11
1540.884527940994
 21
222.510359661519
 31
-0.0000000041892671
  0
LINE
  5
7F20
330
1F
100
AcDbEntity
  8
图例及图签
 62
     4
 48
1.000000000000000E+16
100
AcDbLine
 10
1540.884527940994
 20
222.510359661519
 30
-0.0000000041892671
 11
1552.942951648547
 21
222.510359661519
 31
-0.0000000041892671
  0
LINE
  5
7F21
330
1F
100
AcDbEntity
  8
图例及图签
 62
     4
 48
1.000000000000000E+16
100
AcDbLine
 10
1540.884527940994
 20
216.801568770341
 30
-0.0000000041892671
 11
1552.942951648547
 21
216.8015687702973
 31
-0.0000000041892671
  0
LINE
  5
7F22
330
1F
100
AcDbEntity
  8
图例及图签
 62
     4
 48
1.000000000000000E+16
100
AcDbLine
 10
1552.942951648547
 20
216.8015687702973
 30
-0.0000000041892671
 11
1548.770414640799
 21
219.7400141663929
 31
-0.0000000041892671
  0
LINE
  5
7F23
330
1F
100
AcDbEntity
  8
图例及图签
 62
     4
 48
1.000000000000000E+16
100
AcDbLine
 10
1548.770414640799
 20
219.7400141663929
 30
-0.0000000041892671
 11
1536.721146841992
 21
219.7335662576334
 31
-0.0000000041892671
  0
LINE
  5
7F24
330
1F
100
AcDbEntity
  8
图例及图签
 62
     4
 48
1.000000000000000E+16
100
AcDbLine
 10
1536.721146841992
 20
219.7335662576334
 30
-0.0000000041892671
 11
1540.884527940994
 21
216.801568770341
 31
-0.0000000041892671
  0
LINE
  5
7F25
330
1F
100
AcDbEntity
  8
图例及图签
 62
     4
 48
1.000000000000000E+16
100
AcDbLine
 10
1540.88886053516
 20
211.0948119015266
 30
-0.0000000041892671
 11
1552.947284242713
 21
211.0948119015266
 31
-0.0000000041892671
  0
LINE
  5
7F26
330
1F
100
AcDbEntity
  8
图例及图签
 62
     4
 48
1.000000000000000E+16
100
AcDbLine
 10
1552.947284242713
 20
211.0948119015266
 30
-0.0000000041892671
 11
1548.774747234966
 21
214.0332572975785
 31
-0.0000000041892671
  0
LINE
  5
7F27
330
1F
100
AcDbEntity
  8
图例及图签
 62
     4
 48
1.000000000000000E+16
100
AcDbLine
 10
1548.774747234966
 20
214.0332572975785
 30
-0.0000000041892671
 11
1536.725479436187
 21
214.0268093888189
 31
-0.0000000041892671
  0
LINE
  5
7F28
330
1F
100
AcDbEntity
  8
图例及图签
 62
     4
 48
1.000000000000000E+16
100
AcDbLine
 10
1536.725479436187
 20
214.0268093888189
 30
-0.0000000041892671
 11
1540.88886053516
 21
211.0948119015266
 31
-0.0000000041892671
  0
LINE
  5
7F29
330
1F
100
AcDbEntity
  8
图例及图签
 62
     4
 48
1.000000000000000E+16
100
AcDbLine
 10
1540.863934480781
 20
205.3839869877446
 30
-0.0000000041892671
 11
1552.922358188305
 21
205.3839869877446
 31
-0.0000000041892671
  0
LINE
  5
7F2A
330
1F
100
AcDbEntity
  8
图例及图签
 62
     4
 48
1.000000000000000E+16
100
AcDbLine
 10
1552.922358188305
 20
205.3839869877446
 30
-0.0000000041892671
 11
1548.749821180587
 21
208.3224323837967
 31
-0.0000000041892671
  0
LINE
  5
7F2B
330
1F
100
AcDbEntity
  8
图例及图签
 62
     4
 48
1.000000000000000E+16
100
AcDbLine
 10
1548.749821180587
 20
208.3224323837967
 30
-0.0000000041892671
 11
1536.700553381808
 21
208.3159844750371
 31
-0.0000000041892671
  0
LINE
  5
7F2C
330
1F
100
AcDbEntity
  8
图例及图签
 62
     4
 48
1.000000000000000E+16
100
AcDbLine
 10
1536.700553381808
 20
208.3159844750371
 30
-0.0000000041892671
 11
1540.863934480781
 21
205.3839869877446
 31
-0.0000000041892671
  0
LINE
  5
7F2D
330
1F
100
AcDbEntity
  8
图例及图签
 62
     4
 48
1.000000000000000E+16
100
AcDbLine
 10
1552.948813607996
 20
201.9427153429096
 30
-0.0000000041892671
 11
1536.717798722202
 21
201.9427153412725
 31
-0.0000000041892671
  0
HATCH
  5
7F2E
330
1F
100
AcDbEntity
  8
图例及图签
 62
     4
370
     0
100
AcDbHatch
 10
0.0
 20
0.0
 30
0.0
210
0.0
220
0.0
230
1.0
  2
SOLID
 70
     1
 71
     0
 91
        1
 92
        7
 72
     0
 73
     1
 93
        4
 10
736.9614748368567
 20
208.1372036709618
 10
746.7418319396891
 20
208.2355574132707
 10
746.5732267236671
 20
225.0017641876802
 10
736.7928696115777
 20
224.9034104415224
 97
        0
 75
     0
 76
     1
 47
0.4108958283621086
 98
        1
 10
745.0445800078396
 20
214.5259938674317
1001
ACAD
1010
0.0
1020
0.0
1030
0.0
  0
LINE
  5
7F2F
330
1F
100
AcDbEntity
  8
图例及图签
 62
     4
370
    -3
100
AcDbLine
 10
401.0796286155163
 20
224.1651525597845
 30
0.0
 11
291.5775185544843
 21
224.0213613307205
 31
0.0
  0
LINE
  5
7F30
330
1F
100
AcDbEntity
  8
图例及图签
  6
井田边界
370
   100
100
AcDbLine
 10
2287.069502867547
 20
215.395737519706
 30
0.0
 11
2388.313426400622
 21
215.395737519706
 31
0.0
  0
TEXT
  5
7F31
330
1F
100
AcDbEntity
  8
图例及图签
370
     0
100
AcDbText
 10
2285.501054137072
 20
134.3032146716687
 30
0.0
 40
20.0
  1
井田边界
 50
359.9999997865572
  7
样式 3
100
AcDbText
1001
ZWMCAD_GENSCA_13_
1070
     1
1040
1.0
1001
ZWMCAD_GENSTANDARDFRAME_13_
1070
   410
1000
GB
1070
   411
1000
ZwmFrameMain_
  0
LWPOLYLINE
  5
7F32
330
1F
100
AcDbEntity
  8
图例及图签
 48
1.000000000000000E+16
100
AcDbPolyline
 90
        4
 70
     1
 43
0.0
 10
2263.648470280546
 20
401.9549357759133
 10
2418.555661846637
 20
401.9549357759133
 10
2418.555661846637
 20
321.4832693016723
 10
2263.648470280546
 20
321.4832693016723
  0
LINE
  5
7F33
330
1F
100
AcDbEntity
  8
图例及图签
  6
CENTER
370
    50
100
AcDbLine
 10
2286.066180156668
 20
361.9023319022381
 30
0.0
 11
2396.910820576486
 21
361.9023319022381
 31
0.0
  0
TEXT
  5
7F34
330
1F
100
AcDbEntity
  8
图例及图签
370
     0
100
AcDbText
 10
2284.495948021053
 20
282.7011540798849
 30
0.0
 40
20.0
  1
盘区边界
 50
359.9999997865572
  7
样式 3
100
AcDbText
1001
ZWMCAD_GENSCA_13_
1070
     1
1040
1.0
1001
ZWMCAD_GENSTANDARDFRAME_13_
1070
   410
1000
GB
1070
   411
1000
ZwmFrameMain_
  0
LWPOLYLINE
  5
7F35
330
1F
100
AcDbEntity
  8
图例及图签
 48
1.000000000000000E+16
100
AcDbPolyline
 90
        4
 70
     1
 43
0.0
 10
2263.648470280546
 20
253.5569963676971
 10
2418.555661846637
 20
253.5569963676971
 10
2418.555661846637
 20
173.0853298934562
 10
2263.648470280546
 20
173.0853298934562
  0
HATCH
  5
7F36
330
1F
100
AcDbEntity
  8
图例及图签
  6
井田边界
 62
     4
 48
1.000000000000000E+16
370
     0
100
AcDbHatch
 10
0.0
 20
0.0
 30
0.0
210
0.0
220
0.0
230
1.0
  2
ANSI31
 70
     0
 71
     0
 91
        1
 92
        7
 72
     0
 73
     1
 93
        4
 10
263.6484702805465
 20
323.0853298934562
 10
263.6484702805465
 20
403.5569963676971
 10
418.5556618466362
 20
403.5569963676971
 10
418.5556618466362
 20
323.0853298934562
 97
        0
 75
     0
 76
     1
 52
0.0
 41
200.0
 77
     0
 78
     1
 53
45.0
 43
-36749.27946536979
 44
13009.95738861577
 45
-17.67766952966368
 46
17.67766952966369
 79
     0
 47
0.0
 98
        1
 10
354.0565110262032
 20
380.6604865855952
1001
ACAD
1010
0.0
1020
0.0
1030
0.0
  0
SPLINE
  5
7F37
330
1F
100
AcDbEntity
  8
图例及图签
  6
DASH
 62
     4
 48
1.000000000000000E+16
370
     0
100
AcDbSpline
210
0.0
220
0.0
230
1.0
 70
     8
 71
     3
 72
     9
 73
     5
 74
     0
 42
0.000000001
 43
0.0000000001
 40
0.0
 40
0.0
 40
0.0
 40
0.0
 40
23.3540276333111
 40
57.94036313952496
 40
57.94036313952496
 40
57.94036313952496
 40
57.94036313952496
 10
2485.626503661217
 20
519.7403067889243
 30
0.0
 10
2490.867866009911
 20
512.479484056028
 30
0.0
 10
2503.87146618533
 20
494.4656873593229
 30
0.0
 10
2521.735816840375
 20
508.8814025396131
 30
0.0
 10
2532.602088956754
 20
516.8606668380927
 30
0.0
  0
LWPOLYLINE
  5
7F38
330
1F
100
AcDbEntity
  8
图例及图签
 48
1.000000000000000E+16
100
AcDbPolyline
 90
        4
 70
     1
 43
0.0
 10
2462.676507314071
 20
554.4105687809969
 10
2617.583698880162
 20
554.4105687809969
 10
2617.583698880162
 20
473.938902306756
 10
2462.676507314071
 20
473.938902306756
  0
TEXT
  5
7F39
330
1F
100
AcDbEntity
  8
图例及图签
 62
     4
100
AcDbText
 10
2535.713636233239
 20
512.7650592554199
 30
0.0
 40
12.5
  1
985
 50
27.11643097572459
  7
宋体
100
AcDbText
  0
TEXT
  5
7F3A
330
1F
100
AcDbEntity
  8
图例及图签
370
     0
100
AcDbText
 10
2419.344525560723
 20
435.1931094767349
 30
0.0
 40
20.0
  1
42煤煤层底板等高线
 50
359.9999997865572
  7
样式 3
100
AcDbText
1001
ZWMCAD_GENSCA_13_
1070
     1
1040
1.0
1001
ZWMCAD_GENSTANDARDFRAME_13_
1070
   410
1000
GB
1070
   411
1000
ZwmFrameMain_
  0
SPLINE
  5
7F3B
330
1F
100
AcDbEntity
  8
图例及图签
  6
DASH
 62
     4
 48
1.000000000000000E+16
370
     0
100
AcDbSpline
210
0.0
220
0.0
230
1.0
 70
     8
 71
     3
 72
     8
 73
     4
 74
     0
 42
0.000000001
 43
0.0000000001
 40
84.19734838517394
 40
84.19734838517394
 40
84.19734838517394
 40
84.19734838517394
 40
124.4355322222021
 40
124.4355322222021
 40
124.4355322222021
 40
124.4355322222021
 10
2557.031699743138
 20
528.6265647812578
 30
0.0
 10
2569.016357984816
 20
528.7288142675861
 30
0.0
 10
2579.895950087819
 20
517.1572213964537
 30
0.0
 10
2590.775542190808
 20
505.5856285253248
 30
0.0
  0
TEXT
  5
7F3C
330
1F
100
AcDbEntity
  8
图例及图签
370
     0
100
AcDbText
 10
657.5735022298977
 20
284.4343123575127
 30
0.0
 40
20.0
  1
临时双向风门
 50
359.9999997865572
  7
样式 3
100
AcDbText
1001
ZWMCAD_GENSCA_13_
1070
     1
1040
1.0
1001
ZWMCAD_GENSTANDARDFRAME_13_
1070
   410
1000
GB
1070
   411
1000
ZwmFrameMain_
  0
LWPOLYLINE
  5
7F3D
330
1F
100
AcDbEntity
  8
图例及图签
 48
1.000000000000000E+16
100
AcDbPolyline
 90
        4
 70
     1
 43
0.0
 10
663.2245066177947
 20
403.6880940535411
 10
818.1316981838827
 20
403.6880940535411
 10
818.1316981838827
 20
323.2164275793002
 10
663.2245066177947
 20
323.2164275793002
  0
LINE
  5
7F3E
330
1F
100
AcDbEntity
  8
图例及图签
 62
     4
370
    -3
100
AcDbLine
 10
682.7885370542952
 20
371.8657557302539
 30
0.0
 11
792.2906471153546
 21
372.0095470008782
 31
0.0
  0
LINE
  5
7F3F
330
1F
100
AcDbEntity
  8
图例及图签
 62
     4
370
    -3
100
AcDbLine
 10
682.7885370542952
 20
355.6657394898539
 30
0.0
 11
792.2906471153546
 21
355.8095307189179
 31
0.0
  0
LINE
  5
7F40
330
1F
100
AcDbEntity
  8
图例及图签
 62
     4
370
    -3
100
AcDbLine
 10
1491.988094662316
 20
522.1961388211783
 30
0.0000000041892671
 11
1601.490204723377
 21
522.3399300918243
 31
0.0000000041892671
  0
LINE
  5
7F41
330
1F
100
AcDbEntity
  8
图例及图签
 62
     4
370
    -3
100
AcDbLine
 10
1491.988094662316
 20
505.9961225807782
 30
0.0000000041892671
 11
1601.490204723377
 21
506.1399138098422
 31
0.0000000041892671
  0
LINE
  5
7F42
330
1F
100
AcDbEntity
  8
图例及图签
 62
     4
370
    -3
100
AcDbLine
 10
2090.659664430233
 20
522.387622001057
 30
0.0000000041892671
 11
2200.161774491266
 21
522.531413271703
 31
0.0000000041892671
  0
LINE
  5
7F43
330
1F
100
AcDbEntity
  8
图例及图签
 62
     4
370
    -3
100
AcDbLine
 10
2090.659664430233
 20
506.1876057606569
 30
0.0000000041892671
 11
2200.161774491266
 21
506.3313969897206
 31
0.0000000041892671
  0
LINE
  5
7F44
330
1F
100
AcDbEntity
  8
图例及图签
 62
     4
370
    -3
100
AcDbLine
 10
2089.221903263601
 20
368.5097253538988
 30
0.0000000041892671
 11
2198.724013324632
 21
368.6535166245449
 31
0.0000000041892671
  0
LINE
  5
7F45
330
1F
100
AcDbEntity
  8
图例及图签
 62
     4
370
    -3
100
AcDbLine
 10
2089.221903263601
 20
352.3097091134987
 30
0.0000000041892671
 11
2198.724013324632
 21
352.4535003425626
 31
0.0000000041892671
  0
LINE
  5
7F46
330
1F
100
AcDbEntity
  8
图例及图签
 62
     4
370
    -3
100
AcDbLine
 10
2392.443383141006
 20
527.7371224255548
 30
0.0
 11
2282.941273079974
 21
527.5933311964909
 31
0.0
  0
LINE
  5
7F47
330
1F
100
AcDbEntity
  8
图例及图签
 62
     4
370
    -3
100
AcDbLine
 10
2392.443383141006
 20
511.5371061851474
 30
0.0
 11
2282.941273079974
 21
511.3933149145231
 31
0.0
  0
LINE
  5
7F48
330
1F
100
AcDbEntity
  8
图例及图签
 62
     4
 48
1.000000000000000E+16
370
    -3
100
AcDbLine
 10
2107.672840112013
 20
335.5690541754157
 30
0.0
 11
2106.988012254915
 21
387.1114308539327
 31
0.0
  0
ARC
  5
7F49
330
1F
100
AcDbEntity
  8
图例及图签
 62
     4
 48
1.000000000000000E+16
100
AcDbCircle
 10
2115.558495026702
 20
361.1933591632769
 30
0.0
 40
19.92082388687595
100
AcDbArc
 50
270.7612267750183
 51
90.76122677501823
  0
LINE
  5
7F4A
330
1F
100
AcDbEntity
  8
图例及图签
 62
     4
 48
1.000000000000000E+16
100
AcDbLine
 10
2115.823153585115
 20
341.2742934176494
 30
0.0
 11
2116.064824802402
 21
323.0853298934562
 31
0.0
  0
LINE
  5
7F4B
330
1F
100
AcDbEntity
  8
图例及图签
 62
     4
 48
1.000000000000000E+16
100
AcDbLine
 10
2115.029544739206
 20
401.0038818809915
 30
0.0
 11
2115.293836468285
 21
381.1124249089262
 31
0.0
  0
ARC
  5
7F4C
330
1F
100
AcDbEntity
  8
图例及图签
 62
     4
 48
1.000000000000000E+16
100
AcDbCircle
 10
1526.574876442524
 20
513.1541343584395
 30
0.0
 40
19.92082388687595
100
AcDbArc
 50
270.0
 51
90.0
  0
LINE
  5
7F4D
330
1F
100
AcDbEntity
  8
图例及图签
 62
     4
 48
1.000000000000000E+16
100
AcDbLine
 10
1526.574876442524
 20
493.2333104715799
 30
0.0
 11
1526.574876442524
 21
473.3400977951458
 31
0.0
  0
LINE
  5
7F4E
330
1F
100
AcDbEntity
  8
图例及图签
 62
     4
 48
1.000000000000000E+16
100
AcDbLine
 10
1526.574876442524
 20
552.9681709217546
 30
0.0
 11
1526.574876442524
 21
533.0749582453209
 31
0.0
  0
LINE
  5
7F4F
330
1F
100
AcDbEntity
  8
图例及图签
 62
     4
370
    -3
100
AcDbLine
 10
1392.010416515557
 20
354.1628481602784
 30
0.0
 11
1282.508306454525
 21
354.0190568896615
 31
0.0
  0
LINE
  5
7F50
330
1F
100
AcDbEntity
  8
图例及图签
 62
     4
370
    -3
100
AcDbLine
 10
1392.010416515557
 20
370.3628644006931
 30
0.0
 11
1282.508306454525
 21
370.2190731716291
 31
0.0
  0
ARC
  5
7F51
330
1F
100
AcDbEntity
  8
图例及图签
 62
     4
 48
1.000000000000000E+16
100
AcDbCircle
 10
1546.495700329369
 20
513.1541343584395
 30
0.0
 40
19.92082388687595
100
AcDbArc
 50
270.0
 51
90.0
  0
LINE
  5
7F52
330
1F
100
AcDbEntity
  8
图例及图签
 62
     4
 48
1.000000000000000E+16
100
AcDbLine
 10
1546.495700329369
 20
493.2333104715799
 30
0.0
 11
1546.495700329369
 21
473.3400977951458
 31
0.0
  0
LINE
  5
7F53
330
1F
100
AcDbEntity
  8
图例及图签
 62
     4
 48
1.000000000000000E+16
100
AcDbLine
 10
1546.495700329369
 20
552.9681709217546
 30
0.0
 11
1546.495700329369
 21
533.0749582453209
 31
0.0
  0
ARC
  5
7F54
330
1F
100
AcDbEntity
  8
图例及图签
 62
     4
 48
1.000000000000000E+16
100
AcDbCircle
 10
1526.574876442524
 20
513.1541343584395
 30
0.0
 40
19.92082388687595
100
AcDbArc
 50
270.0
 51
90.0
  0
LINE
  5
7F55
330
1F
100
AcDbEntity
  8
图例及图签
 62
     4
 48
1.000000000000000E+16
100
AcDbLine
 10
1526.574876442524
 20
493.2333104715799
 30
0.0
 11
1526.574876442524
 21
473.3400977951458
 31
0.0
  0
LINE
  5
7F56
330
1F
100
AcDbEntity
  8
图例及图签
 62
     4
 48
1.000000000000000E+16
100
AcDbLine
 10
1526.574876442524
 20
552.9681709217546
 30
0.0
 11
1526.574876442524
 21
533.0749582453209
 31
0.0
  0
LINE
  5
803F
330
1F
100
AcDbEntity
  8
坐标网格
 62
   252
100
AcDbLine
 10
5815.52660115378
 20
7110.235524214238
 30
-0.0000000012726105
 11
12975.89126316505
 21
2962.392335462448
 31
-0.0000000012726105
  0
LINE
  5
8040
330
1F
100
AcDbEntity
  8
坐标网格
 62
   252
100
AcDbLine
 10
76.33460294597671
 20
6938.701449726352
 30
-0.0000000012726105
 11
11983.01963063421
 21
41.41831909893443
 31
-0.0000000012726105
  0
LINE
  5
8041
330
1F
100
AcDbEntity
  8
坐标网格
 62
   252
100
AcDbLine
 10
11115.00170826613
 20
74.97014676077305
 30
-0.0000000012726105
 11
13556.90567938103
 21
4290.395394791068
 31
-0.0000000012726105
  0
LINE
  5
8042
330
1F
100
AcDbEntity
  8
坐标网格
 62
   252
100
AcDbLine
 10
7648.004571056239
 20
74.97014676077305
 30
-0.0000000012726105
 11
7793.572047326172
 21
326.2612794263434
 31
-0.0000000012726105
  0
LINE
  5
8043
330
1F
100
AcDbEntity
  8
坐标网格
 62
   252
100
AcDbLine
 10
8145.665128446173
 20
934.0747239232907
 30
-0.0000000012726105
 11
11723.38047080223
 21
7110.235524214238
 31
-0.0000000012726105
  0
TEXT
  5
8044
330
1F
100
AcDbEntity
  8
坐标网格
 62
     7
100
AcDbText
 10
7987.017588836045
 20
60.38639680705576
 30
-0.0000000012726105
 40
15.0
  1
49000
 50
329.9172222355829
 41
0.8
  7
楷体GB2312
 72
     2
 11
8024.351972783376
 21
38.75940189985629
 31
-0.0000000012726105
100
AcDbText
  0
LINE
  5
8045
330
1F
100
AcDbEntity
  8
坐标网格
 62
   252
100
AcDbLine
 10
68.69397129489289
 20
5816.587564991038
 30
-0.0000000012726105
 11
8497.308752102174
 21
934.0747239232896
 31
-0.0000000012726105
  0
LINE
  5
8046
330
1F
100
AcDbEntity
  8
坐标网格
 62
   252
100
AcDbLine
 10
8567.554135063501
 20
893.3831045702048
 30
-0.0000000012726105
 11
9980.369170586941
 21
74.97014676077305
 31
-0.0000000012726105
  0
LINE
  5
8047
330
1F
100
AcDbEntity
  8
坐标网格
 62
   252
100
AcDbLine
 10
5336.673146265921
 20
74.97014676077305
 30
-0.0000000012728554
 11
5493.183894869456
 21
345.1524999818281
 31
-0.0000000012728554
  0
LINE
  5
8048
330
1F
100
AcDbEntity
  8
坐标网格
 62
   252
100
AcDbLine
 10
5824.674077589341
 20
917.3994442719747
 30
-0.0000000012728554
 11
9412.049045997207
 21
7110.235524214238
 31
-0.0000000012728554
  0
LINE
  5
8049
330
1F
100
AcDbEntity
  8
坐标网格
  6
Continuous
 62
   252
100
AcDbLine
 10
1825.506944354177
 20
7110.235524214238
 30
-0.0000000012726105
 11
12966.5740718484
 21
656.4581565226027
 31
-0.0000000012726105
  0
LINE
  5
804A
330
1F
100
AcDbEntity
  8
坐标网格
 62
   252
100
AcDbLine
 10
9959.335995865533
 20
74.97014676077305
 30
-0.0000000012726105
 11
13556.90567938103
 21
6285.405223189044
 31
-0.0000000012726105
  0
LINE
  5
804B
330
1F
100
AcDbEntity
  8
坐标网格
 62
   252
100
AcDbLine
 10
9805.546257875368
 20
7110.235524214238
 30
-0.0000000012726105
 11
13556.90567938103
 21
4937.154772147703
 31
-0.0000000012726105
  0
LINE
  5
804C
330
1F
100
AcDbEntity
  8
坐标网格
 62
   252
100
AcDbLine
 10
11800.55608628908
 20
7110.235524214238
 30
-0.0000000012726105
 11
13556.90567938103
 21
6092.820484544128
 31
-0.0000000012726105
  0
LINE
  5
804D
330
1F
100
AcDbEntity
  8
坐标网格
 62
     0
100
AcDbLine
 10
68.69397129489289
 20
4660.921852555247
 30
-0.0000000012726105
 11
6502.298923698141
 21
934.0747239232912
 31
-0.0000000012726105
  0
LINE
  5
804E
330
1F
100
AcDbEntity
  8
坐标网格
 62
     0
100
AcDbLine
 10
7551.558915236424
 20
326.2612794263443
 30
-0.0000000012726105
 11
7985.35934219563
 21
74.97014676077305
 31
-0.0000000012726105
  0
LINE
  5
804F
330
1F
100
AcDbEntity
  8
坐标网格
 62
   252
100
AcDbLine
 10
12277.00254761139
 20
75.87105019375229
 30
-0.0000000012726105
 11
12513.2408063178
 21
483.6859078144691
 31
-0.0000000012726105
  0
LINE
  5
8050
330
1F
100
AcDbEntity
  8
坐标网格
 62
   252
100
AcDbLine
 10
12596.51141100304
 20
637.4701467607732
 30
-0.0000000012726105
 11
12967.55490350407
 21
1277.997425847635
 31
-0.0000000012726105
  0
TEXT
  5
8051
330
1F
100
AcDbEntity
  8
坐标网格
 62
     7
100
AcDbText
 10
6478.649048758144
 20
30.29271728733284
 30
-0.0000000012726717
 40
15.0
  1
24500
 50
54.01480478410753
 41
0.8
  7
楷体GB2312
 72
     2
 11
6504.000650619286
 21
65.20517088940613
 31
-0.0000000012726717
100
AcDbText
  0
TEXT
  5
8052
330
1F
100
AcDbEntity
  8
坐标网格
 62
     7
100
AcDbText
 10
7637.39621777585
 20
24.48475206554713
 30
-0.0000000012726717
 40
15.0
  1
25500
 50
54.01480478410753
 41
0.8
  7
楷体GB2312
 72
     2
 11
7662.74781963699
 21
59.39720566762042
 31
-0.0000000012726717
100
AcDbText
  0
TEXT
  5
8053
330
1F
100
AcDbEntity
  8
坐标网格
 62
     7
100
AcDbText
 10
8792.137078613041
 20
32.3299668710256
 30
-0.0000000012726717
 40
15.0
  1
26500
 50
54.01480478410753
 41
0.8
  7
楷体GB2312
 72
     2
 11
8817.488680474182
 21
67.24242047309889
 31
-0.0000000012726717
100
AcDbText
  0
TEXT
  5
8054
330
1F
100
AcDbEntity
  8
坐标网格
 62
     7
100
AcDbText
 10
9948.158064442452
 20
33.09952186704459
 30
-0.0000000012726717
 40
15.0
  1
27500
 50
54.01480478410753
 41
0.8
  7
楷体GB2312
 72
     2
 11
9973.509666303593
 21
68.01197546911788
 31
-0.0000000012726717
100
AcDbText
  0
TEXT
  5
8055
330
1F
100
AcDbEntity
  8
坐标网格
 62
     7
100
AcDbText
 10
11101.22105996684
 20
33.62602834469136
 30
-0.0000000012726717
 40
15.0
  1
28500
 50
54.01480478410753
 41
0.8
  7
楷体GB2312
 72
     2
 11
11126.57266182798
 21
68.53848194676465
 31
-0.0000000012726717
100
AcDbText
  0
TEXT
  5
8056
330
1F
100
AcDbEntity
  8
坐标网格
 62
     7
100
AcDbText
 10
12260.76461914345
 20
33.74631632826778
 30
-0.0000000012726717
 40
15.0
  1
29500
 50
54.01480478410753
 41
0.8
  7
楷体GB2312
 72
     2
 11
12286.11622100459
 21
68.65876993034106
 31
-0.0000000012726717
100
AcDbText
  0
TEXT
  5
8057
330
1F
100
AcDbEntity
  8
坐标网格
 62
     7
100
AcDbText
 10
9984.76479931396
 20
62.79535476973008
 30
-0.0000000012726105
 40
15.0
  1
50000
 50
329.9172222355829
 41
0.8
  7
楷体GB2312
 72
     2
 11
10022.09918326129
 21
41.16835986253061
 31
-0.0000000012726105
100
AcDbText
  0
TEXT
  5
8058
330
1F
100
AcDbEntity
  8
坐标网格
 62
     7
100
AcDbText
 10
11977.75399287655
 20
61.98890794266967
 30
-0.0000000012726105
 40
15.0
  1
51000
 50
329.9172222355829
 41
0.8
  7
楷体GB2312
 72
     2
 11
12015.08837682388
 21
40.3619130354702
 31
-0.0000000012726105
100
AcDbText
  0
TEXT
  5
8059
330
1F
100
AcDbEntity
  8
坐标网格
 62
     7
100
AcDbText
 10
13576.57183594545
 20
6274.213102482129
 30
-0.0000000012726717
 40
15.0
  1
27500
 50
54.01480478410753
 41
0.8
  7
楷体GB2312
 72
     2
 11
13601.92343780659
 21
6309.125556084203
 31
-0.0000000012726717
100
AcDbText
  0
TEXT
  5
805A
330
1F
100
AcDbEntity
  8
坐标网格
 62
     7
100
AcDbText
 10
13575.52915584356
 20
4272.670170522557
 30
-0.0000000012726717
 40
15.0
  1
28500
 50
54.01480478410753
 41
0.8
  7
楷体GB2312
 72
     2
 11
13600.8807577047
 21
4307.58262412463
 31
-0.0000000012726717
100
AcDbText
  0
TEXT
  5
805B
330
1F
100
AcDbEntity
  8
坐标网格
 62
     7
100
AcDbText
 10
3050.452734991978
 20
30.24205765167563
 30
-0.0000000012726717
 40
15.0
  1
21500
 50
54.01480478410753
 41
0.8
  7
楷体GB2312
 72
     2
 11
3075.804336853119
 21
65.15451125374892
 31
-0.0000000012726717
100
AcDbText
  0
TEXT
  5
805C
330
1F
100
AcDbEntity
  8
坐标网格
 62
     7
100
AcDbText
 10
4162.475744772655
 20
30.05042179925796
 30
-0.0000000012726717
 40
15.0
  1
22500
 50
54.01480478410753
 41
0.8
  7
楷体GB2312
 72
     2
 11
4187.827346633798
 21
64.96287540133124
 31
-0.0000000012726717
100
AcDbText
  0
TEXT
  5
805D
330
1F
100
AcDbEntity
  8
坐标网格
 62
     7
100
AcDbText
 10
5322.841605650637
 20
31.88688667722591
 30
-0.0000000012726717
 40
15.0
  1
23500
 50
54.01480478410753
 41
0.8
  7
楷体GB2312
 72
     2
 11
5348.193207511778
 21
66.7993402792992
 31
-0.0000000012726717
100
AcDbText
  0
TEXT
  5
805E
330
1F
100
AcDbEntity
  8
坐标网格
 62
     7
100
AcDbText
 10
30.47008932398384
 20
4674.294399564159
 30
-0.0000000012726105
 40
15.0
  1
49000
 50
329.9172222355829
 41
0.8
  7
楷体GB2312
 72
     2
 11
67.80447327131469
 21
4652.667404656959
 31
-0.0000000012726105
100
AcDbText
  0
TEXT
  5
805F
330
1F
100
AcDbEntity
  8
坐标网格
 62
     7
100
AcDbText
 10
26.39925438618738
 20
5835.114759181746
 30
-0.0000000012726105
 40
15.0
  1
50000
 50
329.9172222355829
 41
0.8
  7
楷体GB2312
 72
     2
 11
63.73363833351823
 21
5813.487764274547
 31
-0.0000000012726105
100
AcDbText
  0
TEXT
  5
8060
330
1F
100
AcDbEntity
  8
坐标网格
 62
     7
100
AcDbText
 10
30.8040980624115
 20
6986.713469535887
 30
-0.0000000012721834
 40
15.0
  1
51000
 50
329.9172222355829
 41
0.8
  7
楷体GB2312
 72
     2
 11
68.13848200974234
 21
6965.086474628688
 31
-0.0000000012721834
100
AcDbText
  0
TEXT
  5
8061
330
1F
100
AcDbEntity
  8
坐标网格
 62
     7
100
AcDbText
 10
13563.60781703397
 20
4914.231437396249
 30
-0.0000000012726105
 40
15.0
  1
56000
 50
329.9172222355829
 41
0.8
  7
楷体GB2312
 72
     2
 11
13600.9422009813
 21
4892.604442489049
 31
-0.0000000012726105
100
AcDbText
  0
TEXT
  5
8062
330
1F
100
AcDbEntity
  8
坐标网格
 62
     7
100
AcDbText
 10
13566.22319756165
 20
3772.464255470874
 30
-0.0000000012726105
 40
15.0
  1
55000
 50
329.9172222355829
 41
0.8
  7
楷体GB2312
 72
     2
 11
13603.55758150898
 21
3750.837260563675
 31
-0.0000000012726105
100
AcDbText
  0
TEXT
  5
8063
330
1F
100
AcDbEntity
  8
坐标网格
 62
     7
100
AcDbText
 10
13562.73148248766
 20
2620.17329737159
 30
-0.0000000012726105
 40
15.0
  1
54000
 50
329.9172222355829
 41
0.8
  7
楷体GB2312
 72
     2
 11
13600.06586643499
 21
2598.54630246439
 31
-0.0000000012726105
100
AcDbText
  0
TEXT
  5
8064
330
1F
100
AcDbEntity
  8
坐标网格
 62
     7
100
AcDbText
 10
13562.24851610496
 20
1469.702039782151
 30
-0.0000000012726105
 40
15.0
  1
53000
 50
329.9172222355829
 41
0.8
  7
楷体GB2312
 72
     2
 11
13599.58290005229
 21
1448.075044874952
 31
-0.0000000012726105
100
AcDbText
  0
TEXT
  5
8065
330
1F
100
AcDbEntity
  8
坐标网格
 62
     7
100
AcDbText
 10
13575.44835400014
 20
292.4741407858723
 30
-0.0000000012726105
 40
15.0
  1
52000
 50
329.9172222355829
 41
0.8
  7
楷体GB2312
 72
     2
 11
13612.78273794747
 21
270.8471458786728
 31
-0.0000000012726105
100
AcDbText
  0
TEXT
  5
8066
330
1F
100
AcDbEntity
  8
坐标网格
 62
     7
100
AcDbText
 10
1855.740566203877
 20
30.45871457734166
 30
-0.0000000012726717
 40
15.0
  1
20500
 50
54.01480478410753
 41
0.8
  7
楷体GB2312
 72
     2
 11
1881.092168065018
 21
65.37116817941495
 31
-0.0000000012726717
100
AcDbText
  0
TEXT
  5
8067
330
1F
100
AcDbEntity
  8
坐标网格
 62
     7
100
AcDbText
 10
28.38413558208194
 20
1210.633885379041
 30
-0.0000000012726105
 40
15.0
  1
46000
 50
329.9172222355829
 41
0.8
  7
楷体GB2312
 72
     2
 11
65.71851952941279
 21
1189.006890471842
 31
-0.0000000012726105
100
AcDbText
  0
LINE
  5
8068
330
1F
100
AcDbEntity
  8
坐标网格
 62
   252
100
AcDbLine
 10
3820.516772768745
 20
7110.235524214238
 30
-0.0000000012726105
 11
12968.39612610211
 21
1811.068392605702
 31
-0.0000000012726105
  0
LINE
  5
8069
330
1F
100
AcDbEntity
  8
坐标网格
 62
   252
100
AcDbLine
 10
6492.338858655128
 20
74.97014676077305
 30
-0.0000000012726717
 11
6637.906334925061
 21
326.2612794263429
 31
-0.0000000012726717
  0
LINE
  5
806A
330
1F
100
AcDbEntity
  8
坐标网格
 62
   252
100
AcDbLine
 10
6989.999416045065
 20
934.0747239232907
 30
-0.0000000012726717
 11
10567.71475840114
 21
7110.235524214238
 31
-0.0000000012726717
  0
LINE
  5
806B
330
1F
100
AcDbEntity
  8
坐标网格
 62
   252
100
AcDbLine
 10
68.69397129489289
 20
3505.256140158083
 30
-0.0000000012726105
 11
4536.075401258236
 21
917.3994442719747
 31
-0.0000000012726105
  0
LINE
  5
806C
330
1F
100
AcDbEntity
  8
坐标网格
 62
   252
100
AcDbLine
 10
5523.937432544215
 20
345.1524999818273
 30
-0.0000000012726105
 11
5990.349513785926
 21
74.97014676077305
 31
-0.0000000012726105
  0
LINE
  5
806D
330
1F
100
AcDbEntity
  8
坐标网格
 62
   252
100
AcDbLine
 10
68.69397129489289
 20
1193.924715363732
 30
-0.0000000012726105
 11
1022.735093019121
 21
641.2694868566477
 31
-0.0000000012726105
  0
LINE
  5
806E
330
1F
100
AcDbEntity
  8
坐标网格
 62
   252
100
AcDbLine
 10
3025.341721456729
 20
74.97014676077305
 30
-0.0000000012729779
 11
7100.71762119769
 21
7110.235524214238
 31
-0.0000000012729779
  0
LINE
  5
8071
330
1F
100
AcDbEntity
  8
坐标网格
 62
   252
100
AcDbLine
 10
68.69397129489289
 20
955.9792760744231
 30
-0.0000000012729779
 11
3633.720483994487
 21
7110.235524214238
 31
-0.0000000012729779
  0
LINE
  5
8072
330
1F
100
AcDbEntity
  8
坐标网格
 62
   252
100
AcDbLine
 10
68.69397129489289
 20
2950.989104464016
 30
-0.0000000012729779
 11
2478.054771593381
 21
7110.235524214238
 31
-0.0000000012729779
  0
LINE
  5
8073
330
1F
100
AcDbEntity
  8
坐标网格
 62
   252
100
AcDbLine
 10
68.69397129489289
 20
4945.998932853609
 30
-0.0000000012729779
 11
1322.389059192306
 21
7110.235524214238
 31
-0.0000000012729779
  0
LINE
  5
8074
330
1F
100
AcDbEntity
  8
坐标网格
 62
   252
100
AcDbLine
 10
68.69397129489289
 20
6941.008761243276
 30
-0.0000000012729779
 11
166.7233467912715
 21
7110.235524214238
 31
-0.0000000012729779
  0
TEXT
  5
8075
330
1F
100
AcDbEntity
  8
坐标网格
 62
     7
100
AcDbText
 10
53.26632752066217
 20
912.8846415860982
 30
-0.0000000012724864
 40
15.0
  1
18500
 50
59.58490803750156
 41
0.8
  7
楷体GB2312
 72
     2
 11
75.10949601643142
 21
950.0929622080796
 31
-0.0000000012724864
100
AcDbText
  0
TEXT
  5
8076
330
1F
100
AcDbEntity
  8
坐标网格
 62
     7
100
AcDbText
 10
701.4418221455823
 20
28.54695131590553
 30
-0.0000000012726717
 40
15.0
  1
19500
 50
54.01480478410753
 41
0.8
  7
楷体GB2312
 72
     2
 11
726.7934240067237
 21
63.45940491797882
 31
-0.0000000012726717
100
AcDbText
  0
TEXT
  5
8077
330
1F
100
AcDbEntity
  8
坐标网格
 62
     7
100
AcDbText
 10
31.55119449359117
 20
3522.153158348
 30
-0.0000000012726105
 40
15.0
  1
48000
 50
329.9172222355829
 41
0.8
  7
楷体GB2312
 72
     2
 11
68.88557844092201
 21
3500.526163440801
 31
-0.0000000012726105
100
AcDbText
  0
TEXT
  5
8078
330
1F
100
AcDbEntity
  8
坐标网格
 62
     7
100
AcDbText
 10
30.97369142965689
 20
2931.987784490605
 30
-0.0000000012726105
 40
15.0
  1
47500
 50
329.9172222355829
 41
0.8
  7
楷体GB2312
 72
     2
 11
68.30807537698774
 21
2910.360789583405
 31
-0.0000000012726105
100
AcDbText
  0
TEXT
  5
8079
330
1F
100
AcDbEntity
  8
坐标网格
 62
     7
100
AcDbText
 10
12.81494719409019
 20
2376.898236372352
 30
-0.0000000012726105
 40
15.0
  1
47000
 50
329.9172222355829
 41
0.8
  7
楷体GB2312
 72
     2
 11
50.14933114142104
 21
2355.271241465153
 31
-0.0000000012726105
100
AcDbText
  0
TEXT
  5
807A
330
1F
100
AcDbEntity
  8
坐标网格
 62
     7
100
AcDbText
 10
49.10849280215632
 20
2939.393255264383
 30
-0.0000000012726717
 40
15.0
  1
17500
 50
54.01480478410753
 41
0.8
  7
楷体GB2312
 72
     2
 11
74.46009466329769
 21
2974.305708866456
 31
-0.0000000012726717
100
AcDbText
  0
TEXT
  5
807B
330
1F
100
AcDbEntity
  8
坐标网格
 62
     7
100
AcDbText
 10
48.92003767857102
 20
4909.139709464915
 30
-0.0000000012726717
 40
15.0
  1
16500
 50
54.01480478410753
 41
0.8
  7
楷体GB2312
 72
     2
 11
74.27163953971239
 21
4944.052163066989
 31
-0.0000000012726717
100
AcDbText
  0
TEXT
  5
807C
330
1F
100
AcDbEntity
  8
坐标网格
 62
     7
100
AcDbText
 10
5995.659450592653
 20
59.51836815303734
 30
-0.0000000012726105
 40
15.0
  1
48000
 50
329.9172222355829
 41
0.8
  7
楷体GB2312
 72
     2
 11
6032.993834539984
 21
37.89137324583788
 31
-0.0000000012726105
100
AcDbText
  0
TEXT
  5
807D
330
1F
100
AcDbEntity
  8
坐标网格
 62
     7
100
AcDbText
 10
4004.256822163505
 20
49.79363576160297
 30
-0.0000000012726105
 40
15.0
  1
47000
 50
329.9172222355829
 41
0.8
  7
楷体GB2312
 72
     2
 11
4041.591206110837
 21
28.16664085440351
 31
-0.0000000012726105
100
AcDbText
  0
TEXT
  5
807E
330
1F
100
AcDbEntity
  8
坐标网格
 62
     7
100
AcDbText
 10
2009.241770115425
 20
56.24155247044594
 30
-0.0000000012726105
 40
15.0
  1
46000
 50
329.9172222355829
 41
0.8
  7
楷体GB2312
 72
     2
 11
2046.576154062755
 21
34.61455756324648
 31
-0.0000000012726105
100
AcDbText
  0
LINE
  5
807F
330
1F
100
AcDbEntity
  8
坐标网格
 62
   252
100
AcDbLine
 10
2835.723324805729
 20
746.7106306232227
 30
-0.0000000012726105
 11
3017.330151217958
 21
641.5097541998903
 31
-0.0000000012726105
  0
LINE
  5
8080
330
1F
100
AcDbEntity
  8
坐标网格
 62
   252
100
AcDbLine
 10
68.69397129489289
 20
2349.5904277609
 30
-0.0000000012726105
 11
3995.339685376296
 21
74.97014676077305
 31
-0.0000000012726105
  0
LINE
  5
8081
330
1F
100
AcDbEntity
  8
坐标网格
 62
   252
100
AcDbLine
 10
8803.670283457044
 20
74.97014676077305
 30
-0.0000000012726105
 11
12879.04618320304
 21
7110.235524214238
 31
-0.0000000012726105
  0
TEXT
  5
8082
330
1F
100
AcDbEntity
  8
坐标网格
 62
     7
100
AcDbText
 10
13562.95636388274
 20
6070.391074171658
 30
-0.0000000012726105
 40
15.0
  1
57000
 50
329.9172222355829
 41
0.8
  7
楷体GB2312
 72
     2
 11
13600.29074783007
 21
6048.764079264459
 31
-0.0000000012726105
100
AcDbText
  0
TEXT
  5
8083
330
1F
100
AcDbEntity
  8
坐标网格
 62
     7
100
AcDbText
 10
50.98300108483534
 20
6903.788996124278
 30
-0.0000000012726105
 40
15.0
  1
15500
 50
54.01480478410753
 41
0.8
  7
楷体GB2312
 72
     2
 11
76.33460294597671
 21
6938.701449726352
 31
-0.0000000012726105
100
AcDbText
  0
LINE
  5
8084
330
1F
100
AcDbEntity
  8
坐标网格
 62
   252
100
AcDbLine
 10
4181.00743385474
 20
74.97014676077305
 30
-0.0000000012729779
 11
4337.518182458793
 21
345.1524999818277
 31
-0.0000000012729779
  0
LINE
  5
8085
330
1F
100
AcDbEntity
  8
坐标网格
 62
   252
100
AcDbLine
 10
4669.008365179774
 20
917.3994442719752
 30
-0.0000000012729779
 11
8256.383333599499
 21
7110.235524214238
 31
-0.0000000012729779
  0
LINE
  5
8086
330
1F
100
AcDbEntity
  8
坐标网格
 62
   252
100
AcDbLine
 10
7810.536429528013
 20
7110.235524214238
 30
-0.0000000012726105
 11
13603.18263467563
 21
3754.681828148029
 31
-0.0000000012726105
  0
LINE
  5
8087
330
1F
100
AcDbEntity
  8
坐标网格
 62
     8
100
AcDbLine
 10
7462.106956936577
 20
3733.933292775349
 30
-0.0000000012624396
 11
8022.352894926196
 21
4701.078151891596
 31
-0.0000000012624396
  0
LINE
  5
8088
330
1F
100
AcDbEntity
  8
坐标网格
 62
   252
100
AcDbLine
 10
76.33460294597671
 20
6938.701449726352
 30
-0.0000000012726105
 11
11983.01963063421
 21
41.41831909893443
 31
-0.0000000012726105
  0
LINE
  5
8089
330
1F
100
AcDbEntity
  8
坐标网格
 62
   252
100
AcDbLine
 10
68.69397129489289
 20
5816.587564991038
 30
-0.0000000012726105
 11
8585.094379755615
 21
883.0059650032078
 31
-0.0000000012726105
  0
LINE
  5
808A
330
1F
100
AcDbEntity
  8
坐标网格
 62
   252
100
AcDbLine
 10
8567.554135063501
 20
893.3831045702048
 30
-0.0000000012726105
 11
9980.369170586941
 21
74.97014676077305
 31
-0.0000000012726105
  0
LINE
  5
808B
330
1F
100
AcDbEntity
  8
坐标网格
  6
Continuous
 62
   252
100
AcDbLine
 10
1825.506944354177
 20
7110.235524214238
 30
-0.0000000012726105
 11
12966.5740718484
 21
656.4581565226027
 31
-0.0000000012726105
  0
LINE
  5
808C
330
1F
100
AcDbEntity
  8
坐标网格
 62
   252
100
AcDbLine
 10
68.69397129489289
 20
4660.921852555247
 30
-0.0000000012726105
 11
7599.299149803781
 21
298.8464081017232
 31
-0.0000000012726105
  0
LINE
  5
808D
330
1F
100
AcDbEntity
  8
坐标网格
 62
     0
100
AcDbLine
 10
7551.558915236424
 20
326.2612794263443
 30
-0.0000000012726105
 11
7985.35934219563
 21
74.97014676077305
 31
-0.0000000012726105
  0
LINE
  5
808E
330
1F
100
AcDbEntity
  8
坐标网格
 62
   252
100
AcDbLine
 10
3820.516772768745
 20
7110.235524214238
 30
-0.0000000012726105
 11
13563.54229225902
 21
1452.842956761888
 31
-0.0000000012726105
  0
LINE
  5
808F
330
1F
100
AcDbEntity
  8
坐标网格
 62
   252
100
AcDbLine
 10
68.69397129489289
 20
3505.256140158083
 30
-0.0000000012726105
 11
5536.298121554667
 21
337.696446437194
 31
-0.0000000012726105
  0
LINE
  5
8090
330
1F
100
AcDbEntity
  8
坐标网格
 62
   252
100
AcDbLine
 10
5523.937432544215
 20
345.1524999818273
 30
-0.0000000012726105
 11
5990.349513785926
 21
74.97014676077305
 31
-0.0000000012726105
  0
LINE
  5
8091
330
1F
100
AcDbEntity
  8
坐标网格
 62
   252
100
AcDbLine
 10
3025.341721456729
 20
74.97014676077305
 30
-0.0000000012729779
 11
7100.71762119769
 21
7110.235524214238
 31
-0.0000000012729779
  0
LINE
  5
8094
330
1F
100
AcDbEntity
  8
坐标网格
 62
   252
100
AcDbLine
 10
4181.00743385474
 20
74.97014676077305
 30
-0.0000000012729779
 11
4672.566243270861
 21
920.5451453607452
 31
-0.0000000012729779
  0
LINE
  5
8095
330
1F
100
AcDbEntity
  8
坐标网格
 62
   252
100
AcDbLine
 10
4669.008365179774
 20
917.3994442719752
 30
-0.0000000012729779
 11
8256.383333599499
 21
7110.235524214238
 31
-0.0000000012729779
  0
LINE
  5
8096
330
1F
100
AcDbEntity
  8
坐标网格
 62
   252
100
AcDbLine
 10
5815.52660115378
 20
7110.235524214238
 30
-0.0000000012726105
 11
13570.02146408768
 21
2617.146427869434
 31
-0.0000000012726105
  0
LINE
  5
8097
330
1F
100
AcDbEntity
  8
坐标网格
 62
   252
100
AcDbLine
 10
11115.00170826613
 20
74.97014676077305
 30
-0.0000000012726105
 11
13556.90567938103
 21
4290.395394791068
 31
-0.0000000012726105
  0
LINE
  5
8098
330
1F
100
AcDbEntity
  8
坐标网格
 62
   252
100
AcDbLine
 10
7648.004571056239
 20
74.97014676077305
 30
-0.0000000012726105
 11
7793.572047326172
 21
326.2612794263434
 31
-0.0000000012726105
  0
LINE
  5
8099
330
1F
100
AcDbEntity
  8
坐标网格
 62
   252
100
AcDbLine
 10
7744.208265291725
 20
244.06369370994
 30
-0.0000000012726105
 11
11723.38047080223
 21
7110.235524214238
 31
-0.0000000012726105
  0
LINE
  5
809A
330
1F
100
AcDbEntity
  8
坐标网格
 62
   252
100
AcDbLine
 10
5336.673146265921
 20
74.97014676077305
 30
-0.0000000012728554
 11
5841.668640927543
 21
946.1796238180276
 31
-0.0000000012728554
  0
LINE
  5
809B
330
1F
100
AcDbEntity
  8
坐标网格
 62
   252
100
AcDbLine
 10
5824.674077589341
 20
917.3994442719747
 30
-0.0000000012728554
 11
9412.049045997207
 21
7110.235524214238
 31
-0.0000000012728554
  0
LINE
  5
809C
330
1F
100
AcDbEntity
  8
坐标网格
 62
   252
100
AcDbLine
 10
9959.335995865533
 20
74.97014676077305
 30
-0.0000000012726105
 11
13556.90567938103
 21
6285.405223189044
 31
-0.0000000012726105
  0
LINE
  5
809D
330
1F
100
AcDbEntity
  8
坐标网格
 62
   252
100
AcDbLine
 10
6492.338858655128
 20
74.97014676077305
 30
-0.0000000012726717
 11
7017.895503516794
 21
979.2123771609626
 31
-0.0000000012726717
  0
LINE
  5
809E
330
1F
100
AcDbEntity
  8
坐标网格
 62
   252
100
AcDbLine
 10
6989.999416045065
 20
934.0747239232907
 30
-0.0000000012726717
 11
10567.71475840114
 21
7110.235524214238
 31
-0.0000000012726717
  0
LINE
  5
809F
330
1F
100
AcDbEntity
  8
坐标网格
 62
   252
100
AcDbLine
 10
8803.670283457044
 20
74.97014676077305
 30
-0.0000000012726105
 11
12879.04618320304
 21
7110.235524214238
 31
-0.0000000012726105
  0
LINE
  5
80A0
330
1F
100
AcDbEntity
  8
坐标网格
 62
   252
100
AcDbLine
 10
12277.00254761139
 20
75.87105019375229
 30
-0.0000000012726105
 11
12513.2408063178
 21
483.6859078144691
 31
-0.0000000012726105
  0
TEXT
  5
80A1
330
1F
100
AcDbEntity
  8
坐标网格
 62
     7
100
AcDbText
 10
11977.75399287655
 20
61.98890794266967
 30
-0.0000000012726105
 40
15.0
  1
51000
 50
329.9172222355829
 41
0.8
  7
楷体GB2312
 72
     2
 11
12015.08837682388
 21
40.3619130354702
 31
-0.0000000012726105
100
AcDbText
  0
TEXT
  5
80A2
330
1F
100
AcDbEntity
  8
坐标网格
 62
     7
100
AcDbText
 10
12260.76461914345
 20
33.74631632826778
 30
-0.0000000012726717
 40
15.0
  1
29500
 50
54.01480478410753
 41
0.8
  7
楷体GB2312
 72
     2
 11
12286.11622100459
 21
68.65876993034106
 31
-0.0000000012726717
100
AcDbText
  0
TEXT
  5
80A3
330
1F
100
AcDbEntity
  8
坐标网格
 62
     7
100
AcDbText
 10
13575.44835400014
 20
292.4741407858723
 30
-0.0000000012726105
 40
15.0
  1
52000
 50
329.9172222355829
 41
0.8
  7
楷体GB2312
 72
     2
 11
13612.78273794747
 21
270.8471458786728
 31
-0.0000000012726105
100
AcDbText
  0
TEXT
  5
80A4
330
1F
100
AcDbEntity
  8
坐标网格
 62
     7
100
AcDbText
 10
7987.017588836045
 20
60.38639680705576
 30
-0.0000000012726105
 40
15.0
  1
49000
 50
329.9172222355829
 41
0.8
  7
楷体GB2312
 72
     2
 11
8024.351972783376
 21
38.75940189985629
 31
-0.0000000012726105
100
AcDbText
  0
TEXT
  5
80A5
330
1F
100
AcDbEntity
  8
坐标网格
 62
     7
100
AcDbText
 10
6478.649048758144
 20
30.29271728733284
 30
-0.0000000012726717
 40
15.0
  1
24500
 50
54.01480478410753
 41
0.8
  7
楷体GB2312
 72
     2
 11
6504.000650619286
 21
65.20517088940613
 31
-0.0000000012726717
100
AcDbText
  0
TEXT
  5
80A6
330
1F
100
AcDbEntity
  8
坐标网格
 62
     7
100
AcDbText
 10
7637.39621777585
 20
24.48475206554713
 30
-0.0000000012726717
 40
15.0
  1
25500
 50
54.01480478410753
 41
0.8
  7
楷体GB2312
 72
     2
 11
7662.74781963699
 21
59.39720566762042
 31
-0.0000000012726717
100
AcDbText
  0
TEXT
  5
80A7
330
1F
100
AcDbEntity
  8
坐标网格
 62
     7
100
AcDbText
 10
8792.137078613041
 20
32.3299668710256
 30
-0.0000000012726717
 40
15.0
  1
26500
 50
54.01480478410753
 41
0.8
  7
楷体GB2312
 72
     2
 11
8817.488680474182
 21
67.24242047309889
 31
-0.0000000012726717
100
AcDbText
  0
TEXT
  5
80A8
330
1F
100
AcDbEntity
  8
坐标网格
 62
     7
100
AcDbText
 10
9948.158064442452
 20
33.09952186704459
 30
-0.0000000012726717
 40
15.0
  1
27500
 50
54.01480478410753
 41
0.8
  7
楷体GB2312
 72
     2
 11
9973.509666303593
 21
68.01197546911788
 31
-0.0000000012726717
100
AcDbText
  0
TEXT
  5
80A9
330
1F
100
AcDbEntity
  8
坐标网格
 62
     7
100
AcDbText
 10
11101.22105996684
 20
33.62602834469136
 30
-0.0000000012726717
 40
15.0
  1
28500
 50
54.01480478410753
 41
0.8
  7
楷体GB2312
 72
     2
 11
11126.57266182798
 21
68.53848194676465
 31
-0.0000000012726717
100
AcDbText
  0
TEXT
  5
80AA
330
1F
100
AcDbEntity
  8
坐标网格
 62
     7
100
AcDbText
 10
9984.76479931396
 20
62.79535476973008
 30
-0.0000000012726105
 40
15.0
  1
50000
 50
329.9172222355829
 41
0.8
  7
楷体GB2312
 72
     2
 11
10022.09918326129
 21
41.16835986253061
 31
-0.0000000012726105
100
AcDbText
  0
TEXT
  5
80AB
330
1F
100
AcDbEntity
  8
坐标网格
 62
     7
100
AcDbText
 10
5322.841605650637
 20
31.88688667722591
 30
-0.0000000012726717
 40
15.0
  1
23500
 50
54.01480478410753
 41
0.8
  7
楷体GB2312
 72
     2
 11
5348.193207511778
 21
66.7993402792992
 31
-0.0000000012726717
100
AcDbText
  0
TEXT
  5
80AC
330
1F
100
AcDbEntity
  8
坐标网格
 62
     7
100
AcDbText
 10
5995.659450592653
 20
59.51836815303734
 30
-0.0000000012726105
 40
15.0
  1
48000
 50
329.9172222355829
 41
0.8
  7
楷体GB2312
 72
     2
 11
6032.993834539984
 21
37.89137324583788
 31
-0.0000000012726105
100
AcDbText
  0
LINE
  5
80AD
330
1F
100
AcDbEntity
  8
坐标网格
 62
   252
100
AcDbLine
 10
12596.51141100304
 20
637.4701467607732
 30
-0.0000000012726105
 11
13563.4480556276
 21
2327.867837483795
 31
-0.0000000012726105
  0
TEXT
  5
80AE
330
1F
100
AcDbEntity
  8
坐标网格
 62
     7
100
AcDbText
 10
13562.24851610496
 20
1469.702039782151
 30
-0.0000000012726105
 40
15.0
  1
53000
 50
329.9172222355829
 41
0.8
  7
楷体GB2312
 72
     2
 11
13599.58290005229
 21
1448.075044874952
 31
-0.0000000012726105
100
AcDbText
  0
TEXT
  5
80AF
330
1F
100
AcDbEntity
  8
坐标网格
 62
     7
100
AcDbText
 10
13562.73148248766
 20
2620.17329737159
 30
-0.0000000012726105
 40
15.0
  1
54000
 50
329.9172222355829
 41
0.8
  7
楷体GB2312
 72
     2
 11
13600.06586643499
 21
2598.54630246439
 31
-0.0000000012726105
100
AcDbText
  0
LINE
  5
80B0
330
1F
100
AcDbEntity
  8
坐标网格
 62
   252
100
AcDbLine
 10
9805.546257875368
 20
7110.235524214238
 30
-0.0000000012726105
 11
13556.90567938103
 21
4937.154772147703
 31
-0.0000000012726105
  0
LINE
  5
80B1
330
1F
100
AcDbEntity
  8
坐标网格
 62
   252
100
AcDbLine
 10
7810.536429528013
 20
7110.235524214238
 30
-0.0000000012726105
 11
13603.18263467563
 21
3754.681828148029
 31
-0.0000000012726105
  0
TEXT
  5
80B2
330
1F
100
AcDbEntity
  8
坐标网格
 62
     7
100
AcDbText
 10
13566.22319756165
 20
3772.464255470874
 30
-0.0000000012726105
 40
15.0
  1
55000
 50
329.9172222355829
 41
0.8
  7
楷体GB2312
 72
     2
 11
13603.55758150898
 21
3750.837260563675
 31
-0.0000000012726105
100
AcDbText
  0
TEXT
  5
80B3
330
1F
100
AcDbEntity
  8
坐标网格
 62
     7
100
AcDbText
 10
13575.52915584356
 20
4272.670170522557
 30
-0.0000000012726717
 40
15.0
  1
28500
 50
54.01480478410753
 41
0.8
  7
楷体GB2312
 72
     2
 11
13600.8807577047
 21
4307.58262412463
 31
-0.0000000012726717
100
AcDbText
  0
TEXT
  5
80B4
330
1F
100
AcDbEntity
  8
坐标网格
 62
     7
100
AcDbText
 10
13563.60781703397
 20
4914.231437396249
 30
-0.0000000012726105
 40
15.0
  1
56000
 50
329.9172222355829
 41
0.8
  7
楷体GB2312
 72
     2
 11
13600.9422009813
 21
4892.604442489049
 31
-0.0000000012726105
100
AcDbText
  0
LINE
  5
80B5
330
1F
100
AcDbEntity
  8
坐标网格
 62
     8
100
AcDbLine
 10
7462.106956936577
 20
3733.933292775349
 30
-0.0000000012624396
 11
8022.352894926196
 21
4701.078151891596
 31
-0.0000000012624396
  0
LINE
  5
80B6
330
1F
100
AcDbEntity
  8
坐标网格
 62
   252
100
AcDbLine
 10
11800.55608628908
 20
7110.235524214238
 30
-0.0000000012726105
 11
13556.90567938103
 21
6092.820484544128
 31
-0.0000000012726105
  0
TEXT
  5
80B7
330
1F
100
AcDbEntity
  8
坐标网格
 62
     7
100
AcDbText
 10
13576.57183594545
 20
6274.213102482129
 30
-0.0000000012726717
 40
15.0
  1
27500
 50
54.01480478410753
 41
0.8
  7
楷体GB2312
 72
     2
 11
13601.92343780659
 21
6309.125556084203
 31
-0.0000000012726717
100
AcDbText
  0
TEXT
  5
80B8
330
1F
100
AcDbEntity
  8
坐标网格
 62
     7
100
AcDbText
 10
13562.95636388274
 20
6070.391074171658
 30
-0.0000000012726105
 40
15.0
  1
57000
 50
329.9172222355829
 41
0.8
  7
楷体GB2312
 72
     2
 11
13600.29074783007
 21
6048.764079264459
 31
-0.0000000012726105
100
AcDbText
  0
LINE
  5
80B9
330
1F
100
AcDbEntity
  8
坐标网格
 62
   252
100
AcDbLine
 10
68.69397129489289
 20
955.9792760744231
 30
-0.0000000012729779
 11
3633.720483994487
 21
7110.235524214238
 31
-0.0000000012729779
  0
LINE
  5
80BA
330
1F
100
AcDbEntity
  8
坐标网格
 62
   252
100
AcDbLine
 10
68.69397129489289
 20
2950.989104464016
 30
-0.0000000012729779
 11
2478.054771593381
 21
7110.235524214238
 31
-0.0000000012729779
  0
LINE
  5
80BB
330
1F
100
AcDbEntity
  8
坐标网格
 62
   252
100
AcDbLine
 10
68.69397129489289
 20
1193.924715363732
 30
-0.0000000012726105
 11
1021.421195439359
 21
642.0305990882313
 31
-0.0000000012726105
  0
LINE
  5
80BC
330
1F
100
AcDbEntity
  8
坐标网格
 62
   252
100
AcDbLine
 10
68.69397129489289
 20
2349.5904277609
 30
-0.0000000012726105
 11
3995.339685376296
 21
74.97014676077305
 31
-0.0000000012726105
  0
TEXT
  5
80BD
330
1F
100
AcDbEntity
  8
坐标网格
 62
     7
100
AcDbText
 10
3050.452734991978
 20
30.24205765167563
 30
-0.0000000012726717
 40
15.0
  1
21500
 50
54.01480478410753
 41
0.8
  7
楷体GB2312
 72
     2
 11
3075.804336853119
 21
65.15451125374892
 31
-0.0000000012726717
100
AcDbText
  0
TEXT
  5
80BE
330
1F
100
AcDbEntity
  8
坐标网格
 62
     7
100
AcDbText
 10
4162.475744772655
 20
30.05042179925796
 30
-0.0000000012726717
 40
15.0
  1
22500
 50
54.01480478410753
 41
0.8
  7
楷体GB2312
 72
     2
 11
4187.827346633798
 21
64.96287540133124
 31
-0.0000000012726717
100
AcDbText
  0
TEXT
  5
80BF
330
1F
100
AcDbEntity
  8
坐标网格
 62
     7
100
AcDbText
 10
1855.740566203877
 20
30.45871457734166
 30
-0.0000000012726717
 40
15.0
  1
20500
 50
54.01480478410753
 41
0.8
  7
楷体GB2312
 72
     2
 11
1881.092168065018
 21
65.37116817941495
 31
-0.0000000012726717
100
AcDbText
  0
TEXT
  5
80C0
330
1F
100
AcDbEntity
  8
坐标网格
 62
     7
100
AcDbText
 10
701.4418221455823
 20
28.54695131590553
 30
-0.0000000012726717
 40
15.0
  1
19500
 50
54.01480478410753
 41
0.8
  7
楷体GB2312
 72
     2
 11
726.7934240067237
 21
63.45940491797882
 31
-0.0000000012726717
100
AcDbText
  0
TEXT
  5
80C1
330
1F
100
AcDbEntity
  8
坐标网格
 62
     7
100
AcDbText
 10
4004.256822163505
 20
49.79363576160297
 30
-0.0000000012726105
 40
15.0
  1
47000
 50
329.9172222355829
 41
0.8
  7
楷体GB2312
 72
     2
 11
4041.591206110837
 21
28.16664085440351
 31
-0.0000000012726105
100
AcDbText
  0
TEXT
  5
80C2
330
1F
100
AcDbEntity
  8
坐标网格
 62
     7
100
AcDbText
 10
2009.241770115425
 20
56.24155247044594
 30
-0.0000000012726105
 40
15.0
  1
46000
 50
329.9172222355829
 41
0.8
  7
楷体GB2312
 72
     2
 11
2046.576154062755
 21
34.61455756324648
 31
-0.0000000012726105
100
AcDbText
  0
LINE
  5
80C3
330
1F
100
AcDbEntity
  8
坐标网格
 62
   252
100
AcDbLine
 10
2835.723324805729
 20
746.7106306232227
 30
-0.0000000012726105
 11
3017.330151217958
 21
641.5097541998903
 31
-0.0000000012726105
  0
TEXT
  5
80C4
330
1F
100
AcDbEntity
  8
坐标网格
 62
     7
100
AcDbText
 10
28.38413558208194
 20
1210.633885379041
 30
-0.0000000012726105
 40
15.0
  1
46000
 50
329.9172222355829
 41
0.8
  7
楷体GB2312
 72
     2
 11
65.71851952941279
 21
1189.006890471842
 31
-0.0000000012726105
100
AcDbText
  0
TEXT
  5
80C5
330
1F
100
AcDbEntity
  8
坐标网格
 62
     7
100
AcDbText
 10
53.26632752066217
 20
912.8846415860982
 30
-0.0000000012724864
 40
15.0
  1
18500
 50
59.58490803750156
 41
0.8
  7
楷体GB2312
 72
     2
 11
75.10949601643142
 21
950.0929622080796
 31
-0.0000000012724864
100
AcDbText
  0
TEXT
  5
80C6
330
1F
100
AcDbEntity
  8
坐标网格
 62
     7
100
AcDbText
 10
30.97369142965689
 20
2931.987784490605
 30
-0.0000000012726105
 40
15.0
  1
47500
 50
329.9172222355829
 41
0.8
  7
楷体GB2312
 72
     2
 11
68.30807537698774
 21
2910.360789583405
 31
-0.0000000012726105
100
AcDbText
  0
TEXT
  5
80C7
330
1F
100
AcDbEntity
  8
坐标网格
 62
     7
100
AcDbText
 10
12.81494719409019
 20
2376.898236372352
 30
-0.0000000012726105
 40
15.0
  1
47000
 50
329.9172222355829
 41
0.8
  7
楷体GB2312
 72
     2
 11
50.14933114142104
 21
2355.271241465153
 31
-0.0000000012726105
100
AcDbText
  0
TEXT
  5
80C8
330
1F
100
AcDbEntity
  8
坐标网格
 62
     7
100
AcDbText
 10
49.10849280215632
 20
2939.393255264383
 30
-0.0000000012726717
 40
15.0
  1
17500
 50
54.01480478410753
 41
0.8
  7
楷体GB2312
 72
     2
 11
74.46009466329769
 21
2974.305708866456
 31
-0.0000000012726717
100
AcDbText
  0
LINE
  5
80C9
330
1F
100
AcDbEntity
  8
坐标网格
 62
   252
100
AcDbLine
 10
68.69397129489289
 20
4945.998932853609
 30
-0.0000000012729779
 11
1322.389059192306
 21
7110.235524214238
 31
-0.0000000012729779
  0
TEXT
  5
80CA
330
1F
100
AcDbEntity
  8
坐标网格
 62
     7
100
AcDbText
 10
30.47008932398384
 20
4674.294399564159
 30
-0.0000000012726105
 40
15.0
  1
49000
 50
329.9172222355829
 41
0.8
  7
楷体GB2312
 72
     2
 11
67.80447327131469
 21
4652.667404656959
 31
-0.0000000012726105
100
AcDbText
  0
TEXT
  5
80CB
330
1F
100
AcDbEntity
  8
坐标网格
 62
     7
100
AcDbText
 10
31.55119449359117
 20
3522.153158348
 30
-0.0000000012726105
 40
15.0
  1
48000
 50
329.9172222355829
 41
0.8
  7
楷体GB2312
 72
     2
 11
68.88557844092201
 21
3500.526163440801
 31
-0.0000000012726105
100
AcDbText
  0
TEXT
  5
80CC
330
1F
100
AcDbEntity
  8
坐标网格
 62
     7
100
AcDbText
 10
26.39925438618738
 20
5835.114759181746
 30
-0.0000000012726105
 40
15.0
  1
50000
 50
329.9172222355829
 41
0.8
  7
楷体GB2312
 72
     2
 11
63.73363833351823
 21
5813.487764274547
 31
-0.0000000012726105
100
AcDbText
  0
TEXT
  5
80CD
330
1F
100
AcDbEntity
  8
坐标网格
 62
     7
100
AcDbText
 10
48.92003767857102
 20
4909.139709464915
 30
-0.0000000012726717
 40
15.0
  1
16500
 50
54.01480478410753
 41
0.8
  7
楷体GB2312
 72
     2
 11
74.27163953971239
 21
4944.052163066989
 31
-0.0000000012726717
100
AcDbText
  0
LINE
  5
80CE
330
1F
100
AcDbEntity
  8
坐标网格
 62
   252
100
AcDbLine
 10
68.69397129489289
 20
6941.008761243276
 30
-0.0000000012729779
 11
166.7233467912715
 21
7110.235524214238
 31
-0.0000000012729779
  0
TEXT
  5
80CF
330
1F
100
AcDbEntity
  8
坐标网格
 62
     7
100
AcDbText
 10
30.8040980624115
 20
6986.713469535887
 30
-0.0000000012721834
 40
15.0
  1
51000
 50
329.9172222355829
 41
0.8
  7
楷体GB2312
 72
     2
 11
68.13848200974234
 21
6965.086474628688
 31
-0.0000000012721834
100
AcDbText
  0
TEXT
  5
80D0
330
1F
100
AcDbEntity
  8
坐标网格
 62
     7
100
AcDbText
 10
50.98300108483534
 20
6903.788996124278
 30
-0.0000000012726105
 40
15.0
  1
15500
 50
54.01480478410753
 41
0.8
  7
楷体GB2312
 72
     2
 11
76.33460294597671
 21
6938.701449726352
 31
-0.0000000012726105
100
AcDbText
  0
TEXT
  5
80D1
330
1F
100
AcDbEntity
  8
坐标网格
 62
     7
100
AcDbText
 10
174.4024966026671
 20
7113.45044483475
 30
-0.0000000012726105
 40
15.0
  1
15500
 50
54.01480478410753
 41
0.8
  7
楷体GB2312
 72
     2
 11
199.7540984638085
 21
7148.362898436824
 31
-0.0000000012726105
100
AcDbText
  0
TEXT
  5
80D2
330
1F
100
AcDbEntity
  8
坐标网格
 62
     7
100
AcDbText
 10
174.4024966026671
 20
7113.45044483475
 30
-0.0000000012726105
 40
15.0
  1
15500
 50
54.01480478410753
 41
0.8
  7
楷体GB2312
 72
     2
 11
199.7540984638085
 21
7148.362898436824
 31
-0.0000000012726105
100
AcDbText
  0
TEXT
  5
80D3
330
1F
100
AcDbEntity
  8
坐标网格
 62
     7
100
AcDbText
 10
1781.239122892489
 20
7132.684981922003
 30
-0.0000000012726105
 40
15.0
  1
52000
 50
329.9172222355829
 41
0.8
  7
楷体GB2312
 72
     2
 11
1818.57350683982
 21
7111.057987014802
 31
-0.0000000012726105
100
AcDbText
  0
TEXT
  5
80D4
330
1F
100
AcDbEntity
  8
坐标网格
 62
     7
100
AcDbText
 10
1781.239122892489
 20
7132.684981922003
 30
-0.0000000012726105
 40
15.0
  1
52000
 50
329.9172222355829
 41
0.8
  7
楷体GB2312
 72
     2
 11
1818.57350683982
 21
7111.057987014802
 31
-0.0000000012726105
100
AcDbText
  0
TEXT
  5
80D5
330
1F
100
AcDbEntity
  8
坐标网格
 62
     7
100
AcDbText
 10
1329.969074493787
 20
7115.093112445179
 30
-0.0000000012726717
 40
15.0
  1
16500
 50
54.01480478410753
 41
0.8
  7
楷体GB2312
 72
     2
 11
1355.320676354929
 21
7150.005566047252
 31
-0.0000000012726717
100
AcDbText
  0
TEXT
  5
80D6
330
1F
100
AcDbEntity
  8
坐标网格
 62
     7
100
AcDbText
 10
1329.969074493787
 20
7115.093112445179
 30
-0.0000000012726717
 40
15.0
  1
16500
 50
54.01480478410753
 41
0.8
  7
楷体GB2312
 72
     2
 11
1355.320676354929
 21
7150.005566047252
 31
-0.0000000012726717
100
AcDbText
  0
TEXT
  5
80D7
330
1F
100
AcDbEntity
  8
坐标网格
 62
     7
100
AcDbText
 10
2488.474354704657
 20
7114.881047490716
 30
-0.0000000012726717
 40
15.0
  1
17500
 50
54.01480478410753
 41
0.8
  7
楷体GB2312
 72
     2
 11
2513.825956565798
 21
7149.793501092791
 31
-0.0000000012726717
100
AcDbText
  0
TEXT
  5
80D8
330
1F
100
AcDbEntity
  8
坐标网格
 62
     7
100
AcDbText
 10
2488.474354704657
 20
7114.881047490716
 30
-0.0000000012726717
 40
15.0
  1
17500
 50
54.01480478410753
 41
0.8
  7
楷体GB2312
 72
     2
 11
2513.825956565798
 21
7149.793501092791
 31
-0.0000000012726717
100
AcDbText
  0
TEXT
  5
80D9
330
1F
100
AcDbEntity
  8
坐标网格
 62
     7
100
AcDbText
 10
3765.177738493296
 20
7134.731506137716
 30
-0.0000000012726105
 40
15.0
  1
53000
 50
329.9172222355829
 41
0.8
  7
楷体GB2312
 72
     2
 11
3802.512122440627
 21
7113.104511230516
 31
-0.0000000012726105
100
AcDbText
  0
TEXT
  5
80DA
330
1F
100
AcDbEntity
  8
坐标网格
 62
     7
100
AcDbText
 10
3765.177738493296
 20
7134.731506137716
 30
-0.0000000012726105
 40
15.0
  1
53000
 50
329.9172222355829
 41
0.8
  7
楷体GB2312
 72
     2
 11
3802.512122440627
 21
7113.104511230516
 31
-0.0000000012726105
100
AcDbText
  0
TEXT
  5
80DB
330
1F
100
AcDbEntity
  8
坐标网格
 62
     7
100
AcDbText
 10
3642.397800419611
 20
7116.236586438967
 30
-0.0000000012726717
 40
15.0
  1
18500
 50
54.01480478410753
 41
0.8
  7
楷体GB2312
 72
     2
 11
3667.749402280752
 21
7151.14904004104
 31
-0.0000000012726717
100
AcDbText
  0
TEXT
  5
80DC
330
1F
100
AcDbEntity
  8
坐标网格
 62
     7
100
AcDbText
 10
3642.397800419611
 20
7116.236586438967
 30
-0.0000000012726717
 40
15.0
  1
18500
 50
54.01480478410753
 41
0.8
  7
楷体GB2312
 72
     2
 11
3667.749402280752
 21
7151.14904004104
 31
-0.0000000012726717
100
AcDbText
  0
TEXT
  5
80DD
330
1F
100
AcDbEntity
  8
坐标网格
 62
     7
100
AcDbText
 10
4800.252553293141
 20
7116.984936389818
 30
-0.0000000012726717
 40
15.0
  1
19500
 50
54.01480478410753
 41
0.8
  7
楷体GB2312
 72
     2
 11
4825.604155154282
 21
7151.897389991892
 31
-0.0000000012726717
100
AcDbText
  0
TEXT
  5
80DE
330
1F
100
AcDbEntity
  8
坐标网格
 62
     7
100
AcDbText
 10
4800.252553293141
 20
7116.984936389818
 30
-0.0000000012726717
 40
15.0
  1
19500
 50
54.01480478410753
 41
0.8
  7
楷体GB2312
 72
     2
 11
4825.604155154282
 21
7151.897389991892
 31
-0.0000000012726717
100
AcDbText
  0
TEXT
  5
80DF
330
1F
100
AcDbEntity
  8
坐标网格
 62
     7
100
AcDbText
 10
5744.901458761527
 20
7143.698381913115
 30
-0.0000000012726105
 40
15.0
  1
54000
 50
329.9172222355829
 41
0.8
  7
楷体GB2312
 72
     2
 11
5782.235842708859
 21
7122.071387005914
 31
-0.0000000012726105
100
AcDbText
  0
TEXT
  5
80E0
330
1F
100
AcDbEntity
  8
坐标网格
 62
     7
100
AcDbText
 10
5744.901458761527
 20
7143.698381913115
 30
-0.0000000012726105
 40
15.0
  1
54000
 50
329.9172222355829
 41
0.8
  7
楷体GB2312
 72
     2
 11
5782.235842708859
 21
7122.071387005914
 31
-0.0000000012726105
100
AcDbText
  0
TEXT
  5
80E1
330
1F
100
AcDbEntity
  8
坐标网格
 62
     7
100
AcDbText
 10
5954.831848841831
 20
7116.561641382289
 30
-0.0000000012726717
 40
15.0
  1
20500
 50
54.01480478410753
 41
0.8
  7
楷体GB2312
 72
     2
 11
5980.183450702973
 21
7151.474094984362
 31
-0.0000000012726717
100
AcDbText
  0
TEXT
  5
80E2
330
1F
100
AcDbEntity
  8
坐标网格
 62
     7
100
AcDbText
 10
5954.831848841831
 20
7116.561641382289
 30
-0.0000000012726717
 40
15.0
  1
20500
 50
54.01480478410753
 41
0.8
  7
楷体GB2312
 72
     2
 11
5980.183450702973
 21
7151.474094984362
 31
-0.0000000012726717
100
AcDbText
  0
TEXT
  5
80E3
330
1F
100
AcDbEntity
  8
坐标网格
 62
     7
100
AcDbText
 10
7756.21088684568
 20
7135.957374462974
 30
-0.0000000012726105
 40
15.0
  1
55000
 50
329.9172222355829
 41
0.8
  7
楷体GB2312
 72
     2
 11
7793.545270793012
 21
7114.330379555775
 31
-0.0000000012726105
100
AcDbText
  0
TEXT
  5
80E4
330
1F
100
AcDbEntity
  8
坐标网格
 62
     7
100
AcDbText
 10
7756.21088684568
 20
7135.957374462974
 30
-0.0000000012726105
 40
15.0
  1
55000
 50
329.9172222355829
 41
0.8
  7
楷体GB2312
 72
     2
 11
7793.545270793012
 21
7114.330379555775
 31
-0.0000000012726105
100
AcDbText
  0
TEXT
  5
80E5
330
1F
100
AcDbEntity
  8
坐标网格
 62
     7
100
AcDbText
 10
7110.552692892968
 20
7117.604887202926
 30
-0.0000000012726717
 40
15.0
  1
21500
 50
54.01480478410753
 41
0.8
  7
楷体GB2312
 72
     2
 11
7135.90429475411
 21
7152.517340804999
 31
-0.0000000012726717
100
AcDbText
  0
TEXT
  5
80E6
330
1F
100
AcDbEntity
  8
坐标网格
 62
     7
100
AcDbText
 10
7110.552692892968
 20
7117.604887202926
 30
-0.0000000012726717
 40
15.0
  1
21500
 50
54.01480478410753
 41
0.8
  7
楷体GB2312
 72
     2
 11
7135.90429475411
 21
7152.517340804999
 31
-0.0000000012726717
100
AcDbText
  0
TEXT
  5
80E7
330
1F
100
AcDbEntity
  8
坐标网格
 62
     7
100
AcDbText
 10
8262.429258798139
 20
7114.464534295918
 30
-0.0000000012726717
 40
15.0
  1
22500
 50
54.01480478410753
 41
0.8
  7
楷体GB2312
 72
     2
 11
8287.78086065928
 21
7149.376987897992
 31
-0.0000000012726717
100
AcDbText
  0
TEXT
  5
80E8
330
1F
100
AcDbEntity
  8
坐标网格
 62
     7
100
AcDbText
 10
8262.429258798139
 20
7114.464534295918
 30
-0.0000000012726717
 40
15.0
  1
22500
 50
54.01480478410753
 41
0.8
  7
楷体GB2312
 72
     2
 11
8287.78086065928
 21
7149.376987897992
 31
-0.0000000012726717
100
AcDbText
  0
TEXT
  5
80E9
330
1F
100
AcDbEntity
  8
坐标网格
 62
     7
100
AcDbText
 10
9749.269763849399
 20
7136.381959197478
 30
-0.0000000012726105
 40
15.0
  1
56000
 50
329.9172222355829
 41
0.8
  7
楷体GB2312
 72
     2
 11
9786.60414779673
 21
7114.75496429028
 31
-0.0000000012726105
100
AcDbText
  0
TEXT
  5
80EA
330
1F
100
AcDbEntity
  8
坐标网格
 62
     7
100
AcDbText
 10
9749.269763849399
 20
7136.381959197478
 30
-0.0000000012726105
 40
15.0
  1
56000
 50
329.9172222355829
 41
0.8
  7
楷体GB2312
 72
     2
 11
9786.60414779673
 21
7114.75496429028
 31
-0.0000000012726105
100
AcDbText
  0
TEXT
  5
80EB
330
1F
100
AcDbEntity
  8
坐标网格
 62
     7
100
AcDbText
 10
9420.549334203432
 20
7117.491424298956
 30
-0.0000000012726717
 40
15.0
  1
23500
 50
54.01480478410753
 41
0.8
  7
楷体GB2312
 72
     2
 11
9445.900936064573
 21
7152.403877901029
 31
-0.0000000012726717
100
AcDbText
  0
TEXT
  5
80EC
330
1F
100
AcDbEntity
  8
坐标网格
 62
     7
100
AcDbText
 10
9420.549334203432
 20
7117.491424298956
 30
-0.0000000012726717
 40
15.0
  1
23500
 50
54.01480478410753
 41
0.8
  7
楷体GB2312
 72
     2
 11
9445.900936064573
 21
7152.403877901029
 31
-0.0000000012726717
100
AcDbText
  0
TEXT
  5
80ED
330
1F
100
AcDbEntity
  8
坐标网格
 62
     7
100
AcDbText
 10
10580.87934527541
 20
7117.610235054191
 30
-0.0000000012726717
 40
15.0
  1
24500
 50
54.01480478410753
 41
0.8
  7
楷体GB2312
 72
     2
 11
10606.23094713655
 21
7152.522688656265
 31
-0.0000000012726717
100
AcDbText
  0
TEXT
  5
80EE
330
1F
100
AcDbEntity
  8
坐标网格
 62
     7
100
AcDbText
 10
10580.87934527541
 20
7117.610235054191
 30
-0.0000000012726717
 40
15.0
  1
24500
 50
54.01480478410753
 41
0.8
  7
楷体GB2312
 72
     2
 11
10606.23094713655
 21
7152.522688656265
 31
-0.0000000012726717
100
AcDbText
  0
TEXT
  5
80EF
330
1F
100
AcDbEntity
  8
坐标网格
 62
     7
100
AcDbText
 10
11747.02218652642
 20
7133.546665649994
 30
-0.0000000012721834
 40
15.0
  1
57000
 50
329.9172222355829
 41
0.8
  7
楷体GB2312
 72
     2
 11
11784.35657047375
 21
7111.919670742796
 31
-0.0000000012721834
100
AcDbText
  0
TEXT
  5
80F0
330
1F
100
AcDbEntity
  8
坐标网格
 62
     7
100
AcDbText
 10
11747.02218652642
 20
7133.546665649994
 30
-0.0000000012721834
 40
15.0
  1
57000
 50
329.9172222355829
 41
0.8
  7
楷体GB2312
 72
     2
 11
11784.35657047375
 21
7111.919670742796
 31
-0.0000000012721834
100
AcDbText
  0
TEXT
  5
80F1
330
1F
100
AcDbEntity
  8
坐标网格
 62
     7
100
AcDbText
 10
11722.80996842941
 20
7113.886930156718
 30
-0.0000000012726717
 40
15.0
  1
25500
 50
54.01480478410753
 41
0.8
  7
楷体GB2312
 72
     2
 11
11748.16157029056
 21
7148.799383758792
 31
-0.0000000012726717
100
AcDbText
  0
TEXT
  5
80F2
330
1F
100
AcDbEntity
  8
坐标网格
 62
     7
100
AcDbText
 10
11722.80996842941
 20
7113.886930156718
 30
-0.0000000012726717
 40
15.0
  1
25500
 50
54.01480478410753
 41
0.8
  7
楷体GB2312
 72
     2
 11
11748.16157029056
 21
7148.799383758792
 31
-0.0000000012726717
100
AcDbText
  0
TEXT
  5
80F3
330
1F
100
AcDbEntity
  8
坐标网格
 62
     7
100
AcDbText
 10
12891.79614376478
 20
7115.710419574565
 30
-0.0000000012726717
 40
15.0
  1
26500
 50
54.01480478410753
 41
0.8
  7
楷体GB2312
 72
     2
 11
12917.14774562592
 21
7150.622873176638
 31
-0.0000000012726717
100
AcDbText
  0
TEXT
  5
80F4
330
1F
100
AcDbEntity
  8
坐标网格
 62
     7
100
AcDbText
 10
12891.79614376478
 20
7115.710419574565
 30
-0.0000000012726717
 40
15.0
  1
26500
 50
54.01480478410753
 41
0.8
  7
楷体GB2312
 72
     2
 11
12917.14774562592
 21
7150.622873176638
 31
-0.0000000012726717
100
AcDbText
  0
LWPOLYLINE
  5
80F5
330
1F
100
AcDbEntity
  8
坐标网格
 62
     0
370
    -2
100
AcDbPolyline
 90
        4
 70
     1
 43
0.0
 38
-0.0000000019089157
 10
75.02909823156142
 20
7110.235524214238
 10
13563.2408063178
 20
7110.235524214238
 10
13563.2408063178
 20
75.87105019375229
 10
75.02909823156142
 20
75.87105019374684
  0
LWPOLYLINE
  5
80F6
330
1F
100
AcDbEntity
  8
坐标网格
 62
     0
370
    -2
100
AcDbPolyline
 90
        4
 70
     1
 43
0.0
 38
-0.0000000019089158
 10
0.0290982315468682
 20
7185.235524214238
 10
13638.24080631768
 20
7185.235524214238
 10
13638.24080631768
 20
0.8710501937668482
 10
0.0290982315468682
 20
0.871050193759572
  0
LINE
  5
80FB
330
1F
100
AcDbEntity
  8
坐标网格
 62
   252
100
AcDbLine
 10
2198.50401418806
 20
642.621410486321
 30
-0.0000000012729779
 11
2198.504593560639
 21
642.6224106492358
 31
-0.0000000012729779
  0
LINE
  5
80FC
330
1F
100
AcDbEntity
  8
坐标网格
 62
   252
100
AcDbLine
 10
2198.507042154998
 20
642.6266376240097
 30
-0.0000000012729779
 11
5945.051908796597
 21
7110.235524214234
 31
-0.0000000012729779
  0
LINE
  5
80FD
330
1F
100
AcDbEntity
  8
坐标网格
 62
   252
100
AcDbLine
 10
2198.497564942041
 20
642.6102772415986
 30
-0.0000000012729779
 11
5945.051908796597
 21
7110.235524214234
 31
-0.0000000012729779
  0
LINE
  5
80FE
330
1F
100
AcDbEntity
  8
坐标网格
 62
   252
100
AcDbLine
 10
1042.878797417416
 20
642.6913175364302
 30
-0.0000000012729779
 11
4789.3861963955
 21
7110.235524214238
 31
-0.0000000012729779
  0
LINE
  5
80FF
330
1F
100
AcDbEntity
  8
坐标网格
 62
   252
100
AcDbLine
 10
1042.846128971594
 20
642.634922447613
 30
-0.0000000012729779
 11
4789.3861963955
 21
7110.235524214238
 31
-0.0000000012729779
  0
TEXT
  5
8186
330
1F
100
AcDbEntity
  8
图框
100
AcDbText
 10
12546.99537844925
 20
293.9648762247866
 30
-0.0000000019135998
 40
37.5
  1
审      核
 41
0.8
  7
宋体
100
AcDbText
  0
LWPOLYLINE
  5
8187
330
1F
100
AcDbEntity
  8
图签
370
    -3
100
AcDbPolyline
 90
        2
 70
     0
 43
1.5
 38
-0.0000000019089157
 10
12777.04281548867
 20
414.8938518756088
 10
12777.04281548867
 20
77.39385187560902
  0
LWPOLYLINE
  5
8188
330
1F
100
AcDbEntity
  8
图签
370
    -3
100
AcDbPolyline
 90
        2
 70
     0
 43
1.5
 38
-0.0000000006322716
 10
12514.54281548851
 20
144.8938518755799
 10
13564.54281548854
 20
144.8938518755799
  0
LWPOLYLINE
  5
8189
330
1F
100
AcDbEntity
  8
图签
370
    -3
100
AcDbPolyline
 90
        2
 70
     0
 43
1.5
 38
-0.0000000006322716
 10
12514.54281548851
 20
212.3938518755945
 10
13564.54281548854
 20
212.3938518755945
  0
LWPOLYLINE
  5
818A
330
1F
100
AcDbEntity
  8
图签
370
    -3
100
AcDbPolyline
 90
        2
 70
     0
 43
1.5
 38
-0.0000000006322716
 10
12514.54281548851
 20
279.8938518755945
 10
13564.54281548854
 20
279.8938518755945
  0
LWPOLYLINE
  5
818B
330
1F
100
AcDbEntity
  8
图签
370
    -3
100
AcDbPolyline
 90
        2
 70
     0
 43
3.0
 38
-0.0000000006322716
 10
12514.54281548851
 20
414.8938518755799
 10
13564.54281548854
 20
414.8938518755799
  0
LWPOLYLINE
  5
818C
330
1F
100
AcDbEntity
  8
图签
370
    -3
100
AcDbPolyline
 90
        4
 70
     1
 43
3.0
 38
-0.0000000006322716
 10
12514.54281548851
 20
639.8938518755799
 10
13564.54281548854
 20
639.8938518755799
 10
13564.54281548854
 20
77.39385187559445
 10
12514.54281548851
 20
77.39385187559445
  0
LWPOLYLINE
  5
818E
330
1F
100
AcDbEntity
  8
图签
370
    -3
100
AcDbPolyline
 90
        2
 70
     0
 43
1.5
 38
-0.0000000019089157
 10
12514.54281548867
 20
144.893851875609
 10
13564.54281548867
 20
144.893851875609
  0
LWPOLYLINE
  5
818F
330
1F
100
AcDbEntity
  8
图签
370
    -3
100
AcDbPolyline
 90
        2
 70
     0
 43
3.0
 38
-0.0000000019089157
 10
12514.54281548867
 20
414.8938518756088
 10
13564.54281548867
 20
414.8938518756088
  0
LWPOLYLINE
  5
8190
330
1F
100
AcDbEntity
  8
图签
370
    -3
100
AcDbPolyline
 90
        2
 70
     0
 43
1.5
 38
-0.0000000019089157
 10
12514.54281548867
 20
347.393851875609
 10
13564.54281548867
 20
347.393851875609
  0
LWPOLYLINE
  5
8191
330
1F
100
AcDbEntity
  8
图签
370
    -3
100
AcDbPolyline
 90
        2
 70
     0
 43
1.5
 38
-0.0000000019089157
 10
12514.54281548867
 20
279.893851875609
 10
13564.54281548867
 20
279.893851875609
  0
LWPOLYLINE
  5
8192
330
1F
100
AcDbEntity
  8
图签
370
    -3
100
AcDbPolyline
 90
        2
 70
     0
 43
1.5
 38
-0.0000000019089157
 10
12514.54281548867
 20
212.393851875609
 10
13564.54281548867
 20
212.393851875609
  0
LWPOLYLINE
  5
8193
330
1F
100
AcDbEntity
  8
图签
370
    -3
100
AcDbPolyline
 90
        4
 70
     1
 43
3.0
 38
-0.0000000019089157
 10
12514.54281548867
 20
639.8938518756088
 10
13564.54281548867
 20
639.8938518756088
 10
13564.54281548867
 20
77.39385187560902
 10
12514.54281548867
 20
77.39385187560902
  0
LWPOLYLINE
  5
8194
330
1F
100
AcDbEntity
  8
图签
370
    -3
100
AcDbPolyline
 90
        2
 70
     0
 43
1.5
 38
-0.0000000019089157
 10
12514.54281548867
 20
144.893851875609
 10
13564.54281548867
 20
144.893851875609
  0
LWPOLYLINE
  5
8195
330
1F
100
AcDbEntity
  8
图签
370
    -3
100
AcDbPolyline
 90
        2
 70
     0
 43
1.5
 38
-0.0000000019089157
 10
12514.54281548867
 20
212.393851875609
 10
13564.54281548867
 20
212.393851875609
  0
LWPOLYLINE
  5
8196
330
1F
100
AcDbEntity
  8
图签
370
    -3
100
AcDbPolyline
 90
        2
 70
     0
 43
1.5
 38
-0.0000000019089157
 10
12514.54281548867
 20
279.893851875609
 10
13564.54281548867
 20
279.893851875609
  0
LWPOLYLINE
  5
8197
330
1F
100
AcDbEntity
  8
图签
370
    -3
100
AcDbPolyline
 90
        2
 70
     0
 43
1.5
 38
-0.0000000019089157
 10
12514.54281548867
 20
347.393851875609
 10
13564.54281548867
 20
347.393851875609
  0
LWPOLYLINE
  5
8198
330
1F
100
AcDbEntity
  8
图签
370
    -3
100
AcDbPolyline
 90
        2
 70
     0
 43
3.0
 38
-0.0000000019089157
 10
12514.54281548867
 20
414.8938518756088
 10
13564.54281548867
 20
414.8938518756088
  0
LWPOLYLINE
  5
8199
330
1F
100
AcDbEntity
  8
图签
370
    -3
100
AcDbPolyline
 90
        4
 70
     1
 43
3.0
 38
-0.0000000019089157
 10
12514.54281548867
 20
639.8938518756088
 10
13564.54281548867
 20
639.8938518756088
 10
13564.54281548867
 20
77.39385187560902
 10
12514.54281548867
 20
77.39385187560902
  0
LWPOLYLINE
  5
819B
330
1F
100
AcDbEntity
  8
图签
370
    -3
100
AcDbPolyline
 90
        2
 70
     0
 43
1.5
 38
-0.0000000006322716
 10
12514.54281548851
 20
347.3938518755799
 10
13564.54281548854
 20
347.3938518755799
  0
LWPOLYLINE
  5
819C
330
1F
100
AcDbEntity
  8
图签
370
    -3
100
AcDbPolyline
 90
        2
 70
     0
 43
1.5
 38
-0.0000000019089157
 10
13039.54281548867
 20
414.8938518756088
 10
13039.54281548867
 20
77.39385187560902
  0
TEXT
  5
819D
330
1F
100
AcDbEntity
  8
图框
100
AcDbText
 10
12982.96077424095
 20
502.1780577856307
 30
-0.0000000010716194
 40
42.0
  1
上湾煤矿通风系统图
 41
0.8
  7
宋体
100
AcDbText
  0
LWPOLYLINE
  5
819E
330
1F
100
AcDbEntity
  8
图签
370
    -3
100
AcDbPolyline
 90
        2
 70
     0
 43
1.5
 38
-0.0000000019089157
 10
13039.54281548867
 20
414.8938518756088
 10
13039.54281548867
 20
77.39385187560902
  0
LWPOLYLINE
  5
819F
330
1F
100
AcDbEntity
  8
图签
370
    -3
100
AcDbPolyline
 90
        2
 70
     0
 43
1.5
 38
-0.0000000006322716
 10
13039.54281548851
 20
414.8938518755799
 10
13039.54281548851
 20
77.39385187559445
  0
TEXT
  5
81A1
330
1F
100
AcDbEntity
  8
图框
100
AcDbText
 10
13068.3219873049
 20
360.5355531877917
 30
-0.0000000019135998
 40
37.5
  1
矿      长
 41
0.8
  7
宋体
100
AcDbText
  0
TEXT
  5
81A2
330
1F
100
AcDbEntity
  8
图框
100
AcDbText
 10
13069.18262762432
 20
293.9648762248012
 30
-0.0000000031902439
 40
37.5
  1
比  例  尺
 41
0.8
  7
宋体
100
AcDbText
  0
TEXT
  5
81A3
330
1F
100
AcDbEntity
  8
图框
100
AcDbText
 10
13070.17923365153
 20
226.4648762248012
 30
-0.0000000031902439
 40
37.5
  1
图      号
 41
0.8
  7
宋体
100
AcDbText
  0
TEXT
  5
81A4
330
1F
100
AcDbEntity
  8
图框
100
AcDbText
 10
13337.08694697389
 20
293.9648762248012
 30
-0.0000000031902439
 40
37.5
  1
 1:10000
 41
0.8
  7
宋体
100
AcDbText
  0
TEXT
  5
81A6
330
1F
100
AcDbEntity
  8
图框
100
AcDbText
 10
13067.18801584268
 20
159.9616330051262
 30
-0.0000000006369557
 40
37.5
  1
日      期
 41
0.8
  7
宋体
100
AcDbText
  0
LWPOLYLINE
  5
81A8
330
1F
100
AcDbEntity
  8
图签
370
    -3
100
AcDbPolyline
 90
        2
 70
     0
 43
1.5
 38
-0.0000000006322716
 10
13302.04281548854
 20
414.8938518755799
 10
13302.04281548854
 20
144.8938518755799
  0
LWPOLYLINE
  5
81AA
330
1F
100
AcDbEntity
  8
图签
370
    -3
100
AcDbPolyline
 90
        2
 70
     0
 43
1.5
 38
-0.0000000019089157
 10
12777.04281548867
 20
414.8938518756088
 10
12777.04281548867
 20
77.39385187560902
  0
TEXT
  5
81AB
330
1F
100
AcDbEntity
  8
图框
100
AcDbText
 10
12545.99877242225
 20
362.4616330051554
 30
-0.0000000019135998
 40
37.5
  1
制      图
 41
0.8
  7
宋体
100
AcDbText
  0
INSERT
  5
81AD
330
1F
100
AcDbEntity
  8
0
 62
     1
100
AcDbBlockReference
  2
0.0000
 10
3626.596077703535
 20
-26923.97699330136
 30
0.0000000041536146
 41
1.347839999999999
 42
1.347839999999999
 43
1.347839999999999
  0
LWPOLYLINE
  5
81AE
330
1F
100
AcDbEntity
  8
图签
370
    -3
100
AcDbPolyline
 90
        2
 70
     0
 43
1.5
 38
-0.0000000006322716
 10
12777.04281548854
 20
414.8938518755799
 10
12777.04281548854
 20
77.39385187559445
  0
TEXT
  5
81AF
330
1F
100
AcDbEntity
  8
图框
100
AcDbText
 10
12545.99877242225
 20
362.4616330051554
 30
-0.0000000019135998
 40
37.5
  1
制      图
 41
0.8
  7
宋体
100
AcDbText
  0
TEXT
  5
81B0
330
1F
100
AcDbEntity
  8
图框
100
AcDbText
 10
12543.00755461354
 20
229.4544436345073
 30
-0.0000000019135998
 40
37.5
  1
通  风  办
 41
0.8
  7
宋体
100
AcDbText
  0
TEXT
  5
81B1
330
1F
100
AcDbEntity
  8
图框
100
AcDbText
 10
12533.04401690475
 20
91.46487622478662
 30
-0.0000000019135998
 40
37.5
  1
总 工 程 师
 41
0.8
  7
宋体
100
AcDbText
  0
TEXT
  5
81B2
330
1F
100
AcDbEntity
  8
图框
100
AcDbText
 10
12535.30902057949
 20
159.5147715129492
 30
-0.0000000019135998
 40
37.5
  1
通 风 副 总
 41
0.8
  7
宋体
100
AcDbText
  0
CIRCLE
  5
8225
330
1F
100
AcDbEntity
  8
通风-22、52煤通风系统图图签（通风管理部）
 62
     4
 48
0.3
370
    -3
100
AcDbCircle
 10
1111.078831924214
 20
211.5965329065107
 30
0.0
 40
20.92853822123718
  0
LINE
  5
8226
330
1F
100
AcDbEntity
  8
通风-22、52煤通风系统图图签（通风管理部）
 62
     4
 48
0.3
370
    -3
100
AcDbLine
 10
1129.810474894382
 20
222.3441969057895
 30
0.0
 11
1197.98137226124
 21
242.3041443330217
 31
0.0
  0
LINE
  5
8227
330
1F
100
AcDbEntity
  8
通风-22、52煤通风系统图图签（通风管理部）
 62
     4
 48
0.3
370
    -3
100
AcDbLine
 10
1197.98137226124
 20
242.3041443330217
 30
0.0
 11
1197.98137226124
 21
184.266758736916
 31
0.0
  0
LINE
  5
8228
330
1F
100
AcDbEntity
  8
通风-22、52煤通风系统图图签（通风管理部）
 62
     4
 48
0.3
370
    -3
100
AcDbLine
 10
1197.98137226124
 20
184.266758736916
 30
0.0
 11
1129.503398780116
 21
201.1559450214968
 31
0.0
  0
ENDSEC
  0
SECTION
  2
OBJECTS
  0
DICTIONARY
  5
C
330
0
100
AcDbDictionary
281
     1
  3
ACAD_CIP_PREVIOUS_PRODUCT_INFO
350
143
  3
ACAD_COLOR
350
6C
  3
ACAD_DETAILVIEWSTYLE
350
19F
  3
ACAD_GROUP
350
D
  3
ACAD_LAYOUT
350
1A
  3
ACAD_MATERIAL
350
6B
  3
ACAD_MLEADERSTYLE
350
CC
  3
ACAD_MLINESTYLE
350
17
  3
ACAD_PLOTSETTINGS
350
19
  3
ACAD_PLOTSTYLENAME
350
E
  3
ACAD_SCALELIST
350
A6
  3
ACAD_SECTIONVIEWSTYLE
350
19C
  3
ACAD_TABLESTYLE
350
92
  3
ACAD_VISUALSTYLE
350
109
  3
AcDbVariableDictionary
350
59
  0
DICTIONARY
  5
124
330
2
100
AcDbDictionary
280
     1
281
     1
  3
ACAD_LAYERSTATES
360
125
  0
DICTIONARY
  5
1D8
330
1D7
100
AcDbDictionary
280
     1
281
     1
  3
ADSK_XREC_LAYER_RECONCILED
360
1D9
  0
DICTIONARY
  5
81F9
330
81F8
100
AcDbDictionary
280
     1
281
     1
  3
ADSK_XREC_LAYER_RECONCILED
360
81FA
  0
DICTIONARY
  5
80F8
330
1F
100
AcDbDictionary
280
     1
281
     1
  3
ACAD_SORTENTS
360
80F9
  0
DICTIONARY
  5
93A
330
939
100
AcDbDictionary
280
     1
281
     1
  3
ACAD_SORTENTS
360
93B
  0
DICTIONARY
  5
D26
330
D25
100
AcDbDictionary
280
     1
281
     1
  3
ACAD_SORTENTS
360
D27
  0
DICTIONARY
  5
F34
330
F33
100
AcDbDictionary
280
     1
281
     1
  3
ACAD_SORTENTS
360
F35
  0
DICTIONARY
  5
15AE
330
15AD
100
AcDbDictionary
280
     1
281
     1
  3
ACAD_SORTENTS
360
15AF
  0
DICTIONARY
  5
17D4
330
17D3
100
AcDbDictionary
280
     1
281
     1
  3
ACAD_SORTENTS
360
17D5
  0
DICTIONARY
  5
3924
330
3923
100
AcDbDictionary
280
     1
281
     1
  3
ACAD_SORTENTS
360
3925
  0
DICTIONARY
  5
3B80
330
3B7F
100
AcDbDictionary
280
     1
281
     1
  3
ACAD_SORTENTS
360
3B81
  0
DICTIONARY
  5
3C1A
330
3C19
100
AcDbDictionary
280
     1
281
     1
  3
ACAD_SORTENTS
360
3C1B
  0
DICTIONARY
  5
3C25
330
3C24
100
AcDbDictionary
280
     1
281
     1
  3
ACAD_SORTENTS
360
3C26
  0
DICTIONARY
  5
3CBD
330
3CBC
100
AcDbDictionary
280
     1
281
     1
  3
ACAD_SORTENTS
360
3CBE
  0
DICTIONARY
  5
2B94
330
2B93
100
AcDbDictionary
280
     1
281
     1
  3
ACAD_SORTENTS
360
2B95
  0
DICTIONARY
  5
5817
330
5816
100
AcDbDictionary
280
     1
281
     1
  0
XRECORD
  5
143
102
{ACAD_REACTORS
330
C
102
}
330
C
100
AcDbXrecord
280
     1
300
ACD
300
2013
300
ACD_F_S
  0
DICTIONARY
  5
6C
102
{ACAD_REACTORS
330
C
102
}
330
C
100
AcDbDictionary
281
     1
  0
DICTIONARY
  5
19F
102
{ACAD_REACTORS
330
C
102
}
330
C
100
AcDbDictionary
281
     1
  3
Imperial24
350
1A0
  0
DICTIONARY
  5
D
102
{ACAD_REACTORS
330
C
102
}
330
C
100
AcDbDictionary
281
     1
  0
DICTIONARY
  5
1A
102
{ACAD_REACTORS
330
C
102
}
330
C
100
AcDbDictionary
281
     1
  3
Model
350
22
  3
布局1
350
193
  3
布局2
350
198
  0
DICTIONARY
  5
6B
102
{ACAD_REACTORS
330
C
102
}
330
C
100
AcDbDictionary
281
     1
  3
ByBlock
350
F9
  3
ByLayer
350
F1
  3
Global
350
101
  0
DICTIONARY
  5
CC
102
{ACAD_REACTORS
330
C
102
}
330
C
100
AcDbDictionary
281
     1
  3
Annotative
350
1C1
  3
Standard
350
CF
  0
DICTIONARY
  5
17
102
{ACAD_REACTORS
330
C
102
}
330
C
100
AcDbDictionary
281
     1
  3
Standard
350
18
  0
DICTIONARY
  5
19
102
{ACAD_REACTORS
330
C
102
}
330
C
100
AcDbDictionary
281
     1
  0
ACDBDICTIONARYWDFLT
  5
E
102
{ACAD_REACTORS
330
C
102
}
330
C
100
AcDbDictionary
281
     1
  3
Color_4
350
234
  3
Color_7
350
235
  3
Normal
350
F
100
AcDbDictionaryWithDefault
340
F
  0
DICTIONARY
  5
A6
102
{ACAD_REACTORS
330
C
102
}
330
C
100
AcDbDictionary
281
     1
  3
A0
350
A7
  3
A1
350
A8
  3
A2
350
A9
  3
A3
350
AA
  3
A4
350
AB
  3
A5
350
AC
  3
A6
350
AD
  3
A7
350
AE
  3
A8
350
AF
  3
A9
350
B0
  3
B0
350
B1
  3
B1
350
B2
  3
B2
350
B3
  3
B3
350
B4
  3
B4
350
B5
  3
B5
350
B6
  3
B6
350
B7
  3
B7
350
B8
  3
B8
350
B9
  3
B9
350
BA
  3
C0
350
BB
  3
C1
350
BC
  3
C2
350
BD
  3
C3
350
BE
  3
C4
350
BF
  3
C5
350
C0
  3
C6
350
C1
  3
C7
350
C2
  3
C8
350
C3
  3
C9
350
C4
  3
D0
350
C5
  3
D1
350
C6
  3
D2
350
C7
  0
DICTIONARY
  5
19C
102
{ACAD_REACTORS
330
C
102
}
330
C
100
AcDbDictionary
281
     1
  3
Imperial24
350
19E
  0
DICTIONARY
  5
92
102
{ACAD_REACTORS
330
C
102
}
330
C
100
AcDbDictionary
281
     1
  3
Standard
350
93
  0
DICTIONARY
  5
109
102
{ACAD_REACTORS
330
C
102
}
330
C
100
AcDbDictionary
281
     1
  3
2dWireframe
350
10F
  3
3D Hidden
350
111
  3
3dWireframe
350
110
  3
Basic
350
10E
  3
Brighten
350
115
  3
ColorChange
350
119
  3
Conceptual
350
112
  3
Dim
350
114
  3
EdgeColorOff
350
11C
  3
Facepattern
350
118
  3
Flat
350
10A
  3
FlatWithEdges
350
10B
  3
Gouraud
350
10C
  3
GouraudWithEdges
350
10D
  3
Hidden
350
13A
  3
JitterOff
350
11A
  3
Linepattern
350
117
  3
OverhangOff
350
11B
  3
Realistic
350
113
  3
Shaded
350
13F
  3
Shaded with edges
350
13E
  3
Shades of Gray
350
13B
  3
Sketchy
350
13C
  3
Thicken
350
116
  3
Wireframe
350
139
  3
X-Ray
350
13D
  0
DICTIONARY
  5
59
102
{ACAD_REACTORS
330
C
102
}
330
C
100
AcDbDictionary
281
     1
  3
CMLEADERSTYLE
350
DA
  3
CTABLESTYLE
350
98
  3
CVIEWDETAILSTYLE
350
1AD
  3
CVIEWSECTIONSTYLE
350
1AE
  3
DIMASSOC
350
9A
  3
HIDETEXT
350
5E
  3
XCLIPFRAME
350
D0
  0
DICTIONARY
  5
125
102
{ACAD_REACTORS
330
124
102
}
330
124
100
AcDbDictionary
281
     1
  0
XRECORD
  5
1D9
102
{ACAD_REACTORS
330
1D8
102
}
330
1D8
100
AcDbXrecord
280
     1
290
     1
  0
XRECORD
  5
81FA
102
{ACAD_REACTORS
330
81F9
102
}
330
81F9
100
AcDbXrecord
280
     1
290
     1
  0
SORTENTSTABLE
  5
80F9
102
{ACAD_REACTORS
330
80F8
102
}
330
1F
100
AcDbSortentsTable
330
1F
331
806D
  5
806E
331
806E
  5
806F
331
806F
  5
8070
331
8070
  5
8073
331
8071
  5
8075
331
8072
  5
8076
331
8073
  5
8077
331
8074
  5
8078
331
8075
  5
8079
331
8076
  5
807A
331
8077
  5
807B
331
8078
  5
807C
331
8079
  5
807D
331
807A
  5
807E
331
807B
  5
807F
331
807C
  5
8080
331
807D
  5
8081
331
807E
  5
8082
331
807F
  5
8083
331
8080
  5
8084
331
8081
  5
8085
331
8082
  5
8086
331
8083
  5
8087
331
8084
  5
8088
331
8085
  5
8089
331
8086
  5
808A
331
8087
  5
808B
331
8088
  5
808C
331
8089
  5
808D
331
808A
  5
808E
331
808B
  5
808F
331
808C
  5
8090
331
808D
  5
8091
331
808E
  5
8092
331
808F
  5
8093
331
8090
  5
8095
331
8091
  5
8096
331
8092
  5
8094
331
8093
  5
809A
331
8094
  5
809C
331
8095
  5
809D
331
8096
  5
809E
331
8097
  5
809F
331
8098
  5
80A0
331
8099
  5
80A1
331
809A
  5
80A2
331
809B
  5
80A3
331
809C
  5
80A4
331
809D
  5
80A5
331
809E
  5
80A6
331
809F
  5
80A7
331
80A0
  5
80A8
331
80A1
  5
80A9
331
80A2
  5
80AA
331
80A3
  5
80AB
331
80A4
  5
80AC
331
80A5
  5
80AD
331
80A6
  5
80AE
331
80A7
  5
80AF
331
80A8
  5
80B0
331
80A9
  5
80B1
331
80AA
  5
80B2
331
80AB
  5
80B3
331
80AC
  5
80B4
331
80AD
  5
80B5
331
80AE
  5
80B6
331
80AF
  5
80B7
331
80B0
  5
80B8
331
80B1
  5
80B9
331
80B2
  5
80BA
331
80B3
  5
80BB
331
80B4
  5
80BC
331
80B5
  5
80BD
331
80B6
  5
80BE
331
80B7
  5
80BF
331
80B8
  5
80C0
331
80B9
  5
80C1
331
80BA
  5
80C2
331
80BB
  5
80C4
331
80BC
  5
80C5
331
80BD
  5
80C6
331
80BE
  5
80C7
331
80BF
  5
80C8
331
80C0
  5
80C9
331
80C1
  5
80CA
331
80C2
  5
80CB
331
80C3
  5
80CC
331
80C4
  5
80CD
331
80C5
  5
80CE
331
80C6
  5
80CF
331
80C7
  5
80D0
331
80C8
  5
80D1
331
80C9
  5
80D2
331
80CA
  5
80D3
331
80CB
  5
80D4
331
80CC
  5
80D5
331
80CD
  5
80D6
331
80CE
  5
80D7
331
80CF
  5
80D8
331
80D0
  5
80D9
331
80D1
  5
80DA
331
80D2
  5
80DB
331
80D3
  5
80DC
331
80D4
  5
80DD
331
80D5
  5
80DE
331
80D6
  5
80DF
331
80D7
  5
80E0
331
80D8
  5
80E1
331
80D9
  5
80E2
331
80DA
  5
80E3
331
80DB
  5
80E4
331
80DC
  5
80E5
331
80DD
  5
80E6
331
80DE
  5
80E7
331
80DF
  5
80E8
331
80E0
  5
80E9
331
80E1
  5
80EA
331
80E2
  5
80EB
331
80E3
  5
80EC
331
80E4
  5
80ED
331
80E5
  5
80EE
331
80E6
  5
80EF
331
80E7
  5
80F0
331
80E8
  5
80F1
331
80E9
  5
80F2
331
80EA
  5
80F3
331
80EB
  5
80F4
331
80EC
  5
80F5
331
80ED
  5
80F6
331
80EE
  5
80F7
331
80EF
  5
80FA
331
80F0
  5
80FB
331
80F1
  5
80FC
331
80F2
  5
80FD
331
80F3
  5
80FE
331
80F4
  5
80FF
331
80F5
  5
8100
331
80F6
  5
8101
331
80F7
  5
8097
331
80FA
  5
8071
331
80FB
  5
8099
331
80FC
  5
8098
331
80FD
  5
8072
331
80FE
  5
809B
331
80FF
  5
8074
331
8100
  5
80C3
331
8101
  5
806D
  0
SORTENTSTABLE
  5
93B
102
{ACAD_REACTORS
330
93A
102
}
330
93A
100
AcDbSortentsTable
330
939
  0
SORTENTSTABLE
  5
D27
102
{ACAD_REACTORS
330
D26
102
}
330
D26
100
AcDbSortentsTable
330
D25
  0
SORTENTSTABLE
  5
F35
102
{ACAD_REACTORS
330
F34
102
}
330
F34
100
AcDbSortentsTable
330
F33
  0
SORTENTSTABLE
  5
15AF
102
{ACAD_REACTORS
330
15AE
102
}
330
15AE
100
AcDbSortentsTable
330
15AD
  0
SORTENTSTABLE
  5
17D5
102
{ACAD_REACTORS
330
17D4
102
}
330
17D4
100
AcDbSortentsTable
330
17D3
331
17D7
  5
17D8
331
17D8
  5
17D9
331
17D9
  5
17DA
331
17DA
  5
17DB
331
17DB
  5
17DC
331
17DC
  5
17D7
  0
SORTENTSTABLE
  5
3925
102
{ACAD_REACTORS
330
3924
102
}
330
3924
100
AcDbSortentsTable
330
3923
  0
SORTENTSTABLE
  5
3B81
102
{ACAD_REACTORS
330
3B80
102
}
330
3B80
100
AcDbSortentsTable
330
3B7F
  0
SORTENTSTABLE
  5
3C1B
102
{ACAD_REACTORS
330
3C1A
102
}
330
3C1A
100
AcDbSortentsTable
330
3C19
  0
SORTENTSTABLE
  5
3C26
102
{ACAD_REACTORS
330
3C25
102
}
330
3C25
100
AcDbSortentsTable
330
3C24
  0
SORTENTSTABLE
  5
3CBE
102
{ACAD_REACTORS
330
3CBD
102
}
330
3CBD
100
AcDbSortentsTable
330
3CBC
  0
SORTENTSTABLE
  5
2B95
102
{ACAD_REACTORS
330
2B94
102
}
330
2B94
100
AcDbSortentsTable
330
2B93
  0
ACDBDETAILVIEWSTYLE
  5
1A0
102
{ACAD_REACTORS
330
19F
102
}
330
19F
100
AcDbModelDocViewStyle
 70
     0
  3
Imperial24
290
     1
300
Metric50
 90
        0
100
AcDbDetailViewStyle
 70
     0
 71
     0
 90
        3
 71
     1
340
11
 62
   256
 40
0.24
340
0
 62
   256
 40
0.24
300

 40
0.36
280
     3
 71
     2
340
16
 90
       25
 62
   256
 71
     3
340
11
 62
   256
 40
0.24
 90
        1
 40
0.75
 90
        1
300
%<\AcVar ViewType \f "%tc1">% %<\AcVar ViewDetailId>%\PSCALE %<\AcVar ViewScale \f "%sn">%
 71
     4
340
16
 90
       25
 62
   256
340
16
 90
       25
 62
   256
280
     0
  0
LAYOUT
  5
22
102
{ACAD_REACTORS
330
1A
102
}
330
1A
100
AcDbPlotSettings
  1

  2
none_device
  4
Letter_(8.50_x_11.00_Inches)
  6

 40
6.349999904632567
 41
6.349999904632567
 42
6.350006103515625
 43
6.350006103515625
 44
215.8999938964844
 45
279.3999938964844
 46
0.0
 47
0.0
 48
0.0
 49
0.0
140
0.0
141
0.0
142
1.0
143
3.856645880694191
 70
 11952
 72
     0
 73
     0
 74
     0
  7

 75
     0
 76
     0
 77
     2
 78
   300
147
0.2592926680164893
148
0.0579160791065316
149
0.0376503347311434
100
AcDbLayout
  1
Model
 70
     1
 71
     0
 10
0.0
 20
0.0
 11
12.0
 21
9.0
 12
0.0
 22
0.0
 32
0.0
 14
0.0
 24
0.0
 34
0.0
 15
12.0
 25
9.0
 35
0.0
146
0.0
 13
0.0
 23
0.0
 33
0.0
 16
1.0
 26
0.0
 36
0.0
 17
0.0
 27
1.0
 37
0.0
 76
     0
330
1F
331
185
  0
LAYOUT
  5
193
102
{ACAD_REACTORS
330
1A
102
}
330
1A
100
AcDbPlotSettings
  1

  2
Microsoft XPS Document Writer#:1
  4

  6

 40
0.0
 41
0.0
 42
0.0
 43
0.0
 44
0.0
 45
0.0
 46
0.0
 47
0.0
 48
0.0
 49
0.0
140
0.0
141
0.0
142
1.0
143
1.0
 70
   688
 72
     0
 73
     0
 74
     5
  7

 75
    16
 76
     0
 77
     2
 78
   300
147
1.0
148
0.0
149
0.0
100
AcDbLayout
  1
布局1
 70
     1
 71
     1
 10
0.0
 20
0.0
 11
12.0
 21
9.0
 12
0.0
 22
0.0
 32
0.0
 14
0.0
 24
0.0
 34
0.0
 15
0.0
 25
0.0
 35
0.0
146
0.0
 13
0.0
 23
0.0
 33
0.0
 16
1.0
 26
0.0
 36
0.0
 17
0.0
 27
1.0
 37
0.0
 76
     0
330
192
  0
LAYOUT
  5
198
102
{ACAD_REACTORS
330
1A
102
}
330
1A
100
AcDbPlotSettings
  1

  2
Microsoft XPS Document Writer#:1
  4

  6

 40
0.0
 41
0.0
 42
0.0
 43
0.0
 44
0.0
 45
0.0
 46
0.0
 47
0.0
 48
0.0
 49
0.0
140
0.0
141
0.0
142
1.0
143
1.0
 70
   688
 72
     0
 73
     0
 74
     5
  7

 75
    16
 76
     0
 77
     2
 78
   300
147
1.0
148
0.0
149
0.0
100
AcDbLayout
  1
布局2
 70
     1
 71
     2
 10
0.0
 20
0.0
 11
12.0
 21
9.0
 12
0.0
 22
0.0
 32
0.0
 14
0.0
 24
0.0
 34
0.0
 15
0.0
 25
0.0
 35
0.0
146
0.0
 13
0.0
 23
0.0
 33
0.0
 16
1.0
 26
0.0
 36
0.0
 17
0.0
 27
1.0
 37
0.0
 76
     0
330
197
  0
MATERIAL
  5
F9
102
{ACAD_REACTORS
330
6B
102
}
330
6B
100
AcDbMaterial
  1
ByBlock
 72
     0
 73
     2
 43
0.0208333333333333
 43
0.0
 43
0.0
 43
0.0
 43
0.0
 43
0.0208333333333333
 43
0.0
 43
0.0
 43
0.0
 43
0.0
 43
1.0
 43
0.0
 43
0.0
 43
0.0
 43
0.0
 43
1.0
 77
     0
 78
     2
 47
0.0208333333333333
 47
0.0
 47
0.0
 47
0.0
 47
0.0
 47
0.0208333333333333
 47
0.0
 47
0.0
 47
0.0
 47
0.0
 47
1.0
 47
0.0
 47
0.0
 47
0.0
 47
0.0
 47
1.0
171
     0
172
     2
 49
0.0208333333333333
 49
0.0
 49
0.0
 49
0.0
 49
0.0
 49
0.0208333333333333
 49
0.0
 49
0.0
 49
0.0
 49
0.0
 49
1.0
 49
0.0
 49
0.0
 49
0.0
 49
0.0
 49
1.0
175
     0
176
     2
142
0.0208333333333333
142
0.0
142
0.0
142
0.0
142
0.0
142
0.0208333333333333
142
0.0
142
0.0
142
0.0
142
0.0
142
1.0
142
0.0
142
0.0
142
0.0
142
0.0
142
1.0
179
     0
270
     2
144
0.0208333333333333
144
0.0
144
0.0
144
0.0
144
0.0
144
0.0208333333333333
144
0.0
144
0.0
144
0.0
144
0.0
144
1.0
144
0.0
144
0.0
144
0.0
144
0.0
144
1.0
274
     2
147
0.0208333333333333
147
0.0
147
0.0
147
0.0
147
0.0
147
0.0208333333333333
147
0.0
147
0.0
147
0.0
147
0.0
147
1.0
147
0.0
147
0.0
147
0.0
147
0.0
147
1.0
 94
      127
  0
MATERIAL
  5
F1
102
{ACAD_REACTORS
330
6B
102
}
330
6B
100
AcDbMaterial
  1
ByLayer
 72
     0
 73
     2
 43
0.0208333333333333
 43
0.0
 43
0.0
 43
0.0
 43
0.0
 43
0.0208333333333333
 43
0.0
 43
0.0
 43
0.0
 43
0.0
 43
1.0
 43
0.0
 43
0.0
 43
0.0
 43
0.0
 43
1.0
 77
     0
 78
     2
 47
0.0208333333333333
 47
0.0
 47
0.0
 47
0.0
 47
0.0
 47
0.0208333333333333
 47
0.0
 47
0.0
 47
0.0
 47
0.0
 47
1.0
 47
0.0
 47
0.0
 47
0.0
 47
0.0
 47
1.0
171
     0
172
     2
 49
0.0208333333333333
 49
0.0
 49
0.0
 49
0.0
 49
0.0
 49
0.0208333333333333
 49
0.0
 49
0.0
 49
0.0
 49
0.0
 49
1.0
 49
0.0
 49
0.0
 49
0.0
 49
0.0
 49
1.0
175
     0
176
     2
142
0.0208333333333333
142
0.0
142
0.0
142
0.0
142
0.0
142
0.0208333333333333
142
0.0
142
0.0
142
0.0
142
0.0
142
1.0
142
0.0
142
0.0
142
0.0
142
0.0
142
1.0
179
     0
270
     2
144
0.0208333333333333
144
0.0
144
0.0
144
0.0
144
0.0
144
0.0208333333333333
144
0.0
144
0.0
144
0.0
144
0.0
144
1.0
144
0.0
144
0.0
144
0.0
144
0.0
144
1.0
274
     2
147
0.0208333333333333
147
0.0
147
0.0
147
0.0
147
0.0
147
0.0208333333333333
147
0.0
147
0.0
147
0.0
147
0.0
147
1.0
147
0.0
147
0.0
147
0.0
147
0.0
147
1.0
 94
      127
  0
MATERIAL
  5
101
102
{ACAD_REACTORS
330
6B
102
}
330
6B
100
AcDbMaterial
  1
Global
 72
     0
 73
     2
 43
0.0208333333333333
 43
0.0
 43
0.0
 43
0.0
 43
0.0
 43
0.0208333333333333
 43
0.0
 43
0.0
 43
0.0
 43
0.0
 43
1.0
 43
0.0
 43
0.0
 43
0.0
 43
0.0
 43
1.0
 77
     0
 78
     2
 47
0.0208333333333333
 47
0.0
 47
0.0
 47
0.0
 47
0.0
 47
0.0208333333333333
 47
0.0
 47
0.0
 47
0.0
 47
0.0
 47
1.0
 47
0.0
 47
0.0
 47
0.0
 47
0.0
 47
1.0
171
     0
172
     2
 49
0.0208333333333333
 49
0.0
 49
0.0
 49
0.0
 49
0.0
 49
0.0208333333333333
 49
0.0
 49
0.0
 49
0.0
 49
0.0
 49
1.0
 49
0.0
 49
0.0
 49
0.0
 49
0.0
 49
1.0
175
     0
176
     2
142
0.0208333333333333
142
0.0
142
0.0
142
0.0
142
0.0
142
0.0208333333333333
142
0.0
142
0.0
142
0.0
142
0.0
142
1.0
142
0.0
142
0.0
142
0.0
142
0.0
142
1.0
179
     0
270
     2
144
0.0208333333333333
144
0.0
144
0.0
144
0.0
144
0.0
144
0.0208333333333333
144
0.0
144
0.0
144
0.0
144
0.0
144
1.0
144
0.0
144
0.0
144
0.0
144
0.0
144
1.0
274
     2
147
0.0208333333333333
147
0.0
147
0.0
147
0.0
147
0.0
147
0.0208333333333333
147
0.0
147
0.0
147
0.0
147
0.0
147
1.0
147
0.0
147
0.0
147
0.0
147
0.0
147
1.0
 94
      127
  0
MLEADERSTYLE
  5
1C1
102
{ACAD_REACTORS
330
CC
102
}
330
CC
100
AcDbMLeaderStyle
179
     2
170
     2
171
     1
172
     0
 90
        2
 40
0.0
 41
0.0
173
     1
 91
-1056964608
340
14
 92
       -2
290
     1
 42
0.09
291
     1
 43
0.36
  3
Standard
 44
0.18
300

342
11
174
     1
178
     1
175
     1
176
     0
 93
-1056964608
 45
0.18
292
     0
297
     0
 46
0.18
 94
-1056964608
 47
1.0
 49
1.0
140
1.0
293
     1
141
0.0
294
     1
177
     0
142
1.0
295
     0
296
     1
143
0.125
271
     0
272
     9
273
     9
298
     0
  0
MLEADERSTYLE
  5
CF
102
{ACAD_REACTORS
330
CC
102
}
330
CC
100
AcDbMLeaderStyle
179
     2
170
     2
171
     1
172
     0
 90
        2
 40
0.0
 41
0.0
173
     1
 91
-1056964608
340
14
 92
       -2
290
     1
 42
0.09
291
     1
 43
0.36
  3
Standard
 44
0.18
300

342
11
174
     1
178
     1
175
     1
176
     0
 93
-1056964608
 45
0.18
292
     0
297
     0
 46
0.18
 94
-1056964608
 47
1.0
 49
1.0
140
1.0
293
     1
141
0.0
294
     1
177
     0
142
1.0
295
     0
296
     0
143
0.125
271
     0
272
     9
273
     9
298
     0
  0
MLINESTYLE
  5
18
102
{ACAD_REACTORS
330
17
102
}
330
17
100
AcDbMlineStyle
  2
STANDARD
 70
     0
  3

 62
   256
 51
90.0
 52
90.0
 71
     2
 49
0.5
 62
   256
  6
BYLAYER
 49
-0.5
 62
   256
  6
BYLAYER
  0
ACDBPLACEHOLDER
  5
234
102
{ACAD_REACTORS
330
E
102
}
330
E
  0
ACDBPLACEHOLDER
  5
235
102
{ACAD_REACTORS
330
E
102
}
330
E
  0
ACDBPLACEHOLDER
  5
F
102
{ACAD_REACTORS
330
E
102
}
330
E
  0
SCALE
  5
A7
102
{ACAD_REACTORS
330
A6
102
}
330
A6
100
AcDbScale
 70
     0
300
1:1
140
1.0
141
1.0
290
     1
  0
SCALE
  5
A8
102
{ACAD_REACTORS
330
A6
102
}
330
A6
100
AcDbScale
 70
     0
300
1:2
140
1.0
141
2.0
290
     0
  0
SCALE
  5
A9
102
{ACAD_REACTORS
330
A6
102
}
330
A6
100
AcDbScale
 70
     0
300
1:4
140
1.0
141
4.0
290
     0
  0
SCALE
  5
AA
102
{ACAD_REACTORS
330
A6
102
}
330
A6
100
AcDbScale
 70
     0
300
1:5
140
1.0
141
5.0
290
     0
  0
SCALE
  5
AB
102
{ACAD_REACTORS
330
A6
102
}
330
A6
100
AcDbScale
 70
     0
300
1:8
140
1.0
141
8.0
290
     0
  0
SCALE
  5
AC
102
{ACAD_REACTORS
330
A6
102
}
330
A6
100
AcDbScale
 70
     0
300
1:10
140
1.0
141
10.0
290
     0
  0
SCALE
  5
AD
102
{ACAD_REACTORS
330
A6
102
}
330
A6
100
AcDbScale
 70
     0
300
1:16
140
1.0
141
16.0
290
     0
  0
SCALE
  5
AE
102
{ACAD_REACTORS
330
A6
102
}
330
A6
100
AcDbScale
 70
     0
300
1:20
140
1.0
141
20.0
290
     0
  0
SCALE
  5
AF
102
{ACAD_REACTORS
330
A6
102
}
330
A6
100
AcDbScale
 70
     0
300
1:30
140
1.0
141
30.0
290
     0
  0
SCALE
  5
B0
102
{ACAD_REACTORS
330
A6
102
}
330
A6
100
AcDbScale
 70
     0
300
1:40
140
1.0
141
40.0
290
     0
  0
SCALE
  5
B1
102
{ACAD_REACTORS
330
A6
102
}
330
A6
100
AcDbScale
 70
     0
300
1:50
140
1.0
141
50.0
290
     0
  0
SCALE
  5
B2
102
{ACAD_REACTORS
330
A6
102
}
330
A6
100
AcDbScale
 70
     0
300
1:100
140
1.0
141
100.0
290
     0
  0
SCALE
  5
B3
102
{ACAD_REACTORS
330
A6
102
}
330
A6
100
AcDbScale
 70
     0
300
2:1
140
2.0
141
1.0
290
     0
  0
SCALE
  5
B4
102
{ACAD_REACTORS
330
A6
102
}
330
A6
100
AcDbScale
 70
     0
300
4:1
140
4.0
141
1.0
290
     0
  0
SCALE
  5
B5
102
{ACAD_REACTORS
330
A6
102
}
330
A6
100
AcDbScale
 70
     0
300
8:1
140
8.0
141
1.0
290
     0
  0
SCALE
  5
B6
102
{ACAD_REACTORS
330
A6
102
}
330
A6
100
AcDbScale
 70
     0
300
10:1
140
10.0
141
1.0
290
     0
  0
SCALE
  5
B7
102
{ACAD_REACTORS
330
A6
102
}
330
A6
100
AcDbScale
 70
     0
300
100:1
140
100.0
141
1.0
290
     0
  0
SCALE
  5
B8
102
{ACAD_REACTORS
330
A6
102
}
330
A6
100
AcDbScale
 70
     0
300
1/128" = 1'-0"
140
0.0078125
141
12.0
290
     0
  0
SCALE
  5
B9
102
{ACAD_REACTORS
330
A6
102
}
330
A6
100
AcDbScale
 70
     0
300
1/64" = 1'-0"
140
0.015625
141
12.0
290
     0
  0
SCALE
  5
BA
102
{ACAD_REACTORS
330
A6
102
}
330
A6
100
AcDbScale
 70
     0
300
1/32" = 1'-0"
140
0.03125
141
12.0
290
     0
  0
SCALE
  5
BB
102
{ACAD_REACTORS
330
A6
102
}
330
A6
100
AcDbScale
 70
     0
300
1/16" = 1'-0"
140
0.0625
141
12.0
290
     0
  0
SCALE
  5
BC
102
{ACAD_REACTORS
330
A6
102
}
330
A6
100
AcDbScale
 70
     0
300
3/32" = 1'-0"
140
0.09375
141
12.0
290
     0
  0
SCALE
  5
BD
102
{ACAD_REACTORS
330
A6
102
}
330
A6
100
AcDbScale
 70
     0
300
1/8" = 1'-0"
140
0.125
141
12.0
290
     0
  0
SCALE
  5
BE
102
{ACAD_REACTORS
330
A6
102
}
330
A6
100
AcDbScale
 70
     0
300
3/16" = 1'-0"
140
0.1875
141
12.0
290
     0
  0
SCALE
  5
BF
102
{ACAD_REACTORS
330
A6
102
}
330
A6
100
AcDbScale
 70
     0
300
1/4" = 1'-0"
140
0.25
141
12.0
290
     0
  0
SCALE
  5
C0
102
{ACAD_REACTORS
330
A6
102
}
330
A6
100
AcDbScale
 70
     0
300
3/8" = 1'-0"
140
0.375
141
12.0
290
     0
  0
SCALE
  5
C1
102
{ACAD_REACTORS
330
A6
102
}
330
A6
100
AcDbScale
 70
     0
300
1/2" = 1'-0"
140
0.5
141
12.0
290
     0
  0
SCALE
  5
C2
102
{ACAD_REACTORS
330
A6
102
}
330
A6
100
AcDbScale
 70
     0
300
3/4" = 1'-0"
140
0.75
141
12.0
290
     0
  0
SCALE
  5
C3
102
{ACAD_REACTORS
330
A6
102
}
330
A6
100
AcDbScale
 70
     0
300
1" = 1'-0"
140
1.0
141
12.0
290
     0
  0
SCALE
  5
C4
102
{ACAD_REACTORS
330
A6
102
}
330
A6
100
AcDbScale
 70
     0
300
1-1/2" = 1'-0"
140
1.5
141
12.0
290
     0
  0
SCALE
  5
C5
102
{ACAD_REACTORS
330
A6
102
}
330
A6
100
AcDbScale
 70
     0
300
3" = 1'-0"
140
3.0
141
12.0
290
     0
  0
SCALE
  5
C6
102
{ACAD_REACTORS
330
A6
102
}
330
A6
100
AcDbScale
 70
     0
300
6" = 1'-0"
140
6.0
141
12.0
290
     0
  0
SCALE
  5
C7
102
{ACAD_REACTORS
330
A6
102
}
330
A6
100
AcDbScale
 70
     0
300
1'-0" = 1'-0"
140
12.0
141
12.0
290
     0
  0
ACDBSECTIONVIEWSTYLE
  5
19E
102
{ACAD_REACTORS
330
19C
102
}
330
19C
100
AcDbModelDocViewStyle
 70
     0
  3
Imperial24
290
     1
300
Metric50
 90
        0
100
AcDbSectionViewStyle
 70
     0
 71
     0
 90
       78
 71
     1
340
11
 62
   256
 40
0.24
340
0
340
0
 62
   256
 40
0.24
300
I, O, Q, S, X, Z
 40
0.48
 90
        3
 40
0.18
 90
        1
 71
     2
340
19D
 90
       25
 62
   256
340
16
 90
       50
 62
   256
 40
0.24
 40
0.0
 40
0.24
 71
     3
340
11
 62
   256
 40
0.24
 90
        1
 40
0.75
 90
        1
300
%<\AcVar ViewType \f "%tc1">% %<\AcVar ViewSectionStartId>%-%<\AcVar ViewSectionEndId>%\PSCALE %<\AcVar ViewScale \f "%sn">%
 71
     4
 62
   256
 62
   257
300
ANSI31
 40
1.0
 90
        0
290
     0
290
     0
 90
        6
 40
0.0
 40
1.570796326794896
 40
0.2617993877991494
 40
1.308996938995747
 40
-0.2617993877991494
 40
1.832595714594044
  0
TABLESTYLE
  5
93
102
{ACAD_REACTORS
330
92
102
}
330
92
100
AcDbTableStyle
  3
Standard
 70
     0
 71
     0
 40
0.06
 41
0.06
280
     0
281
     0
  7
Standard
140
0.18
170
     2
 62
     0
 63
   257
283
     0
 90
      512
 91
        0
  1

274
    -2
284
     1
 64
     0
275
    -2
285
     1
 65
     0
276
    -2
286
     1
 66
     0
277
    -2
287
     1
 67
     0
278
    -2
288
     1
 68
     0
279
    -2
289
     1
 69
     0
  7
Standard
140
0.25
170
     5
 62
     0
 63
   257
283
     0
 90
      512
 91
        0
  1

274
    -2
284
     1
 64
     0
275
    -2
285
     1
 65
     0
276
    -2
286
     1
 66
     0
277
    -2
287
     1
 67
     0
278
    -2
288
     1
 68
     0
279
    -2
289
     1
 69
     0
  7
Standard
140
0.18
170
     5
 62
     0
 63
   257
283
     0
 90
      512
 91
        0
  1

274
    -2
284
     1
 64
     0
275
    -2
285
     1
 65
     0
276
    -2
286
     1
 66
     0
277
    -2
287
     1
 67
     0
278
    -2
288
     1
 68
     0
279
    -2
289
     1
 69
     0
  0
VISUALSTYLE
  5
10F
102
{ACAD_REACTORS
330
109
102
}
330
109
100
AcDbVisualStyle
  2
2dWireframe
 70
     4
177
     3
291
     0
 70
    58
 90
        0
176
     1
 90
        2
176
     1
 90
        0
176
     1
 90
        0
176
     1
 40
0.6
176
     1
 40
30.0
176
     1
 62
     7
176
     1
 90
        1
176
     1
 90
        4
176
     1
 62
     7
176
     1
 62
   257
176
     1
 90
        1
176
     1
 90
        1
176
     1
 40
1.0
176
     1
 90
        0
176
     1
 62
   257
176
     1
 40
1.0
176
     1
 90
        1
176
     1
 90
        6
176
     1
 90
        2
176
     1
 62
     7
176
     1
 90
        5
176
     1
 90
        0
176
     1
 90
        0
176
     1
290
     0
176
     1
 90
        1
176
     1
 40
0.0
176
     1
 90
        0
176
     1
290
     1
176
     1
290
     1
176
     1
290
     0
176
     1
290
     0
176
     1
290
     0
176
     1
290
     0
176
     1
290
     0
176
     1
290
     0
176
     1
290
     0
176
     1
 90
       50
176
     1
 40
0.0
176
     1
 40
1.0
176
     1
 90
        0
176
     1
 62
    18
420
        0
176
     1
 90
       50
176
     1
 90
        3
176
     1
 62
     5
420
      255
176
     1
290
     0
176
     1
 90
       50
176
     1
 90
       50
176
     1
 90
       50
176
     1
290
     0
176
     1
 90
       50
176
     1
 62
   256
176
     0
 40
1.0
176
     0
 90
        0
176
     1
  1
strokes_ogs.tif
176
     1
290
     0
176
     1
 40
1.0
176
     1
 40
1.0
176
     1
  0
VISUALSTYLE
  5
111
102
{ACAD_REACTORS
330
109
102
}
330
109
100
AcDbVisualStyle
  2
3D Hidden
 70
     6
177
     3
291
     0
 70
    58
 90
        1
176
     1
 90
        2
176
     1
 90
        2
176
     1
 90
        0
176
     1
 40
0.6
176
     1
 40
30.0
176
     1
 62
     7
176
     1
 90
        2
176
     1
 90
        2
176
     1
 62
     7
176
     1
 62
   257
176
     1
 90
        2
176
     1
 90
        1
176
     1
 40
179.0
176
     1
 90
        0
176
     1
 62
   257
176
     1
 40
1.0
176
     1
 90
        1
176
     1
 90
        6
176
     1
 90
        2
176
     1
 62
     7
176
     1
 90
        3
176
     1
 90
        0
176
     1
 90
        0
176
     1
290
     0
176
     1
 90
        1
176
     1
 40
0.0
176
     1
 90
        0
176
     1
290
     0
176
     1
290
     1
176
     1
290
     1
176
     1
290
     0
176
     1
290
     0
176
     1
290
     0
176
     1
290
     0
176
     1
290
     0
176
     1
290
     0
176
     1
 90
       50
176
     1
 40
0.0
176
     1
 40
1.0
176
     1
 90
        0
176
     1
 62
    18
420
        0
176
     1
 90
       50
176
     1
 90
        3
176
     1
 62
     5
420
      255
176
     1
290
     0
176
     1
 90
       50
176
     1
 90
       50
176
     1
 90
       50
176
     1
290
     0
176
     1
 90
       50
176
     1
 62
   256
176
     0
 40
1.0
176
     0
 90
        0
176
     1
  1
strokes_ogs.tif
176
     1
290
     0
176
     1
 40
1.0
176
     1
 40
1.0
176
     1
  0
VISUALSTYLE
  5
110
102
{ACAD_REACTORS
330
109
102
}
330
109
100
AcDbVisualStyle
  2
3dWireframe
 70
     5
177
     3
291
     0
 70
    58
 90
        0
176
     1
 90
        2
176
     1
 90
        0
176
     1
 90
        0
176
     1
 40
0.6
176
     1
 40
30.0
176
     1
 62
     7
176
     1
 90
        1
176
     1
 90
        4
176
     1
 62
     7
176
     1
 62
   257
176
     1
 90
        1
176
     1
 90
        1
176
     1
 40
1.0
176
     1
 90
        0
176
     1
 62
   257
176
     1
 40
1.0
176
     1
 90
        1
176
     1
 90
        6
176
     1
 90
        2
176
     1
 62
     7
176
     1
 90
        5
176
     1
 90
        0
176
     1
 90
        0
176
     1
290
     0
176
     1
 90
        1
176
     1
 40
0.0
176
     1
 90
        0
176
     1
290
     0
176
     1
290
     1
176
     1
290
     1
176
     1
290
     0
176
     1
290
     0
176
     1
290
     0
176
     1
290
     0
176
     1
290
     0
176
     1
290
     0
176
     1
 90
       50
176
     1
 40
0.0
176
     1
 40
1.0
176
     1
 90
        0
176
     1
 62
    18
420
        0
176
     1
 90
       50
176
     1
 90
        3
176
     1
 62
     5
420
      255
176
     1
290
     0
176
     1
 90
       50
176
     1
 90
       50
176
     1
 90
       50
176
     1
290
     0
176
     1
 90
       50
176
     1
 62
   256
176
     0
 40
1.0
176
     0
 90
        0
176
     1
  1
strokes_ogs.tif
176
     1
290
     0
176
     1
 40
1.0
176
     1
 40
1.0
176
     1
  0
VISUALSTYLE
  5
10E
102
{ACAD_REACTORS
330
109
102
}
330
109
100
AcDbVisualStyle
  2
Basic
 70
     7
177
     3
291
     1
 70
    58
 90
        1
176
     1
 90
        0
176
     1
 90
        1
176
     1
 90
        0
176
     1
 40
0.6
176
     1
 40
30.0
176
     1
 62
     7
176
     1
 90
        0
176
     1
 90
        4
176
     1
 62
     7
176
     1
 62
   257
176
     1
 90
        1
176
     1
 90
        1
176
     1
 40
1.0
176
     1
 90
        8
176
     1
 62
     7
176
     1
 40
1.0
176
     1
 90
        1
176
     1
 90
        6
176
     1
 90
        2
176
     1
 62
     7
176
     1
 90
        5
176
     1
 90
        0
176
     1
 90
        0
176
     1
290
     0
176
     1
 90
        1
176
     1
 40
0.0
176
     1
 90
        0
176
     1
290
     0
176
     1
290
     1
176
     1
290
     1
176
     1
290
     0
176
     1
290
     0
176
     1
290
     0
176
     1
290
     0
176
     1
290
     0
176
     1
290
     0
176
     1
 90
       50
176
     1
 40
0.0
176
     1
 40
1.0
176
     1
 90
        0
176
     1
 62
    18
420
        0
176
     1
 90
       50
176
     1
 90
        3
176
     1
 62
     5
420
      255
176
     1
290
     0
176
     1
 90
       50
176
     1
 90
       50
176
     1
 90
       50
176
     1
290
     0
176
     1
 90
       50
176
     1
 62
   256
176
     0
 40
1.0
176
     0
 90
        0
176
     1
  1
strokes_ogs.tif
176
     1
290
     0
176
     1
 40
1.0
176
     1
 40
1.0
176
     1
  0
VISUALSTYLE
  5
115
102
{ACAD_REACTORS
330
109
102
}
330
109
100
AcDbVisualStyle
  2
Brighten
 70
    12
177
     3
291
     1
 70
    58
 90
        2
176
     1
 90
        2
176
     1
 90
        0
176
     1
 90
        0
176
     1
 40
0.6
176
     1
 40
30.0
176
     1
 62
     7
176
     1
 90
        1
176
     1
 90
        4
176
     1
 62
     7
176
     1
 62
   257
176
     1
 90
        1
176
     1
 90
        1
176
     1
 40
1.0
176
     1
 90
        8
176
     1
 62
     7
176
     1
 40
1.0
176
     1
 90
        1
176
     1
 90
        6
176
     1
 90
        2
176
     1
 62
     7
176
     1
 90
        5
176
     1
 90
        0
176
     1
 90
        0
176
     1
290
     0
176
     1
 90
        1
176
     1
 40
50.0
176
     1
 90
        0
176
     1
290
     0
176
     1
290
     1
176
     1
290
     1
176
     1
290
     0
176
     1
290
     0
176
     1
290
     0
176
     1
290
     0
176
     1
290
     0
176
     1
290
     0
176
     1
 90
       50
176
     1
 40
0.0
176
     1
 40
1.0
176
     1
 90
        0
176
     1
 62
    18
420
        0
176
     1
 90
       50
176
     1
 90
        3
176
     1
 62
     5
420
      255
176
     1
290
     0
176
     1
 90
       50
176
     1
 90
       50
176
     1
 90
       50
176
     1
290
     0
176
     1
 90
       50
176
     1
 62
   256
176
     0
 40
1.0
176
     0
 90
        0
176
     1
  1
strokes_ogs.tif
176
     1
290
     0
176
     1
 40
1.0
176
     1
 40
1.0
176
     1
  0
VISUALSTYLE
  5
119
102
{ACAD_REACTORS
330
109
102
}
330
109
100
AcDbVisualStyle
  2
ColorChange
 70
    16
177
     3
291
     1
 70
    58
 90
        2
176
     1
 90
        2
176
     1
 90
        3
176
     1
 90
        0
176
     1
 40
0.6
176
     1
 40
30.0
176
     1
 62
     8
176
     1
 90
        1
176
     1
 90
        4
176
     1
 62
     7
176
     1
 62
   257
176
     1
 90
        1
176
     1
 90
        1
176
     1
 40
1.0
176
     1
 90
        8
176
     1
 62
     8
176
     1
 40
1.0
176
     1
 90
        1
176
     1
 90
        6
176
     1
 90
        2
176
     1
 62
     7
176
     1
 90
        5
176
     1
 90
        0
176
     1
 90
        0
176
     1
290
     0
176
     1
 90
        1
176
     1
 40
0.0
176
     1
 90
        0
176
     1
290
     0
176
     1
290
     1
176
     1
290
     1
176
     1
290
     0
176
     1
290
     0
176
     1
290
     0
176
     1
290
     0
176
     1
290
     0
176
     1
290
     0
176
     1
 90
       50
176
     1
 40
0.0
176
     1
 40
1.0
176
     1
 90
        0
176
     1
 62
    18
420
        0
176
     1
 90
       50
176
     1
 90
        3
176
     1
 62
     5
420
      255
176
     1
290
     0
176
     1
 90
       50
176
     1
 90
       50
176
     1
 90
       50
176
     1
290
     0
176
     1
 90
       50
176
     1
 62
   256
176
     0
 40
1.0
176
     0
 90
        0
176
     1
  1
strokes_ogs.tif
176
     1
290
     0
176
     1
 40
1.0
176
     1
 40
1.0
176
     1
  0
VISUALSTYLE
  5
112
102
{ACAD_REACTORS
330
109
102
}
330
109
100
AcDbVisualStyle
  2
Conceptual
 70
     9
177
     3
291
     0
 70
    58
 90
        3
176
     1
 90
        2
176
     1
 90
        0
176
     1
 90
        0
176
     1
 40
0.6
176
     1
 40
30.0
176
     1
 62
     7
176
     1
 90
        2
176
     1
 90
        2
176
     1
 62
     7
176
     1
 62
   257
176
     1
 90
        1
176
     1
 90
        1
176
     1
 40
179.0
176
     1
 90
        8
176
     1
 62
     7
176
     1
 40
1.0
176
     1
 90
        1
176
     1
 90
        6
176
     1
 90
        2
176
     1
 62
     7
176
     1
 90
        3
176
     1
 90
        0
176
     1
 90
        0
176
     1
290
     0
176
     1
 90
        1
176
     1
 40
0.0
176
     1
 90
        0
176
     1
290
     0
176
     1
290
     1
176
     1
290
     1
176
     1
290
     0
176
     1
290
     0
176
     1
290
     0
176
     1
290
     0
176
     1
290
     0
176
     1
290
     0
176
     1
 90
       50
176
     1
 40
0.0
176
     1
 40
1.0
176
     1
 90
        0
176
     1
 62
    18
420
        0
176
     1
 90
       50
176
     1
 90
        3
176
     1
 62
     5
420
      255
176
     1
290
     0
176
     1
 90
       50
176
     1
 90
       50
176
     1
 90
       50
176
     1
290
     0
176
     1
 90
       50
176
     1
 62
   256
176
     0
 40
1.0
176
     0
 90
        0
176
     1
  1
strokes_ogs.tif
176
     1
290
     0
176
     1
 40
1.0
176
     1
 40
1.0
176
     1
  0
VISUALSTYLE
  5
114
102
{ACAD_REACTORS
330
109
102
}
330
109
100
AcDbVisualStyle
  2
Dim
 70
    11
177
     3
291
     1
 70
    58
 90
        2
176
     1
 90
        2
176
     1
 90
        0
176
     1
 90
        0
176
     1
 40
0.6
176
     1
 40
30.0
176
     1
 62
     7
176
     1
 90
        1
176
     1
 90
        4
176
     1
 62
     7
176
     1
 62
   257
176
     1
 90
        1
176
     1
 90
        1
176
     1
 40
1.0
176
     1
 90
        8
176
     1
 62
     7
176
     1
 40
1.0
176
     1
 90
        1
176
     1
 90
        6
176
     1
 90
        2
176
     1
 62
     7
176
     1
 90
        5
176
     1
 90
        0
176
     1
 90
        0
176
     1
290
     0
176
     1
 90
        1
176
     1
 40
-50.0
176
     1
 90
        0
176
     1
290
     0
176
     1
290
     1
176
     1
290
     1
176
     1
290
     0
176
     1
290
     0
176
     1
290
     0
176
     1
290
     0
176
     1
290
     0
176
     1
290
     0
176
     1
 90
       50
176
     1
 40
0.0
176
     1
 40
1.0
176
     1
 90
        0
176
     1
 62
    18
420
        0
176
     1
 90
       50
176
     1
 90
        3
176
     1
 62
     5
420
      255
176
     1
290
     0
176
     1
 90
       50
176
     1
 90
       50
176
     1
 90
       50
176
     1
290
     0
176
     1
 90
       50
176
     1
 62
   256
176
     0
 40
1.0
176
     0
 90
        0
176
     1
  1
strokes_ogs.tif
176
     1
290
     0
176
     1
 40
1.0
176
     1
 40
1.0
176
     1
  0
VISUALSTYLE
  5
11C
102
{ACAD_REACTORS
330
109
102
}
330
109
100
AcDbVisualStyle
  2
EdgeColorOff
 70
    22
177
     3
291
     1
 70
    58
 90
        2
176
     0
 90
        2
176
     0
 90
        0
176
     0
 90
        0
176
     0
 40
0.6
176
     0
 40
30.0
176
     0
 62
     7
176
     0
 90
        1
176
     0
 90
        4
176
     0
 62
     7
176
     0
 62
   257
176
     0
 90
        1
176
     0
 90
        1
176
     0
 40
1.0
176
     0
 90
        8
176
     2
 62
     7
176
     0
 40
1.0
176
     0
 90
        1
176
     0
 90
        6
176
     0
 90
        2
176
     0
 62
     7
176
     0
 90
        5
176
     0
 90
        0
176
     0
 90
        0
176
     0
290
     0
176
     0
 90
        1
176
     0
 40
0.0
176
     0
 90
        0
176
     0
290
     0
176
     1
290
     1
176
     1
290
     1
176
     1
290
     0
176
     1
290
     0
176
     1
290
     0
176
     1
290
     0
176
     1
290
     0
176
     1
290
     0
176
     1
 90
       50
176
     1
 40
0.0
176
     1
 40
1.0
176
     1
 90
        0
176
     1
 62
    18
420
        0
176
     1
 90
       50
176
     1
 90
        3
176
     1
 62
     5
420
      255
176
     1
290
     0
176
     1
 90
       50
176
     1
 90
       50
176
     1
 90
       50
176
     1
290
     0
176
     1
 90
       50
176
     1
 62
   256
176
     0
 40
1.0
176
     0
 90
        0
176
     1
  1
strokes_ogs.tif
176
     1
290
     0
176
     1
 40
1.0
176
     1
 40
1.0
176
     1
  0
VISUALSTYLE
  5
118
102
{ACAD_REACTORS
330
109
102
}
330
109
100
AcDbVisualStyle
  2
Facepattern
 70
    15
177
     3
291
     1
 70
    58
 90
        2
176
     1
 90
        2
176
     1
 90
        0
176
     1
 90
        0
176
     1
 40
0.6
176
     1
 40
30.0
176
     1
 62
     7
176
     1
 90
        1
176
     1
 90
        4
176
     1
 62
     7
176
     1
 62
   257
176
     1
 90
        1
176
     1
 90
        1
176
     1
 40
1.0
176
     1
 90
        8
176
     1
 62
     7
176
     1
 40
1.0
176
     1
 90
        1
176
     1
 90
        6
176
     1
 90
        2
176
     1
 62
     7
176
     1
 90
        5
176
     1
 90
        0
176
     1
 90
        0
176
     1
290
     0
176
     1
 90
        1
176
     1
 40
0.0
176
     1
 90
        0
176
     1
290
     0
176
     1
290
     1
176
     1
290
     1
176
     1
290
     0
176
     1
290
     0
176
     1
290
     0
176
     1
290
     0
176
     1
290
     0
176
     1
290
     0
176
     1
 90
       50
176
     1
 40
0.0
176
     1
 40
1.0
176
     1
 90
        0
176
     1
 62
    18
420
        0
176
     1
 90
       50
176
     1
 90
        3
176
     1
 62
     5
420
      255
176
     1
290
     0
176
     1
 90
       50
176
     1
 90
       50
176
     1
 90
       50
176
     1
290
     0
176
     1
 90
       50
176
     1
 62
   256
176
     0
 40
1.0
176
     0
 90
        0
176
     1
  1
strokes_ogs.tif
176
     1
290
     0
176
     1
 40
1.0
176
     1
 40
1.0
176
     1
  0
VISUALSTYLE
  5
10A
102
{ACAD_REACTORS
330
109
102
}
330
109
100
AcDbVisualStyle
  2
Flat
 70
     0
177
     3
291
     1
 70
    58
 90
        2
176
     1
 90
        1
176
     1
 90
        1
176
     1
 90
        2
176
     1
 40
0.6
176
     1
 40
30.0
176
     1
 62
     7
176
     1
 90
        0
176
     1
 90
        4
176
     1
 62
     7
176
     1
 62
   257
176
     1
 90
        1
176
     1
 90
        1
176
     1
 40
1.0
176
     1
 90
        8
176
     1
 62
     7
176
     1
 40
1.0
176
     1
 90
        1
176
     1
 90
        6
176
     1
 90
        2
176
     1
 62
     7
176
     1
 90
        5
176
     1
 90
        0
176
     1
 90
        0
176
     1
290
     0
176
     1
 90
       13
176
     1
 40
0.0
176
     1
 90
        0
176
     1
290
     0
176
     1
290
     1
176
     1
290
     1
176
     1
290
     0
176
     1
290
     0
176
     1
290
     0
176
     1
290
     0
176
     1
290
     0
176
     1
290
     0
176
     1
 90
       50
176
     1
 40
0.0
176
     1
 40
1.0
176
     1
 90
        0
176
     1
 62
    18
420
        0
176
     1
 90
       50
176
     1
 90
        3
176
     1
 62
     5
420
      255
176
     1
290
     0
176
     1
 90
       50
176
     1
 90
       50
176
     1
 90
       50
176
     1
290
     0
176
     1
 90
       50
176
     1
 62
   256
176
     0
 40
1.0
176
     0
 90
        0
176
     1
  1
strokes_ogs.tif
176
     1
290
     0
176
     1
 40
1.0
176
     1
 40
1.0
176
     1
  0
VISUALSTYLE
  5
10B
102
{ACAD_REACTORS
330
109
102
}
330
109
100
AcDbVisualStyle
  2
FlatWithEdges
 70
     1
177
     3
291
     1
 70
    58
 90
        2
176
     1
 90
        1
176
     1
 90
        1
176
     1
 90
        2
176
     1
 40
0.6
176
     1
 40
30.0
176
     1
 62
     7
176
     1
 90
        1
176
     1
 90
        4
176
     1
 62
     7
176
     1
 62
   257
176
     1
 90
        1
176
     1
 90
        1
176
     1
 40
1.0
176
     1
 90
        0
176
     1
 62
   257
176
     1
 40
1.0
176
     1
 90
        1
176
     1
 90
        6
176
     1
 90
        2
176
     1
 62
     7
176
     1
 90
        5
176
     1
 90
        0
176
     1
 90
        0
176
     1
290
     0
176
     1
 90
       13
176
     1
 40
0.0
176
     1
 90
        0
176
     1
290
     0
176
     1
290
     1
176
     1
290
     1
176
     1
290
     0
176
     1
290
     0
176
     1
290
     0
176
     1
290
     0
176
     1
290
     0
176
     1
290
     0
176
     1
 90
       50
176
     1
 40
0.0
176
     1
 40
1.0
176
     1
 90
        0
176
     1
 62
    18
420
        0
176
     1
 90
       50
176
     1
 90
        3
176
     1
 62
     5
420
      255
176
     1
290
     0
176
     1
 90
       50
176
     1
 90
       50
176
     1
 90
       50
176
     1
290
     0
176
     1
 90
       50
176
     1
 62
   256
176
     0
 40
1.0
176
     0
 90
        0
176
     1
  1
strokes_ogs.tif
176
     1
290
     0
176
     1
 40
1.0
176
     1
 40
1.0
176
     1
  0
VISUALSTYLE
  5
10C
102
{ACAD_REACTORS
330
109
102
}
330
109
100
AcDbVisualStyle
  2
Gouraud
 70
     2
177
     3
291
     1
 70
    58
 90
        2
176
     1
 90
        2
176
     1
 90
        1
176
     1
 90
        2
176
     1
 40
0.6
176
     1
 40
30.0
176
     1
 62
     7
176
     1
 90
        0
176
     1
 90
        4
176
     1
 62
     7
176
     1
 62
   257
176
     1
 90
        1
176
     1
 90
        1
176
     1
 40
1.0
176
     1
 90
        0
176
     1
 62
     7
176
     1
 40
1.0
176
     1
 90
        1
176
     1
 90
        6
176
     1
 90
        2
176
     1
 62
     7
176
     1
 90
        5
176
     1
 90
        0
176
     1
 90
        0
176
     1
290
     0
176
     1
 90
       13
176
     1
 40
0.0
176
     1
 90
        0
176
     1
290
     0
176
     1
290
     1
176
     1
290
     1
176
     1
290
     0
176
     1
290
     0
176
     1
290
     0
176
     1
290
     0
176
     1
290
     0
176
     1
290
     0
176
     1
 90
       50
176
     1
 40
0.0
176
     1
 40
1.0
176
     1
 90
        0
176
     1
 62
    18
420
        0
176
     1
 90
       50
176
     1
 90
        3
176
     1
 62
     5
420
      255
176
     1
290
     0
176
     1
 90
       50
176
     1
 90
       50
176
     1
 90
       50
176
     1
290
     0
176
     1
 90
       50
176
     1
 62
   256
176
     0
 40
1.0
176
     0
 90
        0
176
     1
  1
strokes_ogs.tif
176
     1
290
     0
176
     1
 40
1.0
176
     1
 40
1.0
176
     1
  0
VISUALSTYLE
  5
10D
102
{ACAD_REACTORS
330
109
102
}
330
109
100
AcDbVisualStyle
  2
GouraudWithEdges
 70
     3
177
     3
291
     1
 70
    58
 90
        2
176
     1
 90
        2
176
     1
 90
        1
176
     1
 90
        2
176
     1
 40
0.6
176
     1
 40
30.0
176
     1
 62
     7
176
     1
 90
        1
176
     1
 90
        4
176
     1
 62
     7
176
     1
 62
   257
176
     1
 90
        1
176
     1
 90
        1
176
     1
 40
1.0
176
     1
 90
        0
176
     1
 62
   257
176
     1
 40
1.0
176
     1
 90
        1
176
     1
 90
        6
176
     1
 90
        2
176
     1
 62
     7
176
     1
 90
        5
176
     1
 90
        0
176
     1
 90
        0
176
     1
290
     0
176
     1
 90
       13
176
     1
 40
0.0
176
     1
 90
        0
176
     1
290
     0
176
     1
290
     1
176
     1
290
     1
176
     1
290
     0
176
     1
290
     0
176
     1
290
     0
176
     1
290
     0
176
     1
290
     0
176
     1
290
     0
176
     1
 90
       50
176
     1
 40
0.0
176
     1
 40
1.0
176
     1
 90
        0
176
     1
 62
    18
420
        0
176
     1
 90
       50
176
     1
 90
        3
176
     1
 62
     5
420
      255
176
     1
290
     0
176
     1
 90
       50
176
     1
 90
       50
176
     1
 90
       50
176
     1
290
     0
176
     1
 90
       50
176
     1
 62
   256
176
     0
 40
1.0
176
     0
 90
        0
176
     1
  1
strokes_ogs.tif
176
     1
290
     0
176
     1
 40
1.0
176
     1
 40
1.0
176
     1
  0
VISUALSTYLE
  5
13A
102
{ACAD_REACTORS
330
109
102
}
330
109
100
AcDbVisualStyle
  2
Hidden
 70
     6
177
     3
291
     0
 70
    58
 90
        1
176
     1
 90
        2
176
     1
 90
        2
176
     1
 90
        0
176
     1
 40
0.6
176
     1
 40
30.0
176
     1
 62
     7
176
     1
 90
        2
176
     1
 90
        2
176
     1
 62
     7
176
     1
 62
   257
176
     1
 90
        2
176
     1
 90
        1
176
     1
 40
40.0
176
     1
 90
        0
176
     1
 62
   257
176
     1
 40
1.0
176
     1
 90
        1
176
     1
 90
        6
176
     1
 90
        2
176
     1
 62
     7
176
     1
 90
        3
176
     1
 90
        0
176
     1
 90
        0
176
     1
290
     0
176
     1
 90
        1
176
     1
 40
0.0
176
     1
 90
        0
176
     1
290
     0
176
     1
290
     1
176
     1
290
     1
176
     1
290
     0
176
     1
290
     0
176
     1
290
     0
176
     1
290
     0
176
     1
290
     0
176
     1
290
     0
176
     1
 90
       50
176
     1
 40
0.0
176
     1
 40
1.0
176
     1
 90
        0
176
     1
 62
    18
420
        0
176
     1
 90
       50
176
     1
 90
        3
176
     1
 62
     5
420
      255
176
     1
290
     0
176
     1
 90
       50
176
     1
 90
       50
176
     1
 90
       50
176
     1
290
     0
176
     1
 90
       50
176
     1
 62
   256
176
     0
 40
1.0
176
     0
 90
        0
176
     1
  1
strokes_ogs.tif
176
     1
290
     0
176
     1
 40
1.0
176
     1
 40
1.0
176
     1
  0
VISUALSTYLE
  5
11A
102
{ACAD_REACTORS
330
109
102
}
330
109
100
AcDbVisualStyle
  2
JitterOff
 70
    20
177
     3
291
     1
 70
    58
 90
        2
176
     0
 90
        2
176
     0
 90
        0
176
     0
 90
        0
176
     0
 40
0.6
176
     0
 40
30.0
176
     0
 62
     7
176
     0
 90
        1
176
     0
 90
        4
176
     0
 62
     7
176
     0
 62
   257
176
     0
 90
        1
176
     0
 90
        1
176
     0
 40
1.0
176
     0
 90
       10
176
     2
 62
     7
176
     0
 40
1.0
176
     0
 90
        1
176
     0
 90
        6
176
     0
 90
        2
176
     0
 62
     7
176
     0
 90
        5
176
     0
 90
        0
176
     0
 90
        0
176
     0
290
     0
176
     0
 90
        1
176
     0
 40
0.0
176
     0
 90
        0
176
     0
290
     0
176
     1
290
     1
176
     1
290
     1
176
     1
290
     0
176
     1
290
     0
176
     1
290
     0
176
     1
290
     0
176
     1
290
     0
176
     1
290
     0
176
     1
 90
       50
176
     1
 40
0.0
176
     1
 40
1.0
176
     1
 90
        0
176
     1
 62
    18
420
        0
176
     1
 90
       50
176
     1
 90
        3
176
     1
 62
     5
420
      255
176
     1
290
     0
176
     1
 90
       50
176
     1
 90
       50
176
     1
 90
       50
176
     1
290
     0
176
     1
 90
       50
176
     1
 62
   256
176
     0
 40
1.0
176
     0
 90
        0
176
     1
  1
strokes_ogs.tif
176
     1
290
     0
176
     1
 40
1.0
176
     1
 40
1.0
176
     1
  0
VISUALSTYLE
  5
117
102
{ACAD_REACTORS
330
109
102
}
330
109
100
AcDbVisualStyle
  2
Linepattern
 70
    14
177
     3
291
     1
 70
    58
 90
        2
176
     1
 90
        2
176
     1
 90
        0
176
     1
 90
        0
176
     1
 40
0.6
176
     1
 40
30.0
176
     1
 62
     7
176
     1
 90
        1
176
     1
 90
        4
176
     1
 62
     7
176
     1
 62
   257
176
     1
 90
        7
176
     1
 90
        7
176
     1
 40
1.0
176
     1
 90
        8
176
     1
 62
     7
176
     1
 40
1.0
176
     1
 90
        1
176
     1
 90
        6
176
     1
 90
        2
176
     1
 62
     7
176
     1
 90
        5
176
     1
 90
        0
176
     1
 90
        0
176
     1
290
     0
176
     1
 90
        1
176
     1
 40
0.0
176
     1
 90
        0
176
     1
290
     0
176
     1
290
     1
176
     1
290
     1
176
     1
290
     0
176
     1
290
     0
176
     1
290
     0
176
     1
290
     0
176
     1
290
     0
176
     1
290
     0
176
     1
 90
       50
176
     1
 40
0.0
176
     1
 40
1.0
176
     1
 90
        0
176
     1
 62
    18
420
        0
176
     1
 90
       50
176
     1
 90
        3
176
     1
 62
     5
420
      255
176
     1
290
     0
176
     1
 90
       50
176
     1
 90
       50
176
     1
 90
       50
176
     1
290
     0
176
     1
 90
       50
176
     1
 62
   256
176
     0
 40
1.0
176
     0
 90
        0
176
     1
  1
strokes_ogs.tif
176
     1
290
     0
176
     1
 40
1.0
176
     1
 40
1.0
176
     1
  0
VISUALSTYLE
  5
11B
102
{ACAD_REACTORS
330
109
102
}
330
109
100
AcDbVisualStyle
  2
OverhangOff
 70
    21
177
     3
291
     1
 70
    58
 90
        2
176
     0
 90
        2
176
     0
 90
        0
176
     0
 90
        0
176
     0
 40
0.6
176
     0
 40
30.0
176
     0
 62
     7
176
     0
 90
        1
176
     0
 90
        4
176
     0
 62
     7
176
     0
 62
   257
176
     0
 90
        1
176
     0
 90
        1
176
     0
 40
1.0
176
     0
 90
        9
176
     2
 62
     7
176
     0
 40
1.0
176
     0
 90
        1
176
     0
 90
        6
176
     0
 90
        2
176
     0
 62
     7
176
     0
 90
        5
176
     0
 90
        0
176
     0
 90
        0
176
     0
290
     0
176
     0
 90
        1
176
     0
 40
0.0
176
     0
 90
        0
176
     0
290
     0
176
     1
290
     1
176
     1
290
     1
176
     1
290
     0
176
     1
290
     0
176
     1
290
     0
176
     1
290
     0
176
     1
290
     0
176
     1
290
     0
176
     1
 90
       50
176
     1
 40
0.0
176
     1
 40
1.0
176
     1
 90
        0
176
     1
 62
    18
420
        0
176
     1
 90
       50
176
     1
 90
        3
176
     1
 62
     5
420
      255
176
     1
290
     0
176
     1
 90
       50
176
     1
 90
       50
176
     1
 90
       50
176
     1
290
     0
176
     1
 90
       50
176
     1
 62
   256
176
     0
 40
1.0
176
     0
 90
        0
176
     1
  1
strokes_ogs.tif
176
     1
290
     0
176
     1
 40
1.0
176
     1
 40
1.0
176
     1
  0
VISUALSTYLE
  5
113
102
{ACAD_REACTORS
330
109
102
}
330
109
100
AcDbVisualStyle
  2
Realistic
 70
     8
177
     3
291
     0
 70
    58
 90
        2
176
     1
 90
        2
176
     1
 90
        0
176
     1
 90
        0
176
     1
 40
0.6
176
     1
 40
30.0
176
     1
 62
     7
176
     1
 90
        1
176
     1
 90
        0
176
     1
 62
     7
176
     1
 62
   257
176
     1
 90
        1
176
     1
 90
        1
176
     1
 40
1.0
176
     1
 90
        8
176
     1
 62
     8
176
     1
 40
1.0
176
     1
 90
        1
176
     1
 90
        6
176
     1
 90
        2
176
     1
 62
     7
176
     1
 90
        5
176
     1
 90
        0
176
     1
 90
        0
176
     1
290
     0
176
     1
 90
       13
176
     1
 40
0.0
176
     1
 90
        0
176
     1
290
     0
176
     1
290
     1
176
     1
290
     1
176
     1
290
     0
176
     1
290
     0
176
     1
290
     0
176
     1
290
     0
176
     1
290
     0
176
     1
290
     0
176
     1
 90
       50
176
     1
 40
0.0
176
     1
 40
1.0
176
     1
 90
        0
176
     1
 62
    18
420
        0
176
     1
 90
       50
176
     1
 90
        3
176
     1
 62
     5
420
      255
176
     1
290
     0
176
     1
 90
       50
176
     1
 90
       50
176
     1
 90
       50
176
     1
290
     0
176
     1
 90
       50
176
     1
 62
   256
176
     0
 40
1.0
176
     0
 90
        0
176
     1
  1
strokes_ogs.tif
176
     1
290
     0
176
     1
 40
1.0
176
     1
 40
1.0
176
     1
  0
VISUALSTYLE
  5
13F
102
{ACAD_REACTORS
330
109
102
}
330
109
100
AcDbVisualStyle
  2
Shaded
 70
    27
177
     3
291
     0
 70
    58
 90
        2
176
     1
 90
        2
176
     1
 90
        1
176
     1
 90
        2
176
     1
 40
0.6
176
     1
 40
30.0
176
     1
 62
     7
176
     1
 90
        0
176
     1
 90
        4
176
     1
 62
     7
176
     1
 62
   257
176
     1
 90
        1
176
     1
 90
        1
176
     1
 40
1.0
176
     1
 90
        8
176
     1
 62
   257
176
     1
 40
1.0
176
     1
 90
        1
176
     1
 90
        6
176
     1
 90
        2
176
     1
 62
     8
176
     1
 90
        3
176
     1
 90
        0
176
     1
 90
        0
176
     1
290
     0
176
     1
 90
        5
176
     1
 40
0.0
176
     1
 90
        0
176
     1
290
     0
176
     1
290
     1
176
     1
290
     1
176
     1
290
     0
176
     1
290
     0
176
     1
290
     0
176
     1
290
     0
176
     1
290
     0
176
     1
290
     0
176
     1
 90
       50
176
     1
 40
0.0
176
     1
 40
1.0
176
     1
 90
        0
176
     1
 62
    18
420
        0
176
     1
 90
       50
176
     1
 90
        3
176
     1
 62
     5
420
      255
176
     1
290
     0
176
     1
 90
       50
176
     1
 90
       50
176
     1
 90
       50
176
     1
290
     0
176
     1
 90
       50
176
     1
 62
   256
176
     0
 40
1.0
176
     0
 90
        2
176
     1
  1
strokes_ogs.tif
176
     1
290
     0
176
     1
 40
1.0
176
     1
 40
1.0
176
     1
  0
VISUALSTYLE
  5
13E
102
{ACAD_REACTORS
330
109
102
}
330
109
100
AcDbVisualStyle
  2
Shaded with edges
 70
    26
177
     3
291
     0
 70
    58
 90
        2
176
     1
 90
        2
176
     1
 90
        1
176
     1
 90
        2
176
     1
 40
0.6
176
     1
 40
30.0
176
     1
 62
     7
176
     1
 90
        1
176
     1
 90
       10
176
     1
 62
     7
176
     1
 62
   257
176
     1
 90
        2
176
     1
 90
        1
176
     1
 40
1.0
176
     1
 90
        8
176
     1
 62
   257
176
     1
 40
1.0
176
     1
 90
        1
176
     1
 90
        6
176
     1
 90
        2
176
     1
 62
     7
176
     1
 90
        3
176
     1
 90
        0
176
     1
 90
        0
176
     1
290
     0
176
     1
 90
        5
176
     1
 40
0.0
176
     1
 90
        0
176
     1
290
     0
176
     1
290
     1
176
     1
290
     1
176
     1
290
     0
176
     1
290
     0
176
     1
290
     0
176
     1
290
     0
176
     1
290
     0
176
     1
290
     0
176
     1
 90
       50
176
     1
 40
0.0
176
     1
 40
1.0
176
     1
 90
        0
176
     1
 62
    18
420
        0
176
     1
 90
       50
176
     1
 90
        3
176
     1
 62
     5
420
      255
176
     1
290
     0
176
     1
 90
       50
176
     1
 90
       50
176
     1
 90
       50
176
     1
290
     0
176
     1
 90
       50
176
     1
 62
   256
176
     0
 40
1.0
176
     0
 90
        2
176
     1
  1
strokes_ogs.tif
176
     1
290
     0
176
     1
 40
1.0
176
     1
 40
1.0
176
     1
  0
VISUALSTYLE
  5
13B
102
{ACAD_REACTORS
330
109
102
}
330
109
100
AcDbVisualStyle
  2
Shades of Gray
 70
    23
177
     3
291
     0
 70
    58
 90
        2
176
     1
 90
        2
176
     1
 90
        3
176
     1
 90
        0
176
     1
 40
0.6
176
     1
 40
30.0
176
     1
 62
     7
176
     1
 90
        2
176
     1
 90
        2
176
     1
 62
     7
176
     1
 62
     7
176
     1
 90
        1
176
     1
 90
        1
176
     1
 40
40.0
176
     1
 90
        8
176
     1
 62
     7
176
     1
 40
1.0
176
     1
 90
        1
176
     1
 90
        6
176
     1
 90
        2
176
     1
 62
     7
176
     1
 90
        3
176
     1
 90
        0
176
     1
 90
        0
176
     1
290
     0
176
     1
 90
        1
176
     1
 40
0.0
176
     1
 90
        0
176
     1
290
     0
176
     1
290
     1
176
     1
290
     1
176
     1
290
     0
176
     1
290
     0
176
     1
290
     0
176
     1
290
     0
176
     1
290
     0
176
     1
290
     0
176
     1
 90
       50
176
     1
 40
0.0
176
     1
 40
1.0
176
     1
 90
        0
176
     1
 62
    18
420
        0
176
     1
 90
       50
176
     1
 90
        3
176
     1
 62
     5
420
      255
176
     1
290
     0
176
     1
 90
       50
176
     1
 90
       50
176
     1
 90
       50
176
     1
290
     0
176
     1
 90
       50
176
     1
 62
   256
176
     0
 40
1.0
176
     0
 90
        0
176
     1
  1
strokes_ogs.tif
176
     1
290
     0
176
     1
 40
1.0
176
     1
 40
1.0
176
     1
  0
VISUALSTYLE
  5
13C
102
{ACAD_REACTORS
330
109
102
}
330
109
100
AcDbVisualStyle
  2
Sketchy
 70
    24
177
     3
291
     0
 70
    58
 90
        1
176
     1
 90
        2
176
     1
 90
        2
176
     1
 90
        0
176
     1
 40
0.6
176
     1
 40
30.0
176
     1
 62
     7
176
     1
 90
        2
176
     1
 90
        2
176
     1
 62
     7
176
     1
 62
     7
176
     1
 90
        1
176
     1
 90
        1
176
     1
 40
40.0
176
     1
 90
       11
176
     1
 62
     7
176
     1
 40
1.0
176
     1
 90
        1
176
     1
 90
        6
176
     1
 90
        2
176
     1
 62
     7
176
     1
 90
        6
176
     1
 90
        0
176
     1
 90
        0
176
     1
290
     0
176
     1
 90
        1
176
     1
 40
0.0
176
     1
 90
        0
176
     1
290
     0
176
     1
290
     1
176
     1
290
     1
176
     1
290
     0
176
     1
290
     0
176
     1
290
     0
176
     1
290
     0
176
     1
290
     0
176
     1
290
     0
176
     1
 90
       50
176
     1
 40
0.0
176
     1
 40
1.0
176
     1
 90
        0
176
     1
 62
    18
420
        0
176
     1
 90
       50
176
     1
 90
        3
176
     1
 62
     5
420
      255
176
     1
290
     0
176
     1
 90
       50
176
     1
 90
       50
176
     1
 90
       50
176
     1
290
     0
176
     1
 90
       50
176
     1
 62
   256
176
     0
 40
1.0
176
     0
 90
        0
176
     1
  1
strokes_ogs.tif
176
     1
290
     0
176
     1
 40
1.0
176
     1
 40
1.0
176
     1
  0
VISUALSTYLE
  5
116
102
{ACAD_REACTORS
330
109
102
}
330
109
100
AcDbVisualStyle
  2
Thicken
 70
    13
177
     3
291
     1
 70
    58
 90
        2
176
     1
 90
        2
176
     1
 90
        0
176
     1
 90
        0
176
     1
 40
0.6
176
     1
 40
30.0
176
     1
 62
     7
176
     1
 90
        1
176
     1
 90
        4
176
     1
 62
     7
176
     1
 62
   257
176
     1
 90
        1
176
     1
 90
        1
176
     1
 40
1.0
176
     1
 90
       12
176
     1
 62
     7
176
     1
 40
1.0
176
     1
 90
        1
176
     1
 90
        6
176
     1
 90
        2
176
     1
 62
     7
176
     1
 90
        5
176
     1
 90
        0
176
     1
 90
        0
176
     1
290
     0
176
     1
 90
        1
176
     1
 40
0.0
176
     1
 90
        0
176
     1
290
     0
176
     1
290
     1
176
     1
290
     1
176
     1
290
     0
176
     1
290
     0
176
     1
290
     0
176
     1
290
     0
176
     1
290
     0
176
     1
290
     0
176
     1
 90
       50
176
     1
 40
0.0
176
     1
 40
1.0
176
     1
 90
        0
176
     1
 62
    18
420
        0
176
     1
 90
       50
176
     1
 90
        3
176
     1
 62
     5
420
      255
176
     1
290
     0
176
     1
 90
       50
176
     1
 90
       50
176
     1
 90
       50
176
     1
290
     0
176
     1
 90
       50
176
     1
 62
   256
176
     0
 40
1.0
176
     0
 90
        0
176
     1
  1
strokes_ogs.tif
176
     1
290
     0
176
     1
 40
1.0
176
     1
 40
1.0
176
     1
  0
VISUALSTYLE
  5
139
102
{ACAD_REACTORS
330
109
102
}
330
109
100
AcDbVisualStyle
  2
Wireframe
 70
     5
177
     3
291
     0
 70
    58
 90
        0
176
     1
 90
        2
176
     1
 90
        0
176
     1
 90
        0
176
     1
 40
0.6
176
     1
 40
30.0
176
     1
 62
     7
176
     1
 90
        1
176
     1
 90
        4
176
     1
 62
     7
176
     1
 62
   257
176
     1
 90
        1
176
     1
 90
        1
176
     1
 40
1.0
176
     1
 90
        0
176
     1
 62
   257
176
     1
 40
1.0
176
     1
 90
        1
176
     1
 90
        6
176
     1
 90
        2
176
     1
 62
     7
176
     1
 90
        3
176
     1
 90
        0
176
     1
 90
        0
176
     1
290
     0
176
     1
 90
        1
176
     1
 40
0.0
176
     1
 90
        0
176
     1
290
     0
176
     1
290
     1
176
     1
290
     1
176
     1
290
     0
176
     1
290
     0
176
     1
290
     0
176
     1
290
     0
176
     1
290
     0
176
     1
290
     0
176
     1
 90
       50
176
     1
 40
0.0
176
     1
 40
1.0
176
     1
 90
        0
176
     1
 62
    18
420
        0
176
     1
 90
       50
176
     1
 90
        3
176
     1
 62
     5
420
      255
176
     1
290
     0
176
     1
 90
       50
176
     1
 90
       50
176
     1
 90
       50
176
     1
290
     0
176
     1
 90
       50
176
     1
 62
   256
176
     0
 40
1.0
176
     0
 90
        0
176
     1
  1
strokes_ogs.tif
176
     1
290
     0
176
     1
 40
1.0
176
     1
 40
1.0
176
     1
  0
VISUALSTYLE
  5
13D
102
{ACAD_REACTORS
330
109
102
}
330
109
100
AcDbVisualStyle
  2
X-Ray
 70
    25
177
     3
291
     0
 70
    58
 90
        2
176
     1
 90
        2
176
     1
 90
        1
176
     1
 90
        1
176
     1
 40
0.5
176
     1
 40
30.0
176
     1
 62
     7
176
     1
 90
        1
176
     1
 90
        0
176
     1
 62
     7
176
     1
 62
   257
176
     1
 90
        1
176
     1
 90
        1
176
     1
 40
1.0
176
     1
 90
        8
176
     1
 62
     7
176
     1
 40
1.0
176
     1
 90
        1
176
     1
 90
        6
176
     1
 90
        2
176
     1
 62
     7
176
     1
 90
        3
176
     1
 90
        0
176
     1
 90
        0
176
     1
290
     0
176
     1
 90
       13
176
     1
 40
0.0
176
     1
 90
        0
176
     1
290
     0
176
     1
290
     1
176
     1
290
     1
176
     1
290
     0
176
     1
290
     0
176
     1
290
     0
176
     1
290
     0
176
     1
290
     0
176
     1
290
     0
176
     1
 90
       50
176
     1
 40
0.0
176
     1
 40
1.0
176
     1
 90
        0
176
     1
 62
    18
420
        0
176
     1
 90
       50
176
     1
 90
        3
176
     1
 62
     5
420
      255
176
     1
290
     0
176
     1
 90
       50
176
     1
 90
       50
176
     1
 90
       50
176
     1
290
     0
176
     1
 90
       50
176
     1
 62
   256
176
     0
 40
1.0
176
     0
 90
        0
176
     1
  1
strokes_ogs.tif
176
     1
290
     0
176
     1
 40
1.0
176
     1
 40
1.0
176
     1
  0
DICTIONARYVAR
  5
DA
102
{ACAD_REACTORS
330
59
102
}
330
59
100
DictionaryVariables
280
     0
  1
STANDARD
  0
DICTIONARYVAR
  5
98
102
{ACAD_REACTORS
330
59
102
}
330
59
100
DictionaryVariables
280
     0
  1
STANDARD
  0
DICTIONARYVAR
  5
1AD
102
{ACAD_REACTORS
330
59
102
}
330
59
100
DictionaryVariables
280
     0
  1
Imperial24
  0
DICTIONARYVAR
  5
1AE
102
{ACAD_REACTORS
330
59
102
}
330
59
100
DictionaryVariables
280
     0
  1
Imperial24
  0
DICTIONARYVAR
  5
9A
102
{ACAD_REACTORS
330
59
102
}
330
59
100
DictionaryVariables
280
     0
  1
2
  0
DICTIONARYVAR
  5
5E
102
{ACAD_REACTORS
330
59
102
}
330
59
100
DictionaryVariables
280
     0
  1
1
  0
DICTIONARYVAR
  5
D0
102
{ACAD_REACTORS
330
59
102
}
330
59
100
DictionaryVariables
280
     0
  1
2
  0
ENDSEC
  0
SECTION
  2
ACDSDATA
 70
     2
 71
     2
  0
ACDSSCHEMA
 90
        0
  1
AcDb3DSolid_ASM_Data
  2
AcDbDs::ID
280
    10
 91
        0
  2
ASM_Data
280
    15
 91
        0
101
ACDSRECORD
 95
        0
 90
        1
  2
AcDbDs::TreatedAsObjectData
280
     1
291
     1
101
ACDSRECORD
 95
        0
 90
        2
  2
AcDbDs::Legacy
280
     1
291
     1
101
ACDSRECORD
  1
AcDbDs::ID
 90
        3
  2
AcDs:Indexable
280
     1
291
     1
101
ACDSRECORD
  1
AcDbDs::ID
 90
        4
  2
AcDbDs::HandleAttribute
280
     7
282
     1
  0
ACDSSCHEMA
 90
        1
  1
AcDbDs::TreatedAsObjectDataSchema
  2
AcDbDs::TreatedAsObjectData
280
     1
 91
        0
  0
ACDSSCHEMA
 90
        2
  1
AcDbDs::LegacySchema
  2
AcDbDs::Legacy
280
     1
 91
        0
  0
ACDSSCHEMA
 90
        3
  1
AcDbDs::IndexedPropertySchema
  2
AcDs:Indexable
280
     1
 91
        0
  0
ACDSSCHEMA
 90
        4
  1
AcDbDs::HandleAttributeSchema
  2
AcDbDs::HandleAttribute
280
     7
 91
        8
  0
ENDSEC
  0
EOF
