  0
SECTION
  2
HEADER
  9
$ACADVER
  1
AC1032
  9
$ACADMAINTVER
 90
        4
  9
$DWGCODEPAGE
  3
ANSI_936
  9
$REQUIREDVERSIONS
160
                 0
  9
$INSBASE
 10
0.0
 20
0.0
 30
0.0
  9
$EXTMIN
 10
-125.0
 20
-125.0
 30
-0.0000000041892671
  9
$EXTMAX
 10
10536.0
 20
8749.500000000002
 30
348.0
  9
$LIMMIN
 10
0.0
 20
0.0
  9
$LIMMAX
 10
420.0
 20
297.0
  9
$ORTHOMODE
 70
     0
  9
$REGENMODE
 70
     1
  9
$FILLMODE
 70
     1
  9
$QTEXTMODE
 70
     0
  9
$MIRRTEXT
 70
     1
  9
$LTSCALE
 40
1.0
  9
$ATTMODE
 70
     1
  9
$TEXTSIZE
 40
2.5
  9
$TRACEWID
 40
1.0
  9
$TEXTSTYLE
  7
Standard
  9
$CLAYER
  8
0
  9
$CELTYPE
  6
ByLayer
  9
$CECOLOR
 62
   256
  9
$CELTSCALE
 40
1.0
  9
$DISPSILH
 70
     0
  9
$DIMSCALE
 40
1.0
  9
$DIMASZ
 40
2.5
  9
$DIMEXO
 40
0.625
  9
$DIMDLI
 40
3.75
  9
$DIMRND
 40
0.0
  9
$DIMDLE
 40
0.0
  9
$DIMEXE
 40
1.25
  9
$DIMTP
 40
0.0
  9
$DIMTM
 40
0.0
  9
$DIMTXT
 40
2.5
  9
$DIMCEN
 40
2.5
  9
$DIMTSZ
 40
0.0
  9
$DIMTOL
 70
     0
  9
$DIMLIM
 70
     0
  9
$DIMTIH
 70
     0
  9
$DIMTOH
 70
     0
  9
$DIMSE1
 70
     0
  9
$DIMSE2
 70
     0
  9
$DIMTAD
 70
     1
  9
$DIMZIN
 70
     8
  9
$DIMBLK
  1

  9
$DIMASO
 70
     1
  9
$DIMSHO
 70
     1
  9
$DIMPOST
  1

  9
$DIMAPOST
  1

  9
$DIMALT
 70
     0
  9
$DIMALTD
 70
     3
  9
$DIMALTF
 40
0.03937007874
  9
$DIMLFAC
 40
1.0
  9
$DIMTOFL
 70
     1
  9
$DIMTVP
 40
0.0
  9
$DIMTIX
 70
     0
  9
$DIMSOXD
 70
     0
  9
$DIMSAH
 70
     0
  9
$DIMBLK1
  1

  9
$DIMBLK2
  1

  9
$DIMSTYLE
  2
Standard
  9
$DIMCLRD
 70
     0
  9
$DIMCLRE
 70
     0
  9
$DIMCLRT
 70
     0
  9
$DIMTFAC
 40
1.0
  9
$DIMGAP
 40
0.625
  9
$DIMJUST
 70
     0
  9
$DIMSD1
 70
     0
  9
$DIMSD2
 70
     0
  9
$DIMTOLJ
 70
     0
  9
$DIMTZIN
 70
     8
  9
$DIMALTZ
 70
     0
  9
$DIMALTTZ
 70
     0
  9
$DIMUPT
 70
     0
  9
$DIMDEC
 70
     2
  9
$DIMTDEC
 70
     2
  9
$DIMALTU
 70
     2
  9
$DIMALTTD
 70
     3
  9
$DIMTXSTY
  7
Standard
  9
$DIMAUNIT
 70
     0
  9
$DIMADEC
 70
     0
  9
$DIMALTRND
 40
0.0
  9
$DIMAZIN
 70
     0
  9
$DIMDSEP
 70
    44
  9
$DIMATFIT
 70
     3
  9
$DIMFRAC
 70
     0
  9
$DIMLDRBLK
  1

  9
$DIMLUNIT
 70
     2
  9
$DIMLWD
 70
    -2
  9
$DIMLWE
 70
    -2
  9
$DIMTMOVE
 70
     0
  9
$DIMFXL
 40
1.0
  9
$DIMFXLON
 70
     0
  9
$DIMJOGANG
 40
0.7853981633974483
  9
$DIMTFILL
 70
     0
  9
$DIMTFILLCLR
 70
     0
  9
$DIMARCSYM
 70
     0
  9
$DIMLTYPE
  6

  9
$DIMLTEX1
  6

  9
$DIMLTEX2
  6

  9
$DIMTXTDIRECTION
 70
     0
  9
$LUNITS
 70
     2
  9
$LUPREC
 70
     4
  9
$SKETCHINC
 40
1.0
  9
$FILLETRAD
 40
10.0
  9
$AUNITS
 70
     0
  9
$AUPREC
 70
     2
  9
$MENU
  1
.
  9
$ELEVATION
 40
0.0
  9
$PELEVATION
 40
0.0
  9
$THICKNESS
 40
0.0
  9
$LIMCHECK
 70
     0
  9
$CHAMFERA
 40
0.0
  9
$CHAMFERB
 40
0.0
  9
$CHAMFERC
 40
0.0
  9
$CHAMFERD
 40
0.0
  9
$SKPOLY
 70
     0
  9
$TDCREATE
 40
2458532.487330231
  9
$TDUCREATE
 40
2458532.153996898
  9
$TDUPDATE
 40
2460628.460136956
  9
$TDUUPDATE
 40
2460628.126803623
  9
$TDINDWG
 40
0.024796713
  9
$TDUSRTIMER
 40
0.024796435
  9
$USRTIMER
 70
     1
  9
$ANGBASE
 50
0.0
  9
$ANGDIR
 70
     0
  9
$PDMODE
 70
     0
  9
$PDSIZE
 40
0.0
  9
$PLINEWID
 40
0.0
  9
$SPLFRAME
 70
     0
  9
$SPLINETYPE
 70
     6
  9
$SPLINESEGS
 70
     8
  9
$HANDSEED
  5
CDD
  9
$SURFTAB1
 70
     6
  9
$SURFTAB2
 70
     6
  9
$SURFTYPE
 70
     6
  9
$SURFU
 70
     6
  9
$SURFV
 70
     6
  9
$UCSBASE
  2

  9
$UCSNAME
  2

  9
$UCSORG
 10
0.0
 20
0.0
 30
0.0
  9
$UCSXDIR
 10
1.0
 20
0.0
 30
0.0
  9
$UCSYDIR
 10
0.0
 20
1.0
 30
0.0
  9
$UCSORTHOREF
  2

  9
$UCSORTHOVIEW
 70
     0
  9
$UCSORGTOP
 10
0.0
 20
0.0
 30
0.0
  9
$UCSORGBOTTOM
 10
0.0
 20
0.0
 30
0.0
  9
$UCSORGLEFT
 10
0.0
 20
0.0
 30
0.0
  9
$UCSORGRIGHT
 10
0.0
 20
0.0
 30
0.0
  9
$UCSORGFRONT
 10
0.0
 20
0.0
 30
0.0
  9
$UCSORGBACK
 10
0.0
 20
0.0
 30
0.0
  9
$PUCSBASE
  2

  9
$PUCSNAME
  2

  9
$PUCSORG
 10
0.0
 20
0.0
 30
0.0
  9
$PUCSXDIR
 10
1.0
 20
0.0
 30
0.0
  9
$PUCSYDIR
 10
0.0
 20
1.0
 30
0.0
  9
$PUCSORTHOREF
  2

  9
$PUCSORTHOVIEW
 70
     0
  9
$PUCSORGTOP
 10
0.0
 20
0.0
 30
0.0
  9
$PUCSORGBOTTOM
 10
0.0
 20
0.0
 30
0.0
  9
$PUCSORGLEFT
 10
0.0
 20
0.0
 30
0.0
  9
$PUCSORGRIGHT
 10
0.0
 20
0.0
 30
0.0
  9
$PUCSORGFRONT
 10
0.0
 20
0.0
 30
0.0
  9
$PUCSORGBACK
 10
0.0
 20
0.0
 30
0.0
  9
$USERI1
 70
     0
  9
$USERI2
 70
     0
  9
$USERI3
 70
     0
  9
$USERI4
 70
     0
  9
$USERI5
 70
     0
  9
$USERR1
 40
0.0
  9
$USERR2
 40
0.0
  9
$USERR3
 40
0.0
  9
$USERR4
 40
0.0
  9
$USERR5
 40
0.0
  9
$WORLDVIEW
 70
     1
  9
$SHADEDGE
 70
     3
  9
$SHADEDIF
 70
    70
  9
$TILEMODE
 70
     1
  9
$MAXACTVP
 70
    64
  9
$PINSBASE
 10
0.0
 20
0.0
 30
0.0
  9
$PLIMCHECK
 70
     0
  9
$PEXTMIN
 10
1.000000000000000E+20
 20
1.000000000000000E+20
 30
1.000000000000000E+20
  9
$PEXTMAX
 10
-1.000000000000000E+20
 20
-1.000000000000000E+20
 30
-1.000000000000000E+20
  9
$PLIMMIN
 10
0.0
 20
0.0
  9
$PLIMMAX
 10
420.0
 20
297.0
  9
$UNITMODE
 70
     0
  9
$VISRETAIN
 70
     1
  9
$PLINEGEN
 70
     0
  9
$PSLTSCALE
 70
     1
  9
$TREEDEPTH
 70
  3020
  9
$CMLSTYLE
  2
Standard
  9
$CMLJUST
 70
     0
  9
$CMLSCALE
 40
20.0
  9
$PROXYGRAPHICS
 70
     1
  9
$MEASUREMENT
 70
     1
  9
$CELWEIGHT
370
    -1
  9
$ENDCAPS
280
     0
  9
$JOINSTYLE
280
     0
  9
$LWDISPLAY
290
     0
  9
$INSUNITS
 70
     6
  9
$HYPERLINKBASE
  1

  9
$STYLESHEET
  1

  9
$XEDIT
290
     1
  9
$CEPSNTYPE
380
     0
  9
$PSTYLEMODE
290
     1
  9
$FINGERPRINTGUID
  2
{C3EF03AC-AD9B-4C7F-A14B-7221197E6EDD}
  9
$VERSIONGUID
  2
{6AAE798D-033C-4DA0-A50B-68F0715950E2}
  9
$EXTNAMES
290
     1
  9
$PSVPSCALE
 40
0.0
  9
$OLESTARTUP
290
     0
  9
$SORTENTS
280
   127
  9
$INDEXCTL
280
     0
  9
$HIDETEXT
280
     1
  9
$XCLIPFRAME
280
     2
  9
$HALOGAP
280
     0
  9
$OBSCOLOR
 70
   257
  9
$OBSLTYPE
280
     0
  9
$INTERSECTIONDISPLAY
280
     0
  9
$INTERSECTIONCOLOR
 70
   257
  9
$DIMASSOC
280
     1
  9
$PROJECTNAME
  1

  9
$CAMERADISPLAY
290
     0
  9
$LENSLENGTH
 40
50.0
  9
$CAMERAHEIGHT
 40
0.0
  9
$STEPSPERSEC
 40
2.0
  9
$STEPSIZE
 40
6.0
  9
$3DDWFPREC
 40
2.0
  9
$PSOLWIDTH
 40
0.25
  9
$PSOLHEIGHT
 40
4.0
  9
$LOFTANG1
 40
1.570796326794896
  9
$LOFTANG2
 40
1.570796326794896
  9
$LOFTMAG1
 40
0.0
  9
$LOFTMAG2
 40
0.0
  9
$LOFTPARAM
 70
     7
  9
$LOFTNORMALS
280
     1
  9
$LATITUDE
 40
0.0
  9
$LONGITUDE
 40
0.0
  9
$NORTHDIRECTION
 40
0.0
  9
$TIMEZONE
 70
 -8000
  9
$LIGHTGLYPHDISPLAY
280
     1
  9
$TILEMODELIGHTSYNCH
280
     1
  9
$SOLIDHIST
280
     1
  9
$SHOWHIST
280
     1
  9
$DWFFRAME
280
     2
  9
$DGNFRAME
280
     0
  9
$REALWORLDSCALE
290
     1
  9
$INTERFERECOLOR
 62
     1
  9
$CSHADOW
280
     0
  9
$SHADOWPLANELOCATION
 40
0.0
  0
ENDSEC
  0
SECTION
  2
CLASSES
  0
CLASS
  1
ACDBDICTIONARYWDFLT
  2
AcDbDictionaryWithDefault
  3
ObjectDBX Classes
 90
        0
 91
        1
280
     0
281
     0
  0
CLASS
  1
SUN
  2
AcDbSun
  3
SCENEOE
 90
     1153
 91
        0
280
     0
281
     0
  0
CLASS
  1
VISUALSTYLE
  2
AcDbVisualStyle
  3
ObjectDBX Classes
 90
     4095
 91
       48
280
     0
281
     0
  0
CLASS
  1
MATERIAL
  2
AcDbMaterial
  3
ObjectDBX Classes
 90
     1153
 91
        6
280
     0
281
     0
  0
CLASS
  1
SCALE
  2
AcDbScale
  3
ObjectDBX Classes
 90
     1153
 91
        0
280
     0
281
     0
  0
CLASS
  1
TABLESTYLE
  2
AcDbTableStyle
  3
ObjectDBX Classes
 90
     4095
 91
        2
280
     0
281
     0
  0
CLASS
  1
MLEADERSTYLE
  2
AcDbMLeaderStyle
  3
ACDB_MLEADERSTYLE_CLASS
 90
     4095
 91
        2
280
     0
281
     0
  0
CLASS
  1
DICTIONARYVAR
  2
AcDbDictionaryVar
  3
ObjectDBX Classes
 90
        0
 91
        6
280
     0
281
     0
  0
CLASS
  1
CELLSTYLEMAP
  2
AcDbCellStyleMap
  3
ObjectDBX Classes
 90
     1152
 91
        0
280
     0
281
     0
  0
CLASS
  1
MENTALRAYRENDERSETTINGS
  2
AcDbMentalRayRenderSettings
  3
SCENEOE
 90
     1024
 91
        0
280
     0
281
     0
  0
CLASS
  1
ACDBDETAILVIEWSTYLE
  2
AcDbDetailViewStyle
  3
ObjectDBX Classes
 90
     1025
 91
        0
280
     0
281
     0
  0
CLASS
  1
ACDBSECTIONVIEWSTYLE
  2
AcDbSectionViewStyle
  3
ObjectDBX Classes
 90
     1025
 91
        0
280
     0
281
     0
  0
CLASS
  1
RASTERVARIABLES
  2
AcDbRasterVariables
  3
ISM
 90
        0
 91
        0
280
     0
281
     0
  0
CLASS
  1
ACDBPLACEHOLDER
  2
AcDbPlaceHolder
  3
ObjectDBX Classes
 90
        0
 91
        0
280
     0
281
     0
  0
CLASS
  1
LAYOUT
  2
AcDbLayout
  3
ObjectDBX Classes
 90
        0
 91
        0
280
     0
281
     0
  0
CLASS
  1
ACDBPLACEHOLDER
  2
AcDbPlaceHolder
  3
ObjectDBX Classes
 90
        0
 91
        0
280
     0
281
     0
  0
CLASS
  1
LAYOUT
  2
AcDbLayout
  3
ObjectDBX Classes
 90
        0
 91
        0
280
     0
281
     0
  0
CLASS
  1
SORTENTSTABLE
  2
AcDbSortentsTable
  3
ObjectDBX Classes
 90
        0
 91
        1
280
     0
281
     0
  0
ENDSEC
  0
SECTION
  2
TABLES
  0
TABLE
  2
VPORT
  5
8
330
0
100
AcDbSymbolTable
 70
     1
  0
VPORT
  5
23
330
8
100
AcDbSymbolTableRecord
100
AcDbViewportTableRecord
  2
*Active
 70
     0
 10
0.0
 20
0.0
 11
1.0
 21
1.0
 12
2037.295600873943
 22
805.5699054582577
 13
0.0
 23
0.0
 14
0.5
 24
0.5
 15
0.5
 25
0.5
 16
0.0
 26
0.0
 36
1.0
 17
0.0
 27
0.0
 37
0.0
 40
2993.597445141521
 41
1.645187601957585
 42
50.0
 43
0.0
 44
0.0
 50
0.0
 51
0.0
 71
     0
 72
  1000
 73
     1
 74
     3
 75
     1
 76
     1
 77
     0
 78
     0
281
     0
 65
     0
110
0.0
120
0.0
130
0.0
111
1.0
121
0.0
131
0.0
112
0.0
122
1.0
132
0.0
 79
     0
146
0.0
348
4E
 60
     3
 61
     5
292
     1
282
     1
141
0.0
142
0.0
 63
   256
  0
ENDTAB
  0
TABLE
  2
LTYPE
  5
2
330
0
100
AcDbSymbolTable
 70
     4
  0
LTYPE
  5
24
330
2
100
AcDbSymbolTableRecord
100
AcDbLinetypeTableRecord
  2
ByBlock
 70
     0
  3

 72
    65
 73
     0
 40
0.0
  0
LTYPE
  5
25
330
2
100
AcDbSymbolTableRecord
100
AcDbLinetypeTableRecord
  2
ByLayer
 70
     0
  3

 72
    65
 73
     0
 40
0.0
  0
LTYPE
  5
26
330
2
100
AcDbSymbolTableRecord
100
AcDbLinetypeTableRecord
  2
Continuous
 70
     0
  3

 72
    65
 73
     0
 40
0.0
  0
LTYPE
  5
A29
330
2
100
AcDbSymbolTableRecord
100
AcDbLinetypeTableRecord
  2
DASH
 70
     0
  3
__ __ __ __ __ __ __ __ __ __ __ __ __ __ __ __
 72
    65
 73
     2
 40
0.35
 49
0.25
 74
     0
 49
-0.1
 74
     0
  0
LTYPE
  5
A2B
330
2
100
AcDbSymbolTableRecord
100
AcDbLinetypeTableRecord
  2
井田边界
 70
     0
  3

 72
    65
 73
     3
 40
500.0
 49
400.0
 74
     0
 49
-50.0
 74
     2
 75
     0
340
29
 46
60.0
 50
0.0
 44
-20.0
 45
-30.0
  9
+
 49
-50.0
 74
     0
  0
LTYPE
  5
A2A
330
2
100
AcDbSymbolTableRecord
100
AcDbLinetypeTableRecord
  2
CENTER
 70
     0
  3
Center ____ _ ____ _ ____ _ ____ _ ____ _ ____
 72
    65
 73
     4
 40
50.8
 49
31.75
 74
     0
 49
-6.349999999999997
 74
     0
 49
6.349999999999997
 74
     0
 49
-6.349999999999997
 74
     0
  0
ENDTAB
  0
TABLE
  2
LAYER
  5
1
102
{ACAD_XDICTIONARY
360
127
102
}
330
0
100
AcDbSymbolTable
 70
     8
  0
LAYER
  5
27
330
1
100
AcDbSymbolTableRecord
100
AcDbLayerTableRecord
  2
0
 70
     0
 62
     7
  6
Continuous
370
    -3
390
13
347
21
348
0
  0
LAYER
  5
28
330
1
100
AcDbSymbolTableRecord
100
AcDbLayerTableRecord
  2
Defpoints
 70
     0
 62
     7
  6
Continuous
290
     0
370
    -3
390
13
347
21
348
0
  0
LAYER
  5
64
330
1
100
AcDbSymbolTableRecord
100
AcDbLayerTableRecord
  2
网格线
 70
     0
 62
     7
  6
Continuous
370
    -3
390
13
347
21
348
0
  0
LAYER
  5
C0
102
{ACAD_XDICTIONARY
360
C1
102
}
330
1
100
AcDbSymbolTableRecord
100
AcDbLayerTableRecord
  2
通风系统
 70
     0
 62
     7
  6
Continuous
370
    15
390
13
347
21
348
0
  0
LAYER
  5
BC
102
{ACAD_XDICTIONARY
360
BD
102
}
330
1
100
AcDbSymbolTableRecord
100
AcDbLayerTableRecord
  2
指北针
 70
     0
 62
     7
  6
Continuous
370
    -3
390
13
347
21
348
0
  0
LAYER
  5
2B8
102
{ACAD_XDICTIONARY
360
2B9
102
}
330
1
100
AcDbSymbolTableRecord
100
AcDbLayerTableRecord
  2
经纬网
 70
     0
 62
     7
  6
Continuous
370
    -3
390
13
347
21
348
0
  0
LAYER
  5
A23
330
1
100
AcDbSymbolTableRecord
100
AcDbLayerTableRecord
  2
图例及图签
 70
     0
 62
     7
  6
Continuous
370
    -3
390
13
347
21
348
0
1001
AcAecLayerStandard
1000

1000

  0
LAYER
  5
CAA
102
{ACAD_XDICTIONARY
360
CAB
102
}
330
1
100
AcDbSymbolTableRecord
100
AcDbLayerTableRecord
  2
通风-22、52煤通风系统图图签（通风管理部）
 70
     0
 62
     7
  6
Continuous
370
    -3
390
13
347
21
348
0
1001
AcAecLayerStandard
1000

1000

  0
ENDTAB
  0
TABLE
  2
STYLE
  5
5
330
0
100
AcDbSymbolTable
 70
     5
  0
STYLE
  5
29
330
5
100
AcDbSymbolTableRecord
100
AcDbTextStyleTableRecord
  2
Standard
 70
     0
 40
0.0
 41
1.0
 50
0.0
 71
     0
 42
2.5
  3
txt
  4

  0
STYLE
  5
2C4
330
5
100
AcDbSymbolTableRecord
100
AcDbTextStyleTableRecord
  2
经纬网
 70
     0
 40
0.0
 41
1.0
 50
0.0
 71
     0
 42
3.5
  3

  4

1001
ACAD
1000
SimSun
1071
    34306
  0
STYLE
  5
A38
330
5
100
AcDbSymbolTableRecord
100
AcDbTextStyleTableRecord
  2
HZ
 70
     0
 40
0.0
 41
1.0
 50
0.0
 71
     0
 42
3.799999999999998
  3

  4

1001
ACAD
1000
SimSun
1071
    34306
  0
STYLE
  5
A39
330
5
100
AcDbSymbolTableRecord
100
AcDbTextStyleTableRecord
  2
样式 3
 70
     0
 40
10.0
 41
1.0
 50
0.0
 71
     0
 42
10.0
  3

  4

1001
ACAD
1000
SimSun
1071
    34306
  0
STYLE
  5
A37
330
5
100
AcDbSymbolTableRecord
100
AcDbTextStyleTableRecord
  2
宋体
 70
     0
 40
0.0
 41
0.618
 50
0.0
 71
     0
 42
3.5
  3

  4

1001
ACAD
1000
SimSun
1071
    34306
  0
ENDTAB
  0
TABLE
  2
VIEW
  5
7
330
0
100
AcDbSymbolTable
 70
     0
  0
ENDTAB
  0
TABLE
  2
UCS
  5
6
330
0
100
AcDbSymbolTable
 70
     0
  0
ENDTAB
  0
TABLE
  2
APPID
  5
3
330
0
100
AcDbSymbolTable
 70
    15
  0
APPID
  5
2A
330
3
100
AcDbSymbolTableRecord
100
AcDbRegAppTableRecord
  2
ACAD
 70
     0
  0
APPID
  5
47
330
3
100
AcDbSymbolTableRecord
100
AcDbRegAppTableRecord
  2
HATCHBACKGROUNDCOLOR
 70
     0
  0
APPID
  5
48
330
3
100
AcDbSymbolTableRecord
100
AcDbRegAppTableRecord
  2
EZDXF
 70
     0
  0
APPID
  5
76
330
3
100
AcDbSymbolTableRecord
100
AcDbRegAppTableRecord
  2
ACAD_MLEADERVER
 70
     0
  0
APPID
  5
C5
330
3
100
AcDbSymbolTableRecord
100
AcDbRegAppTableRecord
  2
AcadAnnotative
 70
     0
  0
APPID
  5
C6
330
3
100
AcDbSymbolTableRecord
100
AcDbRegAppTableRecord
  2
ACAD_PSEXT
 70
     0
  0
APPID
  5
C7
330
3
100
AcDbSymbolTableRecord
100
AcDbRegAppTableRecord
  2
AcLayerTools
 70
     0
  0
APPID
  5
C8
330
3
100
AcDbSymbolTableRecord
100
AcDbRegAppTableRecord
  2
ACAD_NAV_VCDISPLAY
 70
     0
  0
APPID
  5
2BF
330
3
100
AcDbSymbolTableRecord
100
AcDbRegAppTableRecord
  2
ACAD_DSTYLE_DIMBREAK
 70
     0
  0
APPID
  5
2C1
330
3
100
AcDbSymbolTableRecord
100
AcDbRegAppTableRecord
  2
ACAD_DSTYLE_DIMJAG
 70
     0
  0
APPID
  5
2C2
330
3
100
AcDbSymbolTableRecord
100
AcDbRegAppTableRecord
  2
ACAD_DSTYLE_DIMTALN
 70
     0
  0
APPID
  5
A25
330
3
100
AcDbSymbolTableRecord
100
AcDbRegAppTableRecord
  2
AcAecLayerStandard
 70
     0
  0
APPID
  5
A35
330
3
100
AcDbSymbolTableRecord
100
AcDbRegAppTableRecord
  2
ZWMCAD_GENSCA_13_
 70
     0
  0
APPID
  5
A36
330
3
100
AcDbSymbolTableRecord
100
AcDbRegAppTableRecord
  2
ZWMCAD_GENSTANDARDFRAME_13_
 70
     0
  0
APPID
  5
A34
330
3
100
AcDbSymbolTableRecord
100
AcDbRegAppTableRecord
  2
AcDbBlockRepETag
 70
     0
  0
ENDTAB
  0
TABLE
  2
DIMSTYLE
  5
4
330
0
100
AcDbSymbolTable
 70
     2
100
AcDbDimStyleTable
 71
     0
  0
DIMSTYLE
105
2B
330
4
100
AcDbSymbolTableRecord
100
AcDbDimStyleTableRecord
  2
Standard
 70
     0
 41
2.5
 42
0.625
 43
3.75
 44
1.25
 73
     0
 74
     0
 77
     1
 78
     8
 79
     3
140
2.5
141
2.5
143
0.03937007874
147
0.625
171
     3
172
     1
179
     2
271
     2
272
     2
274
     3
278
    44
283
     0
284
     8
340
0
  0
DIMSTYLE
105
2BE
330
4
100
AcDbSymbolTableRecord
100
AcDbDimStyleTableRecord
  2
Annotative
 70
     0
340
29
1001
ACAD_DSTYLE_DIMBREAK
1070
   391
1040
0.125
1001
AcadAnnotative
1000
AnnotativeData
1002
{
1070
     1
1070
     1
1002
}
1001
ACAD_DSTYLE_DIMJAG
1070
   388
1040
1.5
1001
ACAD_DSTYLE_DIMTALN
1070
   392
1070
     0
  0
ENDTAB
  0
TABLE
  2
BLOCK_RECORD
  5
9
330
0
100
AcDbSymbolTable
 70
     2
  0
BLOCK_RECORD
  5
17
102
{ACAD_XDICTIONARY
360
C8E
102
}
330
9
100
AcDbSymbolTableRecord
100
AcDbBlockTableRecord
  2
*MODEL_SPACE
340
1A
 70
     0
280
     1
281
     0
  0
BLOCK_RECORD
  5
1B
330
9
100
AcDbSymbolTableRecord
100
AcDbBlockTableRecord
  2
*PAPER_SPACE
340
1E
 70
     0
280
     1
281
     0
  0
BLOCK_RECORD
  5
EC
330
9
100
AcDbSymbolTableRecord
100
AcDbBlockTableRecord
  2
W指北针
340
0
102
{BLKREFS
331
EA
331
12A
331
275
331
2B3
102
}
 70
     4
280
     1
281
     0
1001
ACAD
1000
DesignCenter Data
1002
{
1070
     1
1070
     4
1002
}
  0
ENDTAB
  0
ENDSEC
  0
SECTION
  2
BLOCKS
  0
BLOCK
  5
18
330
17
100
AcDbEntity
  8
0
100
AcDbBlockBegin
  2
*MODEL_SPACE
 70
     0
 10
0.0
 20
0.0
 30
0.0
  3
*MODEL_SPACE
  1

  0
ENDBLK
  5
19
330
17
100
AcDbEntity
  8
0
100
AcDbBlockEnd
  0
BLOCK
  5
1C
330
1B
100
AcDbEntity
 67
     1
  8
0
100
AcDbBlockBegin
  2
*PAPER_SPACE
 70
     0
 10
0.0
 20
0.0
 30
0.0
  3
*PAPER_SPACE
  1

  0
ENDBLK
  5
1D
330
1B
100
AcDbEntity
 67
     1
  8
0
100
AcDbBlockEnd
  0
BLOCK
  5
ED
330
EC
100
AcDbEntity
  8
0
 48
5.0
100
AcDbBlockBegin
  2
W指北针
 70
     0
 10
0.0
 20
0.0
 30
0.0
  3
W指北针
  1

  0
LWPOLYLINE
  5
EE
330
EC
100
AcDbEntity
  8
0
100
AcDbPolyline
 90
        2
 70
     0
 43
0.15
 10
-3.862818884282318
 20
11.36127766878485
 42
6.047727933567202
 10
3.862818884282205
 20
11.36127766878485
  0
LWPOLYLINE
  5
EF
330
EC
100
AcDbEntity
  8
0
100
AcDbPolyline
 90
        2
 70
     0
 43
0.15
 10
-3.647035091119163
 20
13.51662439531935
 42
7.544929979512558
 10
3.647035091119049
 20
13.51662439531935
  0
LWPOLYLINE
  5
F0
330
EC
100
AcDbEntity
  8
0
100
AcDbPolyline
 90
        2
 70
     0
 43
0.15
 10
-0.0000000000001137
 20
49.99999999999993
 10
-6.037496098683504
 20
-10.37496098683317
  0
LWPOLYLINE
  5
F1
330
EC
100
AcDbEntity
  8
0
100
AcDbPolyline
 90
        2
 70
     0
 43
0.15
 10
-0.0000000000001137
 20
49.99999999999993
 10
6.037262627535482
 20
-10.37262627535636
  0
LWPOLYLINE
  5
F2
330
EC
100
AcDbEntity
  8
0
100
AcDbPolyline
 90
        2
 70
     0
 43
0.15
 10
7.999999999999886
 20
-30.00000000000011
 10
3.607200142410191
 20
-13.52700053403913
  0
LWPOLYLINE
  5
F3
330
EC
100
AcDbEntity
  8
0
100
AcDbPolyline
 90
        2
 70
     0
 43
0.15
 10
-3.754322791028243
 20
12.44608614708915
 42
6.777809891014009
 10
3.754322791027901
 20
12.44608614708915
  0
LWPOLYLINE
  5
F4
330
EC
100
AcDbEntity
  8
0
100
AcDbPolyline
 90
        2
 70
     0
 43
0.15
 10
-7.5931986239475
 20
-25.93198623947297
 10
-6.333251837444777
 20
-23.749694390417
  0
LWPOLYLINE
  5
F5
330
EC
100
AcDbEntity
  8
0
100
AcDbPolyline
 90
        2
 70
     0
 43
0.15
 10
-7.351300669152351
 20
-23.51300669152061
 10
-5.342146606697723
 20
-20.03304977511601
  0
LWPOLYLINE
  5
F6
330
EC
100
AcDbEntity
  8
0
100
AcDbPolyline
 90
        2
 70
     0
 43
0.15
 10
-7.109402714356972
 20
-21.09402714356816
 10
-4.351041375950785
 20
-16.3164051598149
  0
LWPOLYLINE
  5
F7
330
EC
100
AcDbEntity
  8
0
100
AcDbPolyline
 90
        2
 70
     0
 43
0.15
 10
-6.867504759561824
 20
-18.67504759561586
 10
-3.855682116276284
 20
-13.45841775405898
  0
LWPOLYLINE
  5
F8
330
EC
100
AcDbEntity
  8
0
100
AcDbPolyline
 90
        2
 70
     0
 43
0.15
 10
-6.625606804766562
 20
-16.25606804766334
 10
-4.827144155376458
 20
-13.14103936340467
  0
LWPOLYLINE
  5
F9
330
EC
100
AcDbEntity
  8
0
100
AcDbPolyline
 90
        2
 70
     0
 43
0.15
 10
-6.383708849971184
 20
-13.837088499711
 10
-5.761297408338463
 20
-12.75904025959073
  0
LWPOLYLINE
  5
FA
330
EC
100
AcDbEntity
  8
0
100
AcDbPolyline
 90
        2
 70
     0
 43
0.15
 10
-5.899912940380771
 20
-8.999129403806193
 10
-0.0000000000001137
 20
1.219819569166133
  0
LWPOLYLINE
  5
FB
330
EC
100
AcDbEntity
  8
0
100
AcDbPolyline
 90
        2
 70
     0
 43
0.15
 10
-4.206627256814157
 20
7.933727431860858
 10
-0.0000000000001137
 20
15.21981956916664
  0
LWPOLYLINE
  5
FC
330
EC
100
AcDbEntity
  8
0
100
AcDbPolyline
 90
        2
 70
     0
 43
0.15
 10
-4.206627256814157
 20
7.933727431860858
 10
-0.0000000000001137
 20
15.21981956916664
  0
LWPOLYLINE
  5
FD
330
EC
100
AcDbEntity
  8
0
100
AcDbPolyline
 90
        2
 70
     0
 43
0.15
 10
-4.448525211609307
 20
5.514747883908341
 10
-0.0000000000001137
 20
13.21981956916653
  0
LWPOLYLINE
  5
FE
330
EC
100
AcDbEntity
  8
0
100
AcDbPolyline
 90
        2
 70
     0
 43
0.15
 10
-4.690423166404683
 20
3.095768335955823
 10
-0.0000000000001137
 20
11.21981956916642
  0
LWPOLYLINE
  5
FF
330
EC
100
AcDbEntity
  8
0
100
AcDbPolyline
 90
        2
 70
     0
 43
0.15
 10
-4.932321121199946
 20
0.6767887880033073
 10
-0.0000000000001137
 20
9.219819569166359
  0
LWPOLYLINE
  5
100
330
EC
100
AcDbEntity
  8
0
100
AcDbPolyline
 90
        2
 70
     0
 43
0.15
 10
-5.658014985585621
 20
-6.580149855853846
 10
-0.0000000000001137
 20
3.219819569166189
  0
LWPOLYLINE
  5
101
330
EC
100
AcDbEntity
  8
0
100
AcDbPolyline
 90
        2
 70
     0
 43
0.15
 10
-2.755239528042693
 20
22.44760471957511
 10
-0.0000000000001137
 20
27.21981956916688
  0
LWPOLYLINE
  5
102
330
EC
100
AcDbEntity
  8
0
100
AcDbPolyline
 90
        2
 70
     0
 43
0.15
 10
-2.755239528042693
 20
22.44760471957511
 10
-0.0000000000001137
 20
27.21981956916688
  0
LWPOLYLINE
  5
103
330
EC
100
AcDbEntity
  8
0
100
AcDbPolyline
 90
        2
 70
     0
 43
0.15
 10
-2.997137482837841
 20
20.02862517162271
 10
-0.0000000000001137
 20
25.21981956916683
  0
LWPOLYLINE
  5
104
330
EC
100
AcDbEntity
  8
0
100
AcDbPolyline
 90
        2
 70
     0
 43
0.15
 10
-3.239035437633106
 20
17.60964562367036
 10
-0.0000000000001137
 20
23.2198195691667
  0
LWPOLYLINE
  5
105
330
EC
100
AcDbEntity
  8
0
100
AcDbPolyline
 90
        2
 70
     0
 43
0.15
 10
-3.480933392428368
 20
15.19066607571796
 10
-0.0000000000001137
 20
21.21981956916676
  0
LWPOLYLINE
  5
106
330
EC
100
AcDbEntity
  8
0
100
AcDbPolyline
 90
        2
 70
     0
 43
0.15
 10
-4.206627256814157
 20
7.933727431860858
 10
-0.0000000000001137
 20
15.21981956916664
  0
LWPOLYLINE
  5
107
330
EC
100
AcDbEntity
  8
0
100
AcDbPolyline
 90
        2
 70
     0
 43
0.15
 10
-1.303851799271227
 20
36.96148200728965
 10
-0.0000000000001137
 20
39.21981956916722
  0
LWPOLYLINE
  5
108
330
EC
100
AcDbEntity
  8
0
100
AcDbPolyline
 90
        2
 70
     0
 43
0.15
 10
-1.303851799271227
 20
36.96148200728965
 10
-0.0000000000001137
 20
39.21981956916722
  0
LWPOLYLINE
  5
109
330
EC
100
AcDbEntity
  8
0
100
AcDbPolyline
 90
        2
 70
     0
 43
0.15
 10
-1.545749754066378
 20
34.54250245933736
 10
-0.0000000000001137
 20
37.21981956916721
  0
LWPOLYLINE
  5
10A
330
EC
100
AcDbEntity
  8
0
100
AcDbPolyline
 90
        2
 70
     0
 43
0.15
 10
-1.78764770886164
 20
32.12352291138478
 10
-0.0000000000001137
 20
35.2198195691671
  0
LWPOLYLINE
  5
10B
330
EC
100
AcDbEntity
  8
0
100
AcDbPolyline
 90
        2
 70
     0
 43
0.15
 10
-2.029545663656904
 20
29.70454336343249
 10
-0.0000000000001137
 20
33.21981956916705
  0
LWPOLYLINE
  5
10C
330
EC
100
AcDbEntity
  8
0
100
AcDbPolyline
 90
        2
 70
     0
 43
0.15
 10
-2.755239528042693
 20
22.44760471957511
 10
-0.0000000000001137
 20
27.21981956916688
  0
LWPOLYLINE
  5
10D
330
EC
100
AcDbEntity
  8
0
100
AcDbPolyline
 90
        2
 70
     0
 43
0.15
 10
-0.0943620252949131
 20
49.05637974705165
 10
-0.0000000000001137
 20
49.2198195691675
  0
LWPOLYLINE
  5
10E
330
EC
100
AcDbEntity
  8
0
100
AcDbPolyline
 90
        2
 70
     0
 43
0.15
 10
-0.0943620252949131
 20
49.05637974705165
 10
-0.0000000000001137
 20
49.2198195691675
  0
LWPOLYLINE
  5
10F
330
EC
100
AcDbEntity
  8
0
100
AcDbPolyline
 90
        2
 70
     0
 43
0.15
 10
-0.3362599800901762
 20
46.63740019909942
 10
-0.0000000000001137
 20
47.21981956916743
  0
LWPOLYLINE
  5
110
330
EC
100
AcDbEntity
  8
0
100
AcDbPolyline
 90
        2
 70
     0
 43
0.15
 10
-0.578157934885553
 20
44.21842065114691
 10
-0.0000000000001137
 20
45.21981956916738
  0
LWPOLYLINE
  5
111
330
EC
100
AcDbEntity
  8
0
100
AcDbPolyline
 90
        2
 70
     0
 43
0.15
 10
-1.303851799271227
 20
36.96148200728965
 10
-0.0000000000001137
 20
39.21981956916722
  0
LWPOLYLINE
  5
112
330
EC
100
AcDbEntity
  8
0
100
AcDbPolyline
 90
        2
 70
     0
 43
0.15
 10
-8.000000000000111
 20
-30.00000000000011
 10
-3.607260449753424
 20
-13.5272266865748
  0
LWPOLYLINE
  5
113
330
EC
100
AcDbEntity
  8
0
100
AcDbPolyline
 90
        2
 70
     0
 43
0.15
 10
-0.578157934885553
 20
44.21842065114691
 10
-0.0000000000001137
 20
45.21981956916738
  0
LWPOLYLINE
  5
114
330
EC
100
AcDbEntity
  8
0
100
AcDbPolyline
 90
        2
 70
     0
 43
0.15
 10
-3.964729302018895
 20
10.35270697981303
 10
-0.0000000000001137
 20
17.21981956916659
  0
LWPOLYLINE
  5
115
330
EC
100
AcDbEntity
  8
0
100
AcDbPolyline
 90
        2
 70
     0
 43
0.15
 10
-3.722831347223631
 20
12.77168652776544
 10
-0.0000000000001137
 20
19.21981956916664
  0
LWPOLYLINE
  5
116
330
EC
100
AcDbEntity
  8
0
100
AcDbPolyline
 90
        2
 70
     0
 43
0.15
 10
-2.513341573247315
 20
24.86658426752757
 10
-0.0000000000001137
 20
29.21981956916699
  0
LWPOLYLINE
  5
117
330
EC
100
AcDbEntity
  8
0
100
AcDbPolyline
 90
        2
 70
     0
 43
0.15
 10
-2.271443618452166
 20
27.28556381547998
 10
-0.0000000000001137
 20
31.21981956916693
  0
LWPOLYLINE
  5
118
330
EC
100
AcDbEntity
  8
0
100
AcDbPolyline
 90
        2
 70
     0
 43
0.15
 10
-1.06195384447585
 20
39.38046155524217
 10
-0.0000000000001137
 20
41.21981956916733
  0
LWPOLYLINE
  5
119
330
EC
100
AcDbEntity
  8
0
100
AcDbPolyline
 90
        2
 70
     0
 43
0.15
 10
-0.8200558896805887
 20
41.79944110319456
 10
-0.0000000000001137
 20
43.21981956916732
  0
LWPOLYLINE
  5
11A
330
EC
100
AcDbEntity
  8
0
100
AcDbPolyline
 90
        2
 70
     0
 43
0.15
 10
-5.41611703079036
 20
-4.161170307901443
 10
-0.0000000000001137
 20
5.219819569166247
  0
LWPOLYLINE
  5
11B
330
EC
100
AcDbEntity
  8
0
100
AcDbPolyline
 90
        2
 70
     0
 43
0.15
 10
-5.174219075994983
 20
-1.742190759948982
 10
-0.0000000000001137
 20
7.219819569166361
  0
LWPOLYLINE
  5
11C
330
EC
100
AcDbEntity
  8
0
100
AcDbPolyline
 90
        2
 70
     0
 43
0.15
 10
-7.83509657874265
 20
-28.3509657874252
 10
-7.324357068191602
 20
-27.466339005718
  0
LWPOLYLINE
  5
11D
330
EC
100
AcDbEntity
  8
0
100
AcDbPolyline
 90
        2
 70
     0
 43
0.15
 10
-0.0000000000001137
 20
49.99999999999993
 10
-0.0000000000001137
 20
-0.0000000000001137
  0
LWPOLYLINE
  5
11E
330
EC
100
AcDbEntity
  8
0
100
AcDbPolyline
 90
        2
 70
     0
 43
0.15
 10
6.252560853631962
 20
-12.5256085363203
 10
7.999999999999886
 20
-30.00000000000011
  0
LWPOLYLINE
  5
11F
330
EC
100
AcDbEntity
  8
0
100
AcDbPolyline
 90
        2
 70
     0
 43
0.15
 10
3.092688124448045
 20
-11.59758046668065
 10
-0.0000000000001137
 20
-0.0000000000001137
  0
LWPOLYLINE
  5
120
330
EC
100
AcDbEntity
  8
0
100
AcDbPolyline
 90
        2
 70
     0
 43
0.15
 10
-3.092522960542509
 20
-11.59696110203424
 10
-0.0000000000001137
 20
-0.0000000000001137
  0
LWPOLYLINE
  5
121
330
EC
100
AcDbEntity
  8
0
100
AcDbPolyline
 90
        2
 70
     0
 43
0.15
 10
-3.811034923210513
 20
-11.38108654725357
 10
-2.368830914457021
 20
-8.88311592921292
  0
LWPOLYLINE
  5
122
330
EC
100
AcDbEntity
  8
0
100
AcDbPolyline
 90
        2
 70
     0
 43
0.15
 10
-4.757256763605254
 20
-11.01999085004883
 10
-1.377725683709968
 20
-5.166471313911813
  0
LWPOLYLINE
  5
123
330
EC
100
AcDbEntity
  8
0
100
AcDbPolyline
 90
        2
 70
     0
 43
0.15
 10
-5.66060495321949
 20
-10.58463581138602
 10
-0.3866204529631432
 20
-1.44982669861082
  0
LWPOLYLINE
  5
124
330
EC
100
AcDbEntity
  8
0
100
AcDbPolyline
 90
        2
 70
     0
 43
0.15
 10
-6.252563350258014
 20
-12.52563350258003
 10
-8.000000000000111
 20
-30.00000000000063
  0
HATCH
  5
125
330
EC
100
AcDbEntity
  8
0
100
AcDbHatch
 10
0.0
 20
0.0
 30
0.0
210
0.0
220
0.0
230
1.0
  2
SOLID
 70
     1
 71
     0
 91
        1
 92
       19
 72
     0
 73
     1
 93
      660
 10
-3.648416660341466
 20
13.51626314675127
 10
-3.858944468946333
 20
13.45787861821799
 10
-4.093225353626848
 20
13.38848145856406
 10
-4.326259408757663
 20
13.3150061032137
 10
-4.557975649908597
 20
13.23747493347196
 10
-4.78830349406769
 20
13.15591156608423
 10
-5.017172781142561
 20
13.07034084604231
 10
-5.244513795331271
 20
12.98078883901655
 10
-5.470257286358218
 20
12.88728282341566
 10
-5.69433449056953
 20
12.78985128207796
 10
-5.916677151878161
 20
12.6885238935946
 10
-6.137217542555504
 20
12.58333152326986
 10
-6.355888483862031
 20
12.47430621371865
 10
-6.572623366510923
 20
12.36148117510652
 10
-6.787356170957082
 20
12.24489077503307
 10
-7.000021487508321
 20
12.12457052806366
 10
-7.210554536249105
 20
12.00055708491112
 10
-7.418891186773179
 20
11.87288822127146
 10
-7.624967977718711
 20
11.74160282631743
 10
-7.828722136098917
 20
11.60674089085205
 10
-8.030091596423174
 20
11.46834349512738
 10
-8.229015019602911
 20
11.32645279633078
 10
-8.425431811637054
 20
11.18111201574362
 10
-8.619282142067616
 20
11.03236542557562
 10
-8.810506962206089
 20
10.88025833547914
 10
-8.999048023119939
 20
10.72483707874721
 10
-9.18484789337549
 20
10.56614899820033
 10
-9.367849976532395
 20
10.40424243176505
 10
-9.547998528383343
 20
10.23916669774991
 10
-9.725238673934427
 20
10.07097207982264
 10
-9.899516424120065
 20
9.899709811693183
 10
-10.07077869224952
 20
9.725432061507431
 10
-10.23897331017679
 20
9.548191915956461
 10
-10.40404904419188
 20
9.368043364105515
 10
-10.56595561062727
 20
9.185041280948608
 10
-10.72464369117415
 20
8.999241410693118
 10
-10.88006494790602
 20
8.81070034977921
 10
-11.0321720380025
 20
8.619475529640737
 10
-11.1809186281705
 20
8.42562519921023
 10
-11.32625940875766
 20
8.229208407176143
 10
-11.46815010755426
 20
8.030284983996182
 10
-11.60654750327899
 20
7.828915523671979
 10
-11.74140943874431
 20
7.625161365291887
 10
-11.87269483369834
 20
7.419084574346356
 10
-12.00036369733811
 20
7.210747923822282
 10
-12.12437714049054
 20
7.000214875081495
 10
-12.24469738745995
 20
6.787549558530257
 10
-12.36128778753345
 20
6.572816754083987
 10
-12.47411282614553
 20
6.356081871435151
 10
-12.58313813569668
 20
6.137410930128622
 10
-12.68833050602154
 20
5.916870539451281
 10
-12.78965789450478
 20
5.694527878142763
 10
-12.88708943584265
 20
5.470450673931394
 10
-12.98059545144349
 20
5.244707182904278
 10
-13.07014745846913
 20
5.017366168715738
 10
-13.15571817851116
 20
4.788496881640867
 10
-13.23728154589878
 20
4.558169037481717
 10
-13.31481271564064
 20
4.326452796330784
 10
-13.38828807099094
 20
4.093418741199855
 10
-13.45768523064487
 20
3.859137856519509
 10
-13.5229830555553
 20
3.623681506516845
 10
-13.58416165537233
 20
3.387121413476847
 10
-13.64120239450165
 20
3.149529635895588
 10
-13.69408789778163
 20
2.910978546530144
 10
-13.74280205577577
 20
2.671540810353178
 10
-13.78733002967942
 20
2.431289362418566
 10
-13.82765825584033
 20
2.190297385644725
 10
-13.86377444989046
 20
1.94863828852243
 10
-13.89566761048695
 20
1.706385682753534
 10
-13.92332802266435
 20
1.463613360828674
 10
-13.94674726079279
 20
1.220395273548717
 10
-13.96591819114587
 20
0.9768055074993071
 10
-13.98083497407242
 20
0.7329182624827128
 10
-13.99149306577578
 20
0.4888078289165493
 10
-13.99788921969798
 20
0.2445485652034449
 10
-14.00002148750843
 20
0.0002148750814968
 10
-13.99788921969798
 20
-0.2441188150404514
 10
-13.99149306577578
 20
-0.4883780787534989
 10
-13.98083497407242
 20
-0.7324885123197192
 10
-13.96591819114587
 20
-0.9763757573361999
 10
-13.94674726079279
 20
-1.219965523385724
 10
-13.92332802266435
 20
-1.463183610665679
 10
-13.89566761048695
 20
-1.70595593259054
 10
-13.86377444989046
 20
-1.948208538359438
 10
-13.82765825584033
 20
-2.189867635481731
 10
-13.78733002967942
 20
-2.430859612255516
 10
-13.74280205577577
 20
-2.671111060190127
 10
-13.69408789778163
 20
-2.910548796367095
 10
-13.64120239450165
 20
-3.149099885732595
 10
-13.58416165537233
 20
-3.386691663313853
 10
-13.5229830555553
 20
-3.623251756353738
 10
-13.45768523064487
 20
-3.858708106356459
 10
-13.38828807099094
 20
-4.092988991036803
 10
-13.31481271564064
 20
-4.326023046167732
 10
-13.23728154589878
 20
-4.557739287318668
 10
-13.15571817851116
 20
-4.788067131477816
 10
-13.07014745846913
 20
-5.016936418552688
 10
-12.98059545144349
 20
-5.244277432741228
 10
-12.88708943584265
 20
-5.470020923768287
 10
-12.78965789450478
 20
-5.694098127979713
 10
-12.68833050602154
 20
-5.916440789288286
 10
-12.58313813569668
 20
-6.136981179965572
 10
-12.47411282614553
 20
-6.355652121272157
 10
-12.36128778753345
 20
-6.572387003920994
 10
-12.24469738745995
 20
-6.787119808367206
 10
-12.12437714049054
 20
-6.999785124918502
 10
-12.00036369733811
 20
-7.210318173659231
 10
-11.87269483369834
 20
-7.418654824183362
 10
-11.74140943874431
 20
-7.624731615128894
 10
-11.60654750327899
 20
-7.828485773508987
 10
-11.46815010755426
 20
-8.02985523383313
 10
-11.32625940875766
 20
-8.228778657013092
 10
-11.1809186281705
 20
-8.425195449047178
 10
-11.0321720380025
 20
-8.619045779477687
 10
-10.88006494790602
 20
-8.810270599616217
 10
-10.72464369117415
 20
-8.998811660530066
 10
-10.56595561062727
 20
-9.184611530785559
 10
-10.40404904419188
 20
-9.367613613942522
 10
-10.23897331017679
 20
-9.547762165793416
 10
-10.07077869224952
 20
-9.725002311344439
 10
-9.899516424120065
 20
-9.899280061530193
 10
-9.725238673934427
 20
-10.07054232965959
 10
-9.547998528383461
 20
-10.23873694758686
 10
-9.367849976532395
 20
-10.403812681602
 10
-9.18484789337549
 20
-10.56571924803728
 10
-8.999048023119939
 20
-10.72440732858422
 10
-8.810506962206089
 20
-10.87982858531609
 10
-8.619282142067616
 20
-11.03193567541262
 10
-8.425431811637054
 20
-11.18068226558063
 10
-8.229015019602911
 20
-11.32602304616773
 10
-8.030091596423174
 20
-11.46791374496433
 10
-7.828722136098917
 20
-11.60631114068906
 10
-7.624967977718711
 20
-11.74117307615438
 10
-7.418891186773179
 20
-11.87245847110847
 10
-7.210554536249105
 20
-12.00012733474807
 10
-7.000021487508321
 20
-12.1241407779006
 10
-6.787356170957082
 20
-12.24446102487002
 10
-6.572623366510923
 20
-12.36105142494347
 10
-6.355888483862031
 20
-12.4738764635556
 10
-6.137217542555504
 20
-12.58290177310681
 10
-5.916677151878161
 20
-12.68809414343155
 10
-5.69433449056953
 20
-12.78942153191491
 10
-5.470257286358218
 20
-12.88685307325266
 10
-5.244513795331271
 20
-12.9803590888535
 10
-5.017172781142561
 20
-13.06991109587926
 10
-4.788303494067803
 20
-13.15548181592118
 10
-4.557975649908597
 20
-13.23704518330891
 10
-4.326259408757663
 20
-13.31457635305065
 10
-4.093225353626848
 20
-13.38805170840101
 10
-3.858944468946333
 20
-13.45744886805493
 10
-3.623488118943669
 20
-13.52274669296543
 10
-3.386928025903785
 20
-13.58392529278245
 10
-3.14933624832247
 20
-13.64096603191177
 10
-2.910785158957081
 20
-13.69385153519175
 10
-2.671347422779944
 20
-13.74256569318578
 10
-2.431095974845446
 20
-13.78709366708938
 10
-2.190103998071663
 20
-13.8274218932504
 10
-1.94844490094931
 20
-13.86353808730047
 10
-1.70619229518047
 20
-13.89543124789696
 10
-1.463419973255553
 20
-13.9230916600743
 10
-1.220201885975597
 20
-13.94651089820291
 10
-0.9766121199262444
 20
-13.965681828556
 10
-0.7327248749096498
 20
-13.98059861148255
 10
-0.4886144413434296
 20
-13.99125670318585
 10
-0.2443551776303821
 20
-13.99765285710794
 10
-0.0000214875084339
 20
-13.9997851249185
 10
0.2443122026135143
 20
-13.99765285710794
 10
0.4885714663265617
 20
-13.99125670318585
 10
0.732681899892782
 20
-13.98059861148255
 10
0.9765691449092628
 20
-13.965681828556
 10
1.220158910958843
 20
-13.94651089820291
 10
1.4633769982388
 20
-13.9230916600743
 10
1.706149320163603
 20
-13.89543124789696
 10
1.948401925932556
 20
-13.86353808730047
 10
2.190061023054794
 20
-13.8274218932504
 10
2.43105299982858
 20
-13.78709366708938
 10
2.671304447763304
 20
-13.74256569318578
 10
2.910742183940214
 20
-13.69385153519175
 10
3.149293273305714
 20
-13.64096603191177
 10
3.386885050886917
 20
-13.58392529278245
 10
3.623445143926915
 20
-13.52274669296543
 10
3.858901493929578
 20
-13.45744886805493
 10
4.093182378609866
 20
-13.38805170840101
 10
4.326216433740796
 20
-13.31457635305065
 10
4.557932674891731
 20
-13.23704518330891
 10
4.788260519050936
 20
-13.15548181592118
 10
5.017129806125808
 20
-13.06991109587932
 10
5.24447082031429
 20
-12.9803590888535
 10
5.470214311341351
 20
-12.88685307325266
 10
5.694291515552889
 20
-12.78942153191491
 10
5.916634176861407
 20
-12.68809414343155
 10
6.137174567538637
 20
-12.58290177310681
 10
6.355845508845276
 20
-12.4738764635556
 10
6.572580391494057
 20
-12.36105142494347
 10
6.787313195940327
 20
-12.24446102487002
 10
6.999978512491678
 20
-12.1241407779006
 10
7.21051156123235
 20
-12.00012733474807
 10
7.418848211756539
 20
-11.87245847110847
 10
7.62492500270207
 20
-11.74117307615438
 10
7.828679161081936
 20
-11.60631114068911
 10
8.030048621406193
 20
-11.46791374496433
 10
8.228972044586271
 20
-11.32602304616773
 10
8.4253888366203
 20
-11.18068226558063
 10
8.61923916705075
 20
-11.03193567541262
 10
8.810463987189335
 20
-10.87982858531609
 10
8.999005048103185
 20
-10.72440732858422
 10
9.184804918358736
 20
-10.56571924803728
 10
9.367807001515645
 20
-10.403812681602
 10
9.547955553366591
 20
-10.23873694758686
 10
9.725195698917444
 20
-10.07054232965959
 10
9.899473449103313
 20
-9.899280061530193
 10
10.07073571723265
 20
-9.725002311344496
 10
10.23893033515992
 20
-9.547762165793416
 10
10.40400606917512
 20
-9.367613613942522
 10
10.56591263561029
 20
-9.184611530785559
 10
10.72460071615728
 20
-8.998811660530066
 10
10.88002197288925
 20
-8.810270599616217
 10
11.03212906298574
 20
-8.619045779477687
 10
11.18087565315375
 20
-8.425195449047178
 10
11.32621643374079
 20
-8.228778657013092
 10
11.46810713253751
 20
-8.02985523383313
 10
11.60650452826212
 20
-7.828485773508987
 10
11.74136646372756
 20
-7.624731615128894
 10
11.87265185868159
 20
-7.418654824183362
 10
12.00032072232113
 20
-7.210318173659231
 10
12.12433416547378
 20
-6.999785124918502
 10
12.24465441244308
 20
-6.787119808367206
 10
12.36124481251647
 20
-6.572387003920994
 10
12.47406985112877
 20
-6.355652121272157
 10
12.58309516067993
 20
-6.136981179965572
 10
12.68828753100467
 20
-5.916440789288286
 10
12.78961491948803
 20
-5.694098127979713
 10
12.88704646082567
 20
-5.470020923768345
 10
12.98055247642662
 20
-5.244277432741228
 10
13.0701044834525
 20
-5.016936418552688
 10
13.15567520349418
 20
-4.788067131477816
 10
13.23723857088203
 20
-4.557739287318668
 10
13.31476974062366
 20
-4.326023046167732
 10
13.38824509597407
 20
-4.092988991036803
 10
13.457642255628
 20
-3.858708106356459
 10
13.52294008053855
 20
-3.623251756353794
 10
13.58411868035557
 20
-3.386691663313853
 10
13.64115941948489
 20
-3.149099885732595
 10
13.69404492276487
 20
-2.910548796367151
 10
13.74275908075879
 20
-2.671111060190127
 10
13.78728705466244
 20
-2.430859612255516
 10
13.82761528082346
 20
-2.189867635481731
 10
13.86373147487347
 20
-1.948208538359438
 10
13.89562463547008
 20
-1.70595593259054
 10
13.92328504764737
 20
-1.463183610665679
 10
13.94670428577603
 20
-1.219965523385724
 10
13.96587521612912
 20
-0.9763757573361999
 10
13.98079199905567
 20
-0.7324885123197192
 10
13.99145009075892
 20
-0.4883780787534989
 10
13.997846244681
 20
-0.2441188150405082
 10
13.99997851249168
 20
0.0002148750815536
 10
13.997846244681
 20
0.2445485652034449
 10
13.99145009075892
 20
0.4888078289165493
 10
13.98079199905567
 20
0.7329182624827128
 10
13.96587521612912
 20
0.9768055074992505
 10
13.94670428577603
 20
1.220395273548717
 10
13.92328504764737
 20
1.463613360828674
 10
13.89562463547008
 20
1.706385682753534
 10
13.86373147487347
 20
1.94863828852243
 10
13.82761528082346
 20
2.190297385644725
 10
13.78728705466244
 20
2.431289362418566
 10
13.74275908075879
 20
2.671540810353178
 10
13.69404492276487
 20
2.910978546530144
 10
13.64115941948489
 20
3.149529635895588
 10
13.58411868035557
 20
3.387121413476847
 10
13.52294008053855
 20
3.623681506516845
 10
13.457642255628
 20
3.859137856519509
 10
13.38824509597407
 20
4.093418741199855
 10
13.31476974062366
 20
4.326452796330784
 10
13.23723857088203
 20
4.558169037481717
 10
13.15567520349418
 20
4.788496881640867
 10
13.0701044834525
 20
5.017366168715738
 10
12.98055247642662
 20
5.244707182904278
 10
12.88704646082567
 20
5.470450673931337
 10
12.78961491948803
 20
5.694527878142763
 10
12.68828753100467
 20
5.916870539451281
 10
12.58309516067993
 20
6.137410930128622
 10
12.47406985112877
 20
6.356081871435151
 10
12.36124481251647
 20
6.572816754083987
 10
12.24465441244308
 20
6.787549558530257
 10
12.12433416547378
 20
7.000214875081495
 10
12.00032072232113
 20
7.210747923822282
 10
11.87265185868159
 20
7.419084574346356
 10
11.74136646372756
 20
7.625161365291887
 10
11.60650452826212
 20
7.828915523671979
 10
11.46810713253751
 20
8.030284983996182
 10
11.32621643374079
 20
8.229208407176143
 10
11.18087565315375
 20
8.42562519921023
 10
11.03212906298574
 20
8.619475529640737
 10
10.88002197288925
 20
8.81070034977921
 10
10.72460071615728
 20
8.999241410693118
 10
10.56591263561029
 20
9.185041280948608
 10
10.40400606917512
 20
9.368043364105515
 10
10.23893033515992
 20
9.548191915956461
 10
10.07073571723265
 20
9.725432061507431
 10
9.899473449103313
 20
9.899709811693183
 10
9.725195698917444
 20
10.07097207982264
 10
9.547955553366591
 20
10.23916669774991
 10
9.367807001515645
 20
10.40424243176505
 10
9.184804918358736
 20
10.56614899820033
 10
8.999005048103185
 20
10.72483707874721
 10
8.810463987189335
 20
10.88025833547914
 10
8.61923916705075
 20
11.03236542557562
 10
8.4253888366203
 20
11.18111201574362
 10
8.228972044586271
 20
11.32645279633078
 10
8.030048621406193
 20
11.46834349512738
 10
7.828679161082049
 20
11.60674089085205
 10
7.62492500270207
 20
11.74160282631743
 10
7.418848211756539
 20
11.87288822127146
 10
7.21051156123235
 20
12.00055708491112
 10
6.999978512491678
 20
12.12457052806366
 10
6.787313195940327
 20
12.24489077503307
 10
6.572580391494057
 20
12.36148117510652
 10
6.355845508845276
 20
12.47430621371865
 10
6.137174567538637
 20
12.58333152326986
 10
5.916634176861407
 20
12.6885238935946
 10
5.694291515552889
 20
12.78985128207796
 10
5.470214311341351
 20
12.88728282341566
 10
5.24447082031429
 20
12.98078883901655
 10
5.017129806125921
 20
13.07034084604231
 10
4.788260519050936
 20
13.15591156608423
 10
4.557932674891731
 20
13.23747493347196
 10
4.326216433740796
 20
13.3150061032137
 10
4.093182378609866
 20
13.38848145856406
 10
3.858901493929578
 20
13.45787861821799
 10
3.648373685324712
 20
13.51626314675127
 10
3.755438339979605
 20
12.44561660020236
 10
3.800810673887098
 20
12.43217670260094
 10
4.017199439365981
 20
12.36394958691852
 10
4.232364520434656
 20
12.29195635787261
 10
4.446240375725209
 20
12.21621894529835
 10
4.658761856580553
 20
12.13676041954517
 10
4.869864226898471
 20
12.05360498444975
 10
5.079483182852186
 20
11.96677796996323
 10
5.287554872477016
 20
11.87630582443535
 10
5.494015915120598
 20
11.78221610655794
 10
5.698803420749642
 20
11.68453747697066
 10
5.901855009105702
 20
11.58329968953029
 10
6.103108828708172
 20
11.47853358224756
 10
6.302503575694004
 20
11.37027106789367
 10
6.499978512491566
 20
11.25854512427924
 10
6.695473486322272
 20
11.14338978420898
 10
6.888928947523367
 20
11.02484012511507
 10
7.080285967686903
 20
10.902932258372
 10
7.26948625761122
 20
10.77770331829703
 10
7.45647218505519
 20
10.64919145083843
 10
7.64118679229375
 20
10.5174358019558
 10
7.823573813468214
 20
10.38247650569627
 10
8.003577691725126
 20
10.24435467196889
 10
8.181143596139463
 20
10.10311237402214
 10
8.356217438416592
 20
9.958792635628242
 10
8.52874588936811
 20
9.811439417977508
 10
8.69867639515678
 20
9.661097606287627
 10
8.865957193304097
 20
9.507812996130725
 10
9.030537328458537
 20
9.351632279484022
 10
9.192366667916758
 20
9.192603030506631
 10
9.351395916894032
 20
9.030773691048523
 10
9.507576633540791
 20
8.866193555893969
 10
9.660861243697695
 20
8.698912757746652
 10
9.811203055387636
 20
8.528982251958098
 10
9.958556273038311
 20
8.356453801006521
 10
10.10287601143216
 20
8.181379958729451
 10
10.24411830937902
 20
8.003814054315057
 10
10.3822401431064
 20
7.823810176058144
 10
10.51719943936586
 20
7.641423154883625
 10
10.6489550882485
 20
7.45670854764512
 10
10.77746695570715
 20
7.269722620201207
 10
10.90269589578201
 20
7.080522330276834
 10
11.0246037625252
 20
6.889165310113184
 10
11.1431534216191
 20
6.6957098489122
 10
11.25830876168925
 20
6.500214875081495
 10
11.37003470530385
 20
6.302739938283877
 10
11.47829721965763
 20
6.103345191298101
 10
11.58306332694042
 20
5.902091371695632
 10
11.68430111438079
 20
5.699039783339513
 10
11.78197974396801
 20
5.494252277710644
 10
11.8760694618453
 20
5.287791235066889
 10
11.9665416073733
 20
5.079719545442059
 10
12.05336862185982
 20
4.870100589488345
 10
12.13652405695529
 20
4.658998219170428
 10
12.21598258270842
 20
4.446476738315253
 10
12.29171999528273
 20
4.232600883024531
 10
12.36371322432853
 20
4.017435801955854
 10
12.43194034001101
 20
3.801047036477086
 10
12.49638055968978
 20
3.583500500702483
 10
12.55701425424945
 20
3.364862461414247
 10
12.61382295407952
 20
3.145199517877187
 10
12.66678935469963
 20
2.924578581551769
 10
12.71589732203108
 20
2.703066855712393
 10
12.76113189731131
 20
2.480731814976593
 10
12.80247930165035
 20
2.257641184751605
 10
12.83992694022834
 20
2.033862920604518
 10
12.87346340613203
 20
1.809465187562351
 10
12.90307848382883
 20
1.584516339348454
 10
12.9287631522792
 20
1.359084897560989
 10
12.95050958768422
 20
1.133239530801062
 10
12.96831116586941
 20
0.9070490337551859
 10
12.98216246430104
 20
0.6805823062397849
 10
12.99205926373975
 20
0.4539083322140415
 10
12.99799854952471
 20
0.2270961587661873
 10
12.99997851249168
 20
0.0002148750814968
 10
12.99799854952471
 20
-0.2266664086031938
 10
12.99205926373975
 20
-0.4534785820509911
 10
12.98216246430104
 20
-0.6801525560767914
 10
12.96831116586941
 20
-0.9066192835920787
 10
12.95050958768422
 20
-1.132809780638069
 10
12.9287631522792
 20
-1.358655147397938
 10
12.90307848382883
 20
-1.584086589185402
 10
12.87346340613203
 20
-1.809035437399359
 10
12.83992694022834
 20
-2.033433170441525
 10
12.80247930165035
 20
-2.257211434588611
 10
12.76113189731131
 20
-2.480302064813598
 10
12.71589732203108
 20
-2.702637105549341
 10
12.66678935469963
 20
-2.92414883138872
 10
12.61382295407952
 20
-3.144769767714136
 10
12.55701425424945
 20
-3.364432711251254
 10
12.49638055968978
 20
-3.583070750539491
 10
12.43194034001101
 20
-3.800617286314093
 10
12.36371322432853
 20
-4.017006051792805
 10
12.29171999528273
 20
-4.232171132861537
 10
12.21598258270842
 20
-4.446046988152204
 10
12.13652405695529
 20
-4.658568469007433
 10
12.05336862185982
 20
-4.869670839325351
 10
11.9665416073733
 20
-5.079289795279066
 10
11.8760694618453
 20
-5.287361484903896
 10
11.78197974396801
 20
-5.493822527547592
 10
11.68430111438079
 20
-5.698610033176521
 10
11.58306332694042
 20
-5.901661621532581
 10
11.47829721965763
 20
-6.102915441135052
 10
11.37003470530385
 20
-6.302310188120883
 10
11.25830876168925
 20
-6.499785124918502
 10
11.1431534216191
 20
-6.695280098749207
 10
11.02460376252509
 20
-6.888735559950191
 10
10.90269589578201
 20
-7.080092580113841
 10
10.77746695570715
 20
-7.269292870038158
 10
10.6489550882485
 20
-7.456278797482128
 10
10.51719943936586
 20
-7.640993404720632
 10
10.3822401431064
 20
-7.823380425895152
 10
10.24411830937902
 20
-8.003384304152008
 10
10.10287601143216
 20
-8.180950208566398
 10
9.958556273038311
 20
-8.356024050843528
 10
9.811203055387636
 20
-8.528552501795047
 10
9.660861243697695
 20
-8.698483007583604
 10
9.507576633540791
 20
-8.865763805730921
 10
9.351395916894032
 20
-9.030343940885472
 10
9.192366667916758
 20
-9.192173280343579
 10
9.030537328458537
 20
-9.351202529320973
 10
8.865957193304097
 20
-9.50738324596773
 10
8.69867639515678
 20
-9.660667856124632
 10
8.52874588936811
 20
-9.811009667814515
 10
8.356217438416592
 20
-9.958362885465191
 10
8.181143596139463
 20
-10.10268262385909
 10
8.003577691725126
 20
-10.24392492180584
 10
7.823573813468214
 20
-10.38204675553328
 10
7.64118679229375
 20
-10.5170060517928
 10
7.45647218505519
 20
-10.64876170067538
 10
7.26948625761122
 20
-10.77727356813403
 10
7.080285967686903
 20
-10.90250250820901
 10
6.888928947523367
 20
-11.02441037495202
 10
6.695473486322272
 20
-11.14296003404598
 10
6.499978512491566
 20
-11.25811537411618
 10
6.302503575694004
 20
-11.36984131773067
 10
6.103108828708172
 20
-11.47810383208451
 10
5.901855009105702
 20
-11.5828699393673
 10
5.698803420749642
 20
-11.68410772680767
 10
5.494015915120598
 20
-11.78178635639494
 10
5.287554872477016
 20
-11.8758760742723
 10
5.079483182852186
 20
-11.96634821980018
 10
4.869864226898471
 20
-12.0531752342867
 10
4.658761856580553
 20
-12.13633066938212
 10
4.446240375725209
 20
-12.2157891951353
 10
4.232364520434656
 20
-12.29152660770961
 10
4.017199439365866
 20
-12.36351983675547
 10
3.800810673887098
 20
-12.43174695243794
 10
3.583264138112554
 20
-12.49618717211666
 10
3.364626098824373
 20
-12.55682086667633
 10
3.144963155287313
 20
-12.61362956650646
 10
2.924342218961896
 20
-12.66659596712657
 10
2.702830493122404
 20
-12.71570393445796
 10
2.480495452386662
 20
-12.76093850973814
 10
2.257404822161674
 20
-12.80228591407723
 10
2.033626558014475
 20
-12.83973355265527
 10
1.809228824972478
 20
-12.87327001855891
 10
1.584279976758465
 20
-12.90288509625571
 10
1.358848534971115
 20
-12.92856976470608
 10
1.133003168211188
 20
-12.95031620011116
 10
0.9068126711653119
 20
-12.96811777829617
 10
0.680345943649968
 20
-12.98196907672792
 10
0.4536719696242244
 20
-12.99186587616674
 10
0.2268597961763135
 20
-12.99780516195159
 10
-0.0000214875084339
 20
-12.9997851249185
 10
-0.2269027711930676
 20
-12.99780516195159
 10
-0.4537149446408649
 20
-12.99186587616674
 10
-0.6803889186666085
 20
-12.98196907672792
 10
-0.9068556461819524
 20
-12.96811777829617
 10
-1.133046143227942
 20
-12.95031620011116
 10
-1.35889150998787
 20
-12.92856976470608
 10
-1.584322951775333
 20
-12.90288509625571
 10
-1.809271799989231
 20
-12.87327001855891
 10
-2.033669533031456
 20
-12.83973355265527
 10
-2.257447797178429
 20
-12.80228591407723
 10
-2.48053842740353
 20
-12.76093850973814
 10
-2.702873468139272
 20
-12.71570393445796
 10
-2.92438519397865
 20
-12.66659596712657
 10
-3.145006130304068
 20
-12.61362956650646
 10
-3.364669073841127
 20
-12.55682086667633
 10
-3.583307113129421
 20
-12.49618717211666
 10
-3.800853648904079
 20
-12.43174695243794
 10
-4.017242414382734
 20
-12.36351983675547
 10
-4.23240749545141
 20
-12.29152660770961
 10
-4.446283350742191
 20
-12.21578919513524
 10
-4.658804831597308
 20
-12.13633066938212
 10
-4.869907201915338
 20
-12.0531752342867
 10
-5.07952615786894
 20
-11.96634821980018
 10
-5.287597847493771
 20
-11.8758760742723
 10
-5.49405889013758
 20
-11.78178635639494
 10
-5.698846395766394
 20
-11.68410772680767
 10
-5.90189798412257
 20
-11.5828699393673
 10
-6.103151803724927
 20
-11.47810383208451
 10
-6.302546550710758
 20
-11.36984131773067
 10
-6.500021487508433
 20
-11.25811537411618
 10
-6.695516461339137
 20
-11.14296003404598
 10
-6.888971922540007
 20
-11.02441037495202
 10
-7.080328942703772
 20
-10.90250250820901
 10
-7.269529232628201
 20
-10.77727356813403
 10
-7.456515160072057
 20
-10.64876170067532
 10
-7.641229767310504
 20
-10.5170060517928
 10
-7.823616788485082
 20
-10.38204675553328
 10
-8.003620666741994
 20
-10.24392492180584
 10
-8.181186571156331
 20
-10.10268262385909
 10
-8.35626041343346
 20
-9.958362885465191
 10
-8.52878886438509
 20
-9.811009667814515
 10
-8.698719370173535
 20
-9.660667856124632
 10
-8.866000168320852
 20
-9.50738324596773
 10
-9.030580303475403
 20
-9.351202529320973
 10
-9.192409642933512
 20
-9.192173280343579
 10
-9.351438891910902
 20
-9.030343940885472
 10
-9.507619608557661
 20
-8.865763805730921
 10
-9.660904218714565
 20
-8.698483007583604
 10
-9.81124603040439
 20
-8.528552501795047
 10
-9.958599248055064
 20
-8.356024050843528
 10
-10.10291898644902
 20
-8.180950208566398
 10
-10.24416128439577
 20
-8.003384304152008
 10
-10.38228311812315
 20
-7.823380425895152
 10
-10.51724241438273
 20
-7.640993404720632
 10
-10.64899806326536
 20
-7.456278797482069
 10
-10.77750993072391
 20
-7.269292870038158
 10
-10.902738870799
 20
-7.080092580113841
 10
-11.02464673754195
 20
-6.888735559950191
 10
-11.14319639663586
 20
-6.695280098749207
 10
-11.25835173670612
 20
-6.499785124918502
 10
-11.37007768032049
 20
-6.302310188120883
 10
-11.4783401946745
 20
-6.102915441135052
 10
-11.58310630195717
 20
-5.901661621532581
 10
-11.68434408939754
 20
-5.698610033176521
 10
-11.78202271898487
 20
-5.493822527547592
 10
-11.87611243686228
 20
-5.287361484903896
 10
-11.96658458239005
 20
-5.079289795279066
 10
-12.05341159687668
 20
-4.869670839325293
 10
-12.13656703197205
 20
-4.658568469007433
 10
-12.21602555772529
 20
-4.446046988152204
 10
-12.29176297029949
 20
-4.232171132861481
 10
-12.3637561993454
 20
-4.017006051792805
 10
-12.43198331502799
 20
-3.800617286314093
 10
-12.49642353470653
 20
-3.583070750539491
 10
-12.55705722926632
 20
-3.364432711251254
 10
-12.61386592909639
 20
-3.144769767714136
 10
-12.6668323297165
 20
-2.92414883138872
 10
-12.71594029704784
 20
-2.702637105549341
 10
-12.76117487232795
 20
-2.480302064813598
 10
-12.8025222766671
 20
-2.257211434588555
 10
-12.8399699152452
 20
-2.033433170441468
 10
-12.87350638114878
 20
-1.809035437399359
 10
-12.90312145884559
 20
-1.584086589185402
 10
-12.92880612729595
 20
-1.358655147397938
 10
-12.95055256270109
 20
-1.132809780638069
 10
-12.96835414088605
 20
-0.9066192835920787
 10
-12.98220543931791
 20
-0.6801525560767914
 10
-12.99210223875673
 20
-0.4534785820509911
 10
-12.99804152454146
 20
-0.2266664086031938
 10
-13.00002148750832
 20
0.0002148750814968
 10
-12.99804152454146
 20
0.2270961587661873
 10
-12.99210223875673
 20
0.4539083322140415
 10
-12.98220543931791
 20
0.6805823062397849
 10
-12.96835414088605
 20
0.9070490337551859
 10
-12.95055256270109
 20
1.133239530801062
 10
-12.92880612729584
 20
1.359084897560989
 10
-12.90312145884559
 20
1.584516339348454
 10
-12.87350638114878
 20
1.809465187562351
 10
-12.8399699152452
 20
2.033862920604518
 10
-12.8025222766671
 20
2.257641184751605
 10
-12.76117487232795
 20
2.480731814976593
 10
-12.71594029704784
 20
2.703066855712393
 10
-12.6668323297165
 20
2.924578581551769
 10
-12.61386592909639
 20
3.145199517877187
 10
-12.55705722926632
 20
3.364862461414247
 10
-12.49642353470653
 20
3.583500500702483
 10
-12.43198331502788
 20
3.801047036477086
 10
-12.3637561993454
 20
4.017435801955854
 10
-12.29176297029949
 20
4.232600883024587
 10
-12.21602555772529
 20
4.446476738315253
 10
-12.13656703197205
 20
4.658998219170428
 10
-12.05341159687668
 20
4.870100589488401
 10
-11.96658458239005
 20
5.079719545442059
 10
-11.87611243686228
 20
5.287791235066889
 10
-11.78202271898487
 20
5.494252277710644
 10
-11.68434408939754
 20
5.699039783339513
 10
-11.58310630195717
 20
5.902091371695632
 10
-11.4783401946745
 20
6.103345191298101
 10
-11.37007768032049
 20
6.302739938283877
 10
-11.25835173670612
 20
6.500214875081495
 10
-11.14319639663586
 20
6.6957098489122
 10
-11.02464673754195
 20
6.889165310113184
 10
-10.902738870799
 20
7.080522330276834
 10
-10.77750993072391
 20
7.269722620201207
 10
-10.64899806326525
 20
7.45670854764512
 10
-10.51724241438273
 20
7.641423154883625
 10
-10.38228311812315
 20
7.823810176058144
 10
-10.24416128439577
 20
8.003814054315057
 10
-10.10291898644902
 20
8.181379958729451
 10
-9.958599248055064
 20
8.356453801006521
 10
-9.81124603040439
 20
8.528982251958098
 10
-9.660904218714565
 20
8.698912757746652
 10
-9.507619608557661
 20
8.866193555893969
 10
-9.351438891910902
 20
9.030773691048523
 10
-9.192409642933512
 20
9.192603030506631
 10
-9.030580303475403
 20
9.351632279484022
 10
-8.866000168320852
 20
9.507812996130725
 10
-8.698719370173535
 20
9.661097606287627
 10
-8.52878886438509
 20
9.811439417977508
 10
-8.35626041343346
 20
9.958792635628242
 10
-8.181186571156331
 20
10.10311237402214
 10
-8.003620666741994
 20
10.24435467196889
 10
-7.823616788485082
 20
10.38247650569627
 10
-7.641229767310504
 20
10.5174358019558
 10
-7.456515160071942
 20
10.64919145083843
 10
-7.269529232628201
 20
10.77770331829703
 10
-7.080328942703772
 20
10.902932258372
 10
-6.888971922540007
 20
11.02484012511507
 10
-6.695516461339137
 20
11.14338978420898
 10
-6.500021487508433
 20
11.25854512427924
 10
-6.302546550710758
 20
11.37027106789367
 10
-6.103151803724927
 20
11.47853358224756
 10
-5.90189798412257
 20
11.58329968953029
 10
-5.698846395766394
 20
11.68453747697066
 10
-5.49405889013758
 20
11.78221610655794
 10
-5.287597847493771
 20
11.87630582443535
 10
-5.07952615786894
 20
11.96677796996323
 10
-4.869907201915338
 20
12.05360498444975
 10
-4.658804831597308
 20
12.13676041954517
 10
-4.446283350742191
 20
12.21621894529835
 10
-4.23240749545141
 20
12.29195635787261
 10
-4.017242414382734
 20
12.36394958691852
 10
-3.800853648904079
 20
12.432176702601
 10
-3.755481314996244
 20
12.44561660020241
 97
        0
 75
     0
 76
     1
 98
        1
 10
527.2645833333331
 20
437.5583333333332
  0
ENDBLK
  5
126
330
EC
100
AcDbEntity
  8
0
 48
5.0
100
AcDbBlockEnd
  0
ENDSEC
  0
SECTION
  2
ENTITIES
  0
LINE
  5
2F
330
17
100
AcDbEntity
  8
网格线
100
AcDbLine
 10
0.0
 20
0.0
 30
0.0
 11
0.0
 21
1000.0
 31
0.0
  0
LINE
  5
30
330
17
100
AcDbEntity
  8
网格线
100
AcDbLine
 10
0.0
 20
0.0
 30
0.0
 11
375.0
 21
0.0
 31
0.0
  0
LINE
  5
31
330
17
100
AcDbEntity
  8
网格线
100
AcDbLine
 10
0.0
 20
0.0
 30
0.0
 11
0.0
 21
8593.000000000001
 31
0.0
  0
LINE
  5
32
330
17
100
AcDbEntity
  8
网格线
100
AcDbLine
 10
0.0
 20
0.0
 30
0.0
 11
10374.0
 21
0.0
 31
0.0
  0
LINE
  5
33
330
17
100
AcDbEntity
  8
网格线
100
AcDbLine
 10
10374.0
 20
0.0
 30
0.0
 11
10374.0
 21
8593.000000000001
 31
0.0
  0
LINE
  5
34
330
17
100
AcDbEntity
  8
网格线
100
AcDbLine
 10
10374.0
 20
8593.000000000001
 30
0.0
 11
10374.0
 21
8593.000000000001
 31
0.0
  0
LINE
  5
35
330
17
100
AcDbEntity
  8
网格线
100
AcDbLine
 10
0.0
 20
1000.0
 30
0.0
 11
10374.0
 21
1000.0
 31
0.0
  0
LINE
  5
36
330
17
100
AcDbEntity
  8
网格线
100
AcDbLine
 10
0.0
 20
2000.0
 30
0.0
 11
10374.0
 21
2000.0
 31
0.0
  0
LINE
  5
37
330
17
100
AcDbEntity
  8
网格线
100
AcDbLine
 10
0.0
 20
3000.0
 30
0.0
 11
10374.0
 21
3000.0
 31
0.0
  0
LINE
  5
38
330
17
100
AcDbEntity
  8
网格线
100
AcDbLine
 10
0.0
 20
4000.0
 30
0.0
 11
10374.0
 21
4000.0
 31
0.0
  0
LINE
  5
39
330
17
100
AcDbEntity
  8
网格线
100
AcDbLine
 10
0.0
 20
5000.0
 30
0.0
 11
10374.0
 21
5000.0
 31
0.0
  0
LINE
  5
3A
330
17
100
AcDbEntity
  8
网格线
100
AcDbLine
 10
0.0
 20
6000.0
 30
0.0
 11
10374.0
 21
6000.0
 31
0.0
  0
LINE
  5
3B
330
17
100
AcDbEntity
  8
网格线
100
AcDbLine
 10
0.0
 20
7000.0
 30
0.0
 11
10374.0
 21
7000.0
 31
0.0
  0
LINE
  5
3C
330
17
100
AcDbEntity
  8
网格线
100
AcDbLine
 10
0.0
 20
8000.0
 30
0.0
 11
10374.0
 21
8000.0
 31
0.0
  0
LINE
  5
40
330
17
100
AcDbEntity
  8
网格线
100
AcDbLine
 10
3375.0
 20
0.0
 30
0.0
 11
3375.0
 21
8593.000000000001
 31
0.0
  0
LINE
  5
41
330
17
100
AcDbEntity
  8
网格线
100
AcDbLine
 10
4375.0
 20
0.0
 30
0.0
 11
4375.0
 21
8593.000000000001
 31
0.0
  0
LINE
  5
42
330
17
100
AcDbEntity
  8
网格线
100
AcDbLine
 10
5375.0
 20
0.0
 30
0.0
 11
5375.0
 21
8593.000000000001
 31
0.0
  0
LINE
  5
43
330
17
100
AcDbEntity
  8
网格线
100
AcDbLine
 10
6375.0
 20
0.0
 30
0.0
 11
6375.0
 21
8593.000000000001
 31
0.0
  0
LINE
  5
44
330
17
100
AcDbEntity
  8
网格线
100
AcDbLine
 10
7375.0
 20
0.0
 30
0.0
 11
7375.0
 21
8593.000000000001
 31
0.0
  0
LINE
  5
45
330
17
100
AcDbEntity
  8
网格线
100
AcDbLine
 10
8375.0
 20
0.0
 30
0.0
 11
8375.0
 21
8593.000000000001
 31
0.0
  0
LINE
  5
46
330
17
100
AcDbEntity
  8
网格线
100
AcDbLine
 10
9375.0
 20
0.0
 30
0.0
 11
9375.0
 21
8593.000000000001
 31
0.0
  0
LINE
  5
B3
330
17
100
AcDbEntity
  8
0
100
AcDbLine
 10
-0.0008711551810094
 20
8592.993484252779
 30
0.0
 11
10374.00036453696
 21
8592.993484252779
 31
0.0
  0
INSERT
  5
12A
330
17
100
AcDbEntity
  8
指北针
  6
ByBlock
 48
5.0
100
AcDbBlockReference
 66
     1
  2
W指北针
 10
1374.620358631943
 20
8003.312826961739
 30
0.0000000000059476
 41
10.0
 42
10.0
 43
10.0
  0
SEQEND
  5
12B
330
12A
100
AcDbEntity
  8
0
 48
5.0
  0
TEXT
  5
2E4
330
17
100
AcDbEntity
  8
经纬网
 62
     7
370
    20
100
AcDbText
 10
335.8831542731805
 20
8614.059019322997
 30
0.0
 40
15.0
  1
37459000
 50
0.0258674470226011
  7
经纬网
100
AcDbText
  0
TEXT
  5
30E
330
17
100
AcDbEntity
  8
经纬网
 62
     7
370
    20
100
AcDbText
 10
1342.749637638013
 20
8609.499432507131
 30
0.0
 40
15.0
  1
37460000
 50
0.0258674470226011
  7
经纬网
100
AcDbText
  0
TEXT
  5
362
330
17
100
AcDbEntity
  8
经纬网
 62
     7
370
    20
100
AcDbText
 10
2342.249637638013
 20
8622.499432507131
 30
0.0
 40
15.0
  1
37461000
 50
0.0258674470226011
  7
经纬网
100
AcDbText
  0
TEXT
  5
38C
330
17
100
AcDbEntity
  8
经纬网
 62
     7
370
    20
100
AcDbText
 10
3337.749637638013
 20
8612.499432507133
 30
0.0
 40
15.0
  1
37462000
 50
0.0258674470226011
  7
经纬网
100
AcDbText
  0
TEXT
  5
3B6
330
17
100
AcDbEntity
  8
经纬网
 62
     7
370
    20
100
AcDbText
 10
4333.249637638012
 20
8613.999432507133
 30
0.0
 40
15.0
  1
37463000
 50
0.0258674470226011
  7
经纬网
100
AcDbText
  0
TEXT
  5
3E0
330
17
100
AcDbEntity
  8
经纬网
 62
     7
370
    20
100
AcDbText
 10
5336.749637638012
 20
8614.499432507129
 30
0.0
 40
15.0
  1
37464000
 50
0.0258674470226011
  7
经纬网
100
AcDbText
  0
TEXT
  5
40A
330
17
100
AcDbEntity
  8
经纬网
 62
     7
370
    20
100
AcDbText
 10
6339.249637638012
 20
8607.499432507131
 30
0.0
 40
15.0
  1
37465000
 50
0.0258674470226011
  7
经纬网
100
AcDbText
  0
TEXT
  5
434
330
17
100
AcDbEntity
  8
经纬网
 62
     7
370
    20
100
AcDbText
 10
7339.249637638014
 20
8607.999432507131
 30
0.0
 40
15.0
  1
37466000
 50
0.0258674470226011
  7
经纬网
100
AcDbText
  0
TEXT
  5
45E
330
17
100
AcDbEntity
  8
经纬网
 62
     7
370
    20
100
AcDbText
 10
8331.249637638014
 20
8611.999432507131
 30
0.0
 40
15.0
  1
37467000
 50
0.0258674470226011
  7
经纬网
100
AcDbText
  0
TEXT
  5
488
330
17
100
AcDbEntity
  8
经纬网
 62
     7
370
    20
100
AcDbText
 10
9334.249637638016
 20
8613.499432507131
 30
0.0
 40
15.0
  1
37468000
 50
0.0258674470226011
  7
经纬网
100
AcDbText
  0
TEXT
  5
4B3
330
17
100
AcDbEntity
  8
经纬网
 62
     7
370
    20
100
AcDbText
 10
10332.24963763801
 20
8615.999432507129
 30
0.0
 40
15.0
  1
37469000
 50
0.0258674470226011
  7
经纬网
100
AcDbText
  0
TEXT
  5
4DD
330
17
100
AcDbEntity
  8
经纬网
 62
     7
370
    20
100
AcDbText
 10
10386.74963763801
 20
7993.999432507131
 30
0.0
 40
15.0
  1
4326000
 50
0.0258674470226011
  7
经纬网
100
AcDbText
  0
TEXT
  5
507
330
17
100
AcDbEntity
  8
经纬网
 62
     7
370
    20
100
AcDbText
 10
10398.75243088286
 20
6994.499659504278
 30
0.0
 40
15.0
  1
4325000
 50
0.0258674470226011
  7
经纬网
100
AcDbText
  0
TEXT
  5
531
330
17
100
AcDbEntity
  8
经纬网
 62
     7
370
    20
100
AcDbText
 10
10400.25243088286
 20
5991.999659504279
 30
0.0
 40
15.0
  1
4324000
 50
0.0258674470226011
  7
经纬网
100
AcDbText
  0
TEXT
  5
55B
330
17
100
AcDbEntity
  8
经纬网
 62
     7
370
    20
100
AcDbText
 10
10408.25243088286
 20
4991.99965950428
 30
0.0
 40
15.0
  1
4323000
 50
0.0258674470226011
  7
经纬网
100
AcDbText
  0
TEXT
  5
585
330
17
100
AcDbEntity
  8
经纬网
 62
     7
370
    20
100
AcDbText
 10
10401.25243088286
 20
3992.999659504279
 30
0.0
 40
15.0
  1
4322000
 50
0.0258674470226011
  7
经纬网
100
AcDbText
  0
TEXT
  5
5AF
330
17
100
AcDbEntity
  8
经纬网
 62
     7
370
    20
100
AcDbText
 10
10402.25243088286
 20
2990.999659504279
 30
0.0
 40
15.0
  1
4321000
 50
0.0258674470226011
  7
经纬网
100
AcDbText
  0
TEXT
  5
5D9
330
17
100
AcDbEntity
  8
经纬网
 62
     7
370
    20
100
AcDbText
 10
10390.25243088286
 20
1993.999659504278
 30
0.0
 40
15.0
  1
4320000
 50
0.0258674470226011
  7
经纬网
100
AcDbText
  0
TEXT
  5
603
330
17
100
AcDbEntity
  8
经纬网
 62
     7
370
    20
100
AcDbText
 10
10393.25243088286
 20
995.9996595042783
 30
0.0
 40
15.0
  1
4319000
 50
0.0258674470226011
  7
经纬网
100
AcDbText
  0
TEXT
  5
62D
330
17
100
AcDbEntity
  8
经纬网
 62
     7
370
    20
100
AcDbText
 10
10392.25243088286
 20
-3.500340495721161
 30
0.0
 40
15.0
  1
4318000
 50
0.0258674470226011
  7
经纬网
100
AcDbText
  0
TEXT
  5
657
330
17
100
AcDbEntity
  8
经纬网
 62
     7
370
    20
100
AcDbText
 10
10329.25243088286
 20
-45.50034049572116
 30
0.0
 40
15.0
  1
37469000
 50
0.0258674470226011
  7
经纬网
100
AcDbText
  0
TEXT
  5
6AB
330
17
100
AcDbEntity
  8
经纬网
 62
     7
370
    20
100
AcDbText
 10
9334.249637638016
 20
-39.00056749286854
 30
0.0
 40
15.0
  1
37468000
 50
0.0258674470226011
  7
经纬网
100
AcDbText
  0
TEXT
  5
6D5
330
17
100
AcDbEntity
  8
经纬网
 62
     7
370
    20
100
AcDbText
 10
8337.749637638014
 20
-45.00056749286851
 30
0.0
 40
15.0
  1
37467000
 50
0.0258674470226011
  7
经纬网
100
AcDbText
  0
TEXT
  5
6FF
330
17
100
AcDbEntity
  8
经纬网
 62
     7
370
    20
100
AcDbText
 10
7336.249637638012
 20
-40.50056749286852
 30
0.0
 40
15.0
  1
37466000
 50
0.0258674470226011
  7
经纬网
100
AcDbText
  0
TEXT
  5
729
330
17
100
AcDbEntity
  8
经纬网
 62
     7
370
    20
100
AcDbText
 10
6330.749637638014
 20
-34.00056749286854
 30
0.0
 40
15.0
  1
37465000
 50
0.0258674470226011
  7
经纬网
100
AcDbText
  0
TEXT
  5
753
330
17
100
AcDbEntity
  8
经纬网
 62
     7
370
    20
100
AcDbText
 10
5326.749637638013
 20
-32.00056749286853
 30
0.0
 40
15.0
  1
37464000
 50
0.0258674470226011
  7
经纬网
100
AcDbText
  0
TEXT
  5
77D
330
17
100
AcDbEntity
  8
经纬网
 62
     7
370
    20
100
AcDbText
 10
4338.749637638012
 20
-39.50056749286853
 30
0.0
 40
15.0
  1
37463000
 50
0.0258674470226011
  7
经纬网
100
AcDbText
  0
TEXT
  5
7A7
330
17
100
AcDbEntity
  8
经纬网
 62
     7
370
    20
100
AcDbText
 10
3329.749637638013
 20
-44.50056749286853
 30
0.0
 40
15.0
  1
37462000
 50
0.0258674470226011
  7
经纬网
100
AcDbText
  0
TEXT
  5
7D1
330
17
100
AcDbEntity
  8
经纬网
 62
     7
370
    20
100
AcDbText
 10
2339.249637638014
 20
-41.50056749286853
 30
0.0
 40
15.0
  1
37461000
 50
0.0258674470226011
  7
经纬网
100
AcDbText
  0
TEXT
  5
7FB
330
17
100
AcDbEntity
  8
经纬网
 62
     7
370
    20
100
AcDbText
 10
1331.749637638013
 20
-40.50056749286852
 30
0.0
 40
15.0
  1
37460000
 50
0.0258674470226011
  7
经纬网
100
AcDbText
  0
TEXT
  5
825
330
17
100
AcDbEntity
  8
经纬网
 62
     7
370
    20
100
AcDbText
 10
330.2496376380132
 20
-47.00056749286853
 30
0.0
 40
15.0
  1
37459000
 50
0.0258674470226011
  7
经纬网
100
AcDbText
  0
TEXT
  5
878
330
17
100
AcDbEntity
  8
经纬网
 62
     7
370
    20
100
AcDbText
 10
-34.75036236198707
 20
-46.00056749286852
 30
0.0
 40
15.0
  1
37458000
 50
0.0258674470226011
  7
经纬网
100
AcDbText
  0
TEXT
  5
8A2
330
17
100
AcDbEntity
  8
经纬网
 62
     7
370
    20
100
AcDbText
 10
-115.250362361987
 20
-4.500567492868526
 30
0.0
 40
15.0
  1
4317000
 50
0.0258674470226011
  7
经纬网
100
AcDbText
  0
TEXT
  5
8CC
330
17
100
AcDbEntity
  8
经纬网
 62
     7
370
    20
100
AcDbText
 10
-116.7475691171391
 20
991.4996595042786
 30
0.0
 40
15.0
  1
4318000
 50
0.0258674470226011
  7
经纬网
100
AcDbText
  0
TEXT
  5
8F6
330
17
100
AcDbEntity
  8
经纬网
 62
     7
370
    20
100
AcDbText
 10
-110.2475691171391
 20
1990.999659504279
 30
0.0
 40
15.0
  1
4319000
 50
0.0258674470226011
  7
经纬网
100
AcDbText
  0
TEXT
  5
920
330
17
100
AcDbEntity
  8
经纬网
 62
     7
370
    20
100
AcDbText
 10
-118.7475691171391
 20
2993.499659504279
 30
0.0
 40
15.0
  1
4320000
 50
0.0258674470226011
  7
经纬网
100
AcDbText
  0
TEXT
  5
94A
330
17
100
AcDbEntity
  8
经纬网
 62
     7
370
    20
100
AcDbText
 10
-99.74756911713916
 20
3991.999659504279
 30
0.0
 40
15.0
  1
4321000
 50
0.0258674470226011
  7
经纬网
100
AcDbText
  0
TEXT
  5
974
330
17
100
AcDbEntity
  8
经纬网
 62
     7
370
    20
100
AcDbText
 10
-101.2475691171391
 20
4991.499659504279
 30
0.0
 40
15.0
  1
4322000
 50
0.0258674470226011
  7
经纬网
100
AcDbText
  0
TEXT
  5
99E
330
17
100
AcDbEntity
  8
经纬网
 62
     7
370
    20
100
AcDbText
 10
-95.74756911713913
 20
5991.99965950428
 30
0.0
 40
15.0
  1
4323000
 50
0.0258674470226011
  7
经纬网
100
AcDbText
  0
TEXT
  5
9C8
330
17
100
AcDbEntity
  8
经纬网
 62
     7
370
    20
100
AcDbText
 10
-102.2475691171391
 20
6993.499659504279
 30
0.0
 40
15.0
  1
4324000
 50
0.0258674470226011
  7
经纬网
100
AcDbText
  0
TEXT
  5
9F2
330
17
100
AcDbEntity
  8
经纬网
 62
     7
370
    20
100
AcDbText
 10
-90.24756911713913
 20
7992.999659504278
 30
0.0
 40
15.0
  1
4325000
 50
0.0258674470226011
  7
经纬网
100
AcDbText
  0
TEXT
  5
A1C
330
17
100
AcDbEntity
  8
经纬网
 62
     7
370
    20
100
AcDbText
 10
-96.24756911713916
 20
8582.999659504279
 30
0.0
 40
15.0
  1
4326000
 50
0.0258674470226011
  7
经纬网
100
AcDbText
  0
LWPOLYLINE
  5
A1F
330
17
100
AcDbEntity
  8
0
100
AcDbPolyline
 90
        4
 70
     1
 43
0.0
 10
-125.0
 20
-125.0
 10
10536.0
 20
-125.0
 10
10536.0
 20
8749.500000000002
 10
-125.0
 20
8749.499999999999
  0
LWPOLYLINE
  5
B73
330
17
100
AcDbEntity
  8
图例及图签
 62
     7
 48
1.000000000000000E+16
370
    20
100
AcDbPolyline
 90
        4
 70
     1
 43
0.0
 10
0.0
 20
0.0
 10
2648.899648440116
 20
0.0000000282566361
 10
2648.899648434076
 20
566.5580186771667
 10
0.0
 20
566.7766069378226
  0
LWPOLYLINE
  5
B74
330
17
100
AcDbEntity
  8
图例及图签
 48
1.000000000000000E+16
100
AcDbPolyline
 90
        4
 70
     1
 43
0.0
 10
588.6692800973768
 20
477.5267386496166
 10
743.5764716634666
 20
477.5267386496166
 10
743.5764716634666
 20
397.0550721753743
 10
588.6692800973768
 20
397.0550721753743
  0
LWPOLYLINE
  5
B75
330
17
100
AcDbEntity
  8
图例及图签
 48
1.000000000000000E+16
100
AcDbPolyline
 90
        4
 70
     1
 43
0.0
 10
588.6692800973768
 20
177.5267386496166
 10
743.5764716634666
 20
177.5267386496166
 10
743.5764716634666
 20
97.05507217537572
 10
588.6692800973768
 20
97.05507217537572
  0
LINE
  5
B76
330
17
100
AcDbEntity
  8
图例及图签
 62
     4
 48
1.000000000000000E+16
100
AcDbLine
 10
839.0440061410354
 20
449.3730076615725
 30
0.000000004715112
 11
852.0078751390265
 21
441.8073970516238
 31
0.000000004715112
  0
LINE
  5
B77
330
17
100
AcDbEntity
  8
图例及图签
 62
     4
 48
1.000000000000000E+16
100
AcDbLine
 10
852.0078751390265
 20
441.8073970516238
 30
0.000000004715112
 11
882.0278342257234
 21
441.8293210797819
 31
0.000000004715112
  0
LINE
  5
B78
330
17
100
AcDbEntity
  8
图例及图签
 62
     4
 48
1.000000000000000E+16
100
AcDbLine
 10
882.0278342257234
 20
441.8293210797819
 30
0.000000004715112
 11
894.9917032237145
 21
449.3949316673788
 31
0.000000004715112
  0
LINE
  5
B79
330
17
100
AcDbEntity
  8
图例及图签
 62
     4
 48
1.000000000000000E+16
100
AcDbLine
 10
839.0826292188291
 20
409.9263587286218
 30
0.000000004715112
 11
852.0464982168205
 21
417.4919693385708
 31
0.000000004715112
  0
LINE
  5
B7A
330
17
100
AcDbEntity
  8
图例及图签
 62
     4
 48
1.000000000000000E+16
100
AcDbLine
 10
852.0464982168205
 20
417.4919693385708
 30
0.000000004715112
 11
882.0664573035191
 21
417.5138933443339
 31
0.000000004715112
  0
LINE
  5
B7B
330
17
100
AcDbEntity
  8
图例及图签
 62
     4
 48
1.000000000000000E+16
100
AcDbLine
 10
882.0664573035191
 20
417.5138933443339
 30
0.000000004715112
 11
895.0303263015102
 21
409.948282756738
 31
0.000000004715112
  0
LINE
  5
B7C
330
17
100
AcDbEntity
  8
图例及图签
 62
     1
 48
1.000000000000000E+16
100
AcDbLine
 10
849.7071374934321
 20
429.6448077299618
 30
0.000000004715112
 11
884.3413458844452
 21
429.6464420758751
 31
0.000000004715112
  0
LINE
  5
B7D
330
17
100
AcDbEntity
  8
图例及图签
 62
     1
 48
1.000000000000000E+16
100
AcDbLine
 10
884.3413458844452
 20
429.6464420758751
 30
0.000000004715112
 11
874.0088123008181
 21
432.1971355763056
 31
0.000000004715112
  0
LINE
  5
B7E
330
17
100
AcDbEntity
  8
图例及图签
 62
     1
 48
1.000000000000000E+16
100
AcDbLine
 10
874.0088123008181
 20
432.1971355763056
 30
0.000000004715112
 11
875.8463532415197
 21
429.6460187956507
 31
0.000000004715112
  0
LINE
  5
B7F
330
17
100
AcDbEntity
  8
图例及图签
 62
     1
 48
1.000000000000000E+16
100
AcDbLine
 10
875.8463532415197
 20
429.6460187956507
 30
0.000000004715112
 11
874.0088123008181
 21
427.0957485777882
 31
0.000000004715112
  0
LINE
  5
B80
330
17
100
AcDbEntity
  8
图例及图签
 62
     1
 48
1.000000000000000E+16
100
AcDbLine
 10
874.0088123008181
 20
427.0957485777882
 30
0.000000004715112
 11
884.3413458844452
 21
429.6464420782176
 31
0.000000004715112
  0
MTEXT
  5
B81
330
17
100
AcDbEntity
  8
图例及图签
 62
     1
 48
1.000000000000000E+16
100
AcDbMText
 10
854.6390379575468
 20
426.1140799822274
 30
0.000000004715112
 40
11.39999999999999
 41
0.0
 46
0.0
 71
     1
 72
     5
  1
S
  7
HZ
 11
0.0
 21
1.0
 31
0.0
 73
     1
 44
1.0
1001
ACAD
1000
MTEXTBEGIN
1070
    73
1070
     1
1070
    44
1040
1.0
1070
    74
1070
     0
1000
MTEXTEND
  0
HATCH
  5
B82
330
17
100
AcDbEntity
  8
图例及图签
 62
     1
 48
1.000000000000000E+16
100
AcDbHatch
 10
0.0
 20
0.0
 30
0.000000004715112
210
0.0
220
0.0
230
1.0
  2
SOLID
 70
     1
 71
     0
 91
        2
 92
      137
 93
        4
 72
     1
 10
890.4084157158367
 20
435.7698373637648
 11
872.4087432395762
 21
435.8784225684615
 72
     1
 10
872.4087432396052
 20
435.8784225684771
 11
872.3312979260027
 21
423.0406673386605
 72
     1
 10
872.3312979259809
 20
423.0406673386496
 11
890.3309704022621
 21
422.9320821339468
 72
     1
 10
890.3309704022685
 20
422.9320821339538
 11
890.4084157158305
 21
435.7698373637648
 97
        0
 92
       22
 72
     0
 73
     1
 93
        3
 10
884.3413458844452
 20
429.6464420758751
 10
874.0088123008181
 20
432.1971355763056
 10
875.846337099022
 20
429.646041206809
 97
        0
 75
     0
 76
     1
 47
0.0
 98
        1
 10
877.2943762840169
 20
430.9292033286437
1001
ACAD
1010
0.0
1020
0.0
1030
0.0
  0
HATCH
  5
B83
330
17
100
AcDbEntity
  8
图例及图签
 62
     1
 48
1.000000000000000E+16
100
AcDbHatch
 10
0.0
 20
0.0
 30
0.000000004715112
210
0.0
220
0.0
230
1.0
  2
SOLID
 70
     1
 71
     0
 91
        2
 92
      137
 93
        4
 72
     1
 10
890.4084157158367
 20
435.7698373637648
 11
872.4087432395762
 21
435.8784225684615
 72
     1
 10
872.4087432396052
 20
435.8784225684771
 11
872.3312979260027
 21
423.0406673386605
 72
     1
 10
872.3312979259809
 20
423.0406673386496
 11
890.3309704022621
 21
422.9320821339468
 72
     1
 10
890.3309704022685
 20
422.9320821339538
 11
890.4084157158305
 21
435.7698373637648
 97
        0
 92
       22
 72
     0
 73
     1
 93
        3
 10
875.8454069422024
 20
429.6447054540516
 10
874.0088123008181
 20
427.0957485777882
 10
884.3360248136614
 20
429.6451285164907
 97
        0
 75
     0
 76
     1
 47
0.0
 98
        1
 10
879.047648493448
 20
428.7660752780757
1001
ACAD
1010
0.0
1020
0.0
1030
0.0
  0
LINE
  5
B84
330
17
100
AcDbEntity
  8
图例及图签
 62
     3
 48
1.000000000000000E+16
100
AcDbLine
 10
867.9689059773091
 20
402.2376556841818
 30
0.000000004715112
 11
867.968528346727
 21
417.5138933548336
 31
0.000000004715112
  0
HATCH
  5
B85
330
17
100
AcDbEntity
  8
图例及图签
 62
     3
 48
1.000000000000000E+16
100
AcDbHatch
 10
0.0
 20
0.0
 30
0.000000004715112
210
0.0
220
0.0
230
1.0
  2
SOLID
 70
     1
 71
     0
 91
        2
 92
      137
 93
        4
 72
     1
 10
861.8438763435277
 20
474.4186957503161
 11
861.7352911388243
 21
456.4190232740547
 72
     1
 10
861.7352911388316
 20
456.4190232740769
 11
874.5730463686577
 21
456.3415779604729
 72
     1
 10
874.5730463686504
 20
456.3415779604729
 11
874.6816315733539
 21
474.3412504367555
 72
     1
 10
874.6816315733177
 20
474.3412504367555
 11
861.8438763435124
 21
474.4186957503161
 97
        0
 92
       22
 72
     0
 73
     1
 93
        3
 10
867.9672716313953
 20
468.351625918931
 10
865.4165781309876
 20
458.0190923353038
 10
867.9676725004837
 20
459.8566171335004
 97
        0
 75
     0
 76
     1
 47
0.0
 98
        1
 10
866.684510378648
 20
461.3046563184948
1001
ACAD
1010
0.0
1020
0.0
1030
0.0
  0
LINE
  5
B86
330
17
100
AcDbEntity
  8
图例及图签
 62
     3
 48
1.000000000000000E+16
100
AcDbLine
 10
867.9672716313953
 20
468.351625918931
 30
0.000000004715112
 11
865.4165781309876
 21
458.0190923353038
 31
0.000000004715112
  0
LINE
  5
B87
330
17
100
AcDbEntity
  8
图例及图签
 62
     3
 48
1.000000000000000E+16
100
AcDbLine
 10
870.5179651295056
 20
458.0190923353038
 30
0.000000004715112
 11
867.9672716290669
 21
468.351625918931
 31
0.000000004715112
  0
HATCH
  5
B88
330
17
100
AcDbEntity
  8
图例及图签
 62
     3
 48
1.000000000000000E+16
100
AcDbHatch
 10
0.0
 20
0.0
 30
0.000000004715112
210
0.0
220
0.0
230
1.0
  2
SOLID
 70
     1
 71
     0
 91
        2
 92
      137
 93
        4
 72
     1
 10
861.8438763435277
 20
474.4186957503161
 11
861.7352911388243
 21
456.4190232740547
 72
     1
 10
861.7352911388316
 20
456.4190232740769
 11
874.5730463686577
 21
456.3415779604729
 72
     1
 10
874.5730463686504
 20
456.3415779604729
 11
874.6816315733539
 21
474.3412504367555
 72
     1
 10
874.6816315733177
 20
474.3412504367555
 11
861.8438763435124
 21
474.4186957503161
 97
        0
 92
       22
 72
     0
 73
     1
 93
        3
 10
867.9690082532331
 20
459.8556869766808
 10
870.5179651295056
 20
458.0190923353038
 10
867.968585190786
 20
468.346304848154
 97
        0
 75
     0
 76
     1
 47
0.0
 98
        1
 10
868.8476384292171
 20
463.0579285279131
1001
ACAD
1010
0.0
1020
0.0
1030
0.0
  0
LINE
  5
B89
330
17
100
AcDbEntity
  8
图例及图签
 62
     3
 48
1.000000000000000E+16
100
AcDbLine
 10
867.9679275200333
 20
441.8190529181996
 30
0.000000004715112
 11
867.9672716313953
 21
468.351625918931
 31
0.000000004715112
  0
LWPOLYLINE
  5
B8A
330
17
100
AcDbEntity
  8
图例及图签
 48
1.000000000000000E+16
100
AcDbPolyline
 90
        4
 70
     1
 43
0.0
 10
788.669280097377
 20
477.5267386496166
 10
943.5764716634666
 20
477.5267386496166
 10
943.5764716634666
 20
397.0550721753743
 10
788.669280097377
 20
397.0550721753743
  0
TEXT
  5
B8B
330
17
100
AcDbEntity
  8
图例及图签
370
     0
100
AcDbText
 10
835.5258743566826
 20
358.2729569535882
 30
0.0
 40
20.0
  1
风桥
 50
359.9999997865572
  7
样式 3
100
AcDbText
1001
ZWMCAD_GENSCA_13_
1070
     1
1040
1.0
1001
ZWMCAD_GENSTANDARDFRAME_13_
1070
   410
1000
GB
1070
   411
1000
ZwmFrameMain_
  0
LWPOLYLINE
  5
B8C
330
17
100
AcDbEntity
  8
图例及图签
 48
1.000000000000000E+16
100
AcDbPolyline
 90
        4
 70
     1
 43
0.0
 10
788.669280097377
 20
327.5267386496166
 10
943.5764716634666
 20
327.5267386496166
 10
943.5764716634666
 20
247.0550721753743
 10
788.669280097377
 20
247.0550721753743
  0
LINE
  5
B8D
330
17
100
AcDbEntity
  8
图例及图签
 62
     4
370
    -3
100
AcDbLine
 10
894.4934331470012
 20
285.2105821338018
 30
0.0
 11
894.4934331470012
 21
291.2145856325046
 31
0.0
  0
LINE
  5
B8E
330
17
100
AcDbEntity
  8
图例及图签
 62
     4
370
    -3
100
AcDbLine
 10
894.4934331470012
 20
285.2105821338018
 30
0.0
 11
894.4934331470012
 21
291.2145856325046
 31
0.0
  0
LINE
  5
B8F
330
17
100
AcDbEntity
  8
图例及图签
 62
     4
370
    -3
100
AcDbLine
 10
863.1933496462025
 20
288.212583883153
 30
0.0
 11
894.4934331470012
 21
288.212583883153
 31
0.0
  0
LINE
  5
B90
330
17
100
AcDbEntity
  8
图例及图签
 62
     4
370
    -3
100
AcDbLine
 10
863.1933496462025
 20
288.212583883153
 30
0.0
 11
894.4934331470012
 21
288.212583883153
 31
0.0
  0
LINE
  5
B91
330
17
100
AcDbEntity
  8
图例及图签
 62
     4
370
    -3
100
AcDbLine
 10
863.1933496462025
 20
285.2105821338018
 30
0.0
 11
863.1933496462025
 21
291.2145856325046
 31
0.0
  0
LINE
  5
B92
330
17
100
AcDbEntity
  8
图例及图签
 62
     4
370
    -3
100
AcDbLine
 10
863.1933496462025
 20
285.2105821338018
 30
0.0
 11
863.1933496462025
 21
291.2145856325046
 31
0.0
  0
LINE
  5
B93
330
17
100
AcDbEntity
  8
图例及图签
 62
     4
370
    -3
100
AcDbLine
 10
858.0146334701868
 20
285.2411655043217
 30
0.0
 11
858.0146334701868
 21
291.2451690030248
 31
0.0
  0
LINE
  5
B94
330
17
100
AcDbEntity
  8
图例及图签
 62
     4
370
    -3
100
AcDbLine
 10
858.0146334701868
 20
285.2411655043217
 30
0.0
 11
858.0146334701868
 21
291.2451690030248
 31
0.0
  0
LINE
  5
B95
330
17
100
AcDbEntity
  8
图例及图签
 62
     4
370
    -3
100
AcDbLine
 10
826.7145499693878
 20
288.2431672536741
 30
0.0
 11
858.0146334701868
 21
288.2431672536741
 31
0.0
  0
LINE
  5
B96
330
17
100
AcDbEntity
  8
图例及图签
 62
     4
370
    -3
100
AcDbLine
 10
826.7145499693878
 20
288.2431672536741
 30
0.0
 11
858.0146334701868
 21
288.2431672536741
 31
0.0
  0
LINE
  5
B97
330
17
100
AcDbEntity
  8
图例及图签
 62
     4
370
    -3
100
AcDbLine
 10
826.7145499693878
 20
285.2411655043217
 30
0.0
 11
826.7145499693878
 21
291.2451690030248
 31
0.0
  0
LINE
  5
B98
330
17
100
AcDbEntity
  8
图例及图签
 62
     4
370
    -3
100
AcDbLine
 10
826.7145499693878
 20
285.2411655043217
 30
0.0
 11
826.7145499693878
 21
291.2451690030248
 31
0.0
  0
LINE
  5
B99
330
17
100
AcDbEntity
  8
图例及图签
 62
     4
370
    -3
100
AcDbLine
 10
902.7717357132653
 20
278.3164789453049
 30
-0.0000000022890695
 11
823.0654809622508
 21
278.2118137380353
 31
-0.0000000023167346
  0
LINE
  5
B9A
330
17
100
AcDbEntity
  8
图例及图签
 62
     4
370
    -3
100
AcDbLine
 10
902.7717357132653
 20
296.3164551219638
 30
0.0
 11
823.0654809622508
 21
296.2117898756228
 31
0.0
  0
TEXT
  5
B9B
330
17
100
AcDbEntity
  8
图例及图签
370
     0
100
AcDbText
 10
835.5258743566826
 20
208.2729569535882
 30
0.0
 40
20.0
  1
风筒
 50
359.9999997865572
  7
样式 3
100
AcDbText
1001
ZWMCAD_GENSCA_13_
1070
     1
1040
1.0
1001
ZWMCAD_GENSTANDARDFRAME_13_
1070
   410
1000
GB
1070
   411
1000
ZwmFrameMain_
  0
LINE
  5
B9C
330
17
100
AcDbEntity
  8
图例及图签
 62
     1
370
     0
100
AcDbLine
 10
824.4416528140364
 20
138.8527262633174
 30
0.0
 11
909.3268815300334
 21
138.9717637767098
 31
0.0
1001
AcDbBlockRepETag
1070
     1
1071
        1
1005
B9C
  0
LINE
  5
B9D
330
17
100
AcDbEntity
  8
图例及图签
 62
     1
370
     0
100
AcDbLine
 10
909.3268815300126
 20
138.9717637748435
 30
0.0
 11
892.0636214044506
 21
134.8960792653347
 31
0.0
1001
AcDbBlockRepETag
1070
     1
1071
        2
1005
B9D
  0
LINE
  5
B9E
330
17
100
AcDbEntity
  8
图例及图签
 62
     1
370
    35
100
AcDbLine
 10
909.3268815300552
 20
138.9717637787589
 30
0.0
 11
892.1501465617993
 21
143.397950649462
 31
0.0
1001
AcDbBlockRepETag
1070
     1
1071
        4
1005
B9E
  0
LINE
  5
B9F
330
17
100
AcDbEntity
  8
图例及图签
  6
DASH
 62
     1
 48
1.000000000000000E+16
100
AcDbLine
 10
892.1501465617993
 20
143.397950649462
 30
0.0
 11
895.2842427346331
 21
138.9520712951239
 31
0.0
1001
AcDbBlockRepETag
1070
     1
1071
        6
1005
0
  0
LINE
  5
BA0
330
17
100
AcDbEntity
  8
图例及图签
  6
DASH
 62
     1
 48
1.000000000000000E+16
100
AcDbLine
 10
895.2842427346331
 20
138.9520712951239
 30
0.0
 11
892.0636214044444
 21
134.8960792653379
 31
0.0
1001
AcDbBlockRepETag
1070
     1
1071
        7
1005
0
  0
HATCH
  5
BA1
330
17
100
AcDbEntity
  8
图例及图签
  6
DASH
 62
     1
 48
1.000000000000000E+16
100
AcDbHatch
 10
0.0
 20
0.0
 30
0.0
210
0.0
220
0.0
230
1.0
  2
SOLID
 70
     1
 71
     0
 91
        2
 92
        7
 72
     0
 73
     1
 93
        3
 10
892.1501465617993
 20
143.397950649462
 10
909.3268815300334
 20
138.9717637767098
 10
895.2842427346331
 20
138.9520712951239
 97
        0
 92
        7
 72
     0
 73
     1
 93
        3
 10
895.2842427346331
 20
138.9520712951207
 10
892.0636214044506
 20
134.8960792653347
 10
909.3268815300334
 20
138.9717637767098
 97
        0
 75
     0
 76
     1
 47
0.0386104166187426
 98
        2
 10
899.1464742278131
 20
139.2026311623745
 10
898.2155545188597
 20
138.7870567648761
1001
ACAD
1010
0.0
1020
0.0
1030
0.0
1001
AcDbBlockRepETag
1070
     1
1071
        8
1005
0
  0
TEXT
  5
BA2
330
17
100
AcDbEntity
  8
图例及图签
 62
     1
 48
1.000000000000000E+16
100
AcDbText
 10
852.6559251047165
 20
145.8861771510678
 30
0.0
 40
20.0
  1
S
 50
270.0
  7
HZ
100
AcDbText
  0
LWPOLYLINE
  5
BA3
330
17
100
AcDbEntity
  8
图例及图签
 48
1.000000000000000E+16
100
AcDbPolyline
 90
        4
 70
     1
 43
0.0
 10
788.669280097377
 20
177.5267386496166
 10
943.5764716634666
 20
177.5267386496166
 10
943.5764716634666
 20
97.05507217537572
 10
788.669280097377
 20
97.05507217537572
  0
TEXT
  5
BA4
330
17
100
AcDbEntity
  8
图例及图签
370
     0
100
AcDbText
 10
809.5167578378832
 20
58.27295695358817
 30
0.0
 40
20.0
  1
回风风流
 50
359.9999997865572
  7
样式 3
100
AcDbText
1001
ZWMCAD_GENSCA_13_
1070
     1
1040
1.0
1001
ZWMCAD_GENSTANDARDFRAME_13_
1070
   410
1000
GB
1070
   411
1000
ZwmFrameMain_
  0
LWPOLYLINE
  5
BA5
330
17
100
AcDbEntity
  8
图例及图签
 48
1.000000000000000E+16
100
AcDbPolyline
 90
        4
 70
     1
 43
0.0
 10
988.6692800973767
 20
477.5267386496166
 10
1143.576471663466
 20
477.5267386496166
 10
1143.576471663466
 20
397.0550721753743
 10
988.6692800973767
 20
397.0550721753743
  0
HATCH
  5
BA6
330
17
100
AcDbEntity
  8
图例及图签
 62
    30
370
    -3
100
AcDbHatch
 10
0.0
 20
0.0
 30
0.0
210
0.0
220
0.0
230
1.0
  2
SOLID
 70
     1
 71
     0
 91
        2
 92
        7
 72
     1
 73
     1
 93
        4
 10
1072.588724269138
 20
445.4089873310258
 42
0.5657727783232383
 10
1058.502078196573
 20
439.1154851790611
 42
0.1989123673740825
 10
1060.351383952963
 20
432.4802569922135
 42
0.0
 10
1067.436160026657
 20
438.0301807437181
 42
0.0
 97
        0
 92
        7
 72
     1
 73
     1
 93
        3
 10
1074.520935988593
 20
443.5801045510998
 42
0.0743128366356524
 10
1072.588724269138
 20
445.4089873310258
 42
0.0
 10
1067.436160026657
 20
438.0301807437181
 42
0.0
 97
        0
 75
     0
 76
     1
 47
0.0202471229033101
 98
        2
 10
1062.452710247205
 20
439.1357959609553
 10
1072.035055844652
 20
442.3776413265695
  0
LWPOLYLINE
  5
BA7
330
17
100
AcDbEntity
  8
图例及图签
 62
    30
370
    -3
100
AcDbPolyline
 90
        2
 70
     0
 43
0.0
 10
1070.978547951747
 20
440.8051427032877
 10
1063.893771967459
 20
435.2552189070811
  0
CIRCLE
  5
BA8
330
17
100
AcDbEntity
  8
图例及图签
 62
    30
370
    50
100
AcDbCircle
 10
1067.436160026657
 20
438.0301807437181
 30
0.0
 40
8.999761326329609
  0
CIRCLE
  5
BA9
330
17
100
AcDbEntity
  8
图例及图签
 62
    30
370
    50
100
AcDbCircle
 10
1067.436160026657
 20
438.0301807437181
 30
0.0
 40
31.10738621191905
  0
ARC
  5
BAA
330
17
100
AcDbEntity
  8
图例及图签
 62
    30
370
    50
100
AcDbCircle
 10
1067.436159959603
 20
438.0301808051845
 30
0.0
 40
15.0
100
AcDbArc
 50
280.114206109229
 51
279.60377611799
  0
TEXT
  5
BAB
330
17
100
AcDbEntity
  8
图例及图签
370
     0
100
AcDbText
 10
1009.516757837884
 20
358.2729569535882
 30
0.0
 40
20.0
  1
回风立井
 50
359.9999997865572
  7
样式 3
100
AcDbText
1001
ZWMCAD_GENSCA_13_
1070
     1
1040
1.0
1001
ZWMCAD_GENSTANDARDFRAME_13_
1070
   410
1000
GB
1070
   411
1000
ZwmFrameMain_
  0
LINE
  5
BAC
102
{ACAD_REACTORS
330
BB1
102
}
330
17
100
AcDbEntity
  8
图例及图签
 62
     3
 48
2.0
370
     0
100
AcDbLine
 10
1019.582573148488
 20
287.1306555729357
 30
0.0
 11
1119.484873256
 21
287.1318900110459
 31
0.0
1001
AcDbBlockRepETag
1070
     1
1071
        1
1005
BAC
  0
LINE
  5
BAD
102
{ACAD_REACTORS
330
BB1
102
}
330
17
100
AcDbEntity
  8
图例及图签
 62
     3
 48
2.0
370
     0
100
AcDbLine
 10
1019.582573163396
 20
287.1318900110459
 30
0.0
 11
1042.569302530611
 21
292.6956030218762
 31
0.0
1001
AcDbBlockRepETag
1070
     1
1071
        2
1005
BAD
  0
LINE
  5
BAE
102
{ACAD_REACTORS
330
BB1
102
}
330
17
100
AcDbEntity
  8
图例及图签
 62
     3
 48
2.0
370
     0
100
AcDbLine
 10
1019.582573163396
 20
287.1318900110459
 30
0.0
 11
1042.569302530611
 21
281.5681770002157
 31
0.0
1001
AcDbBlockRepETag
1070
     1
1071
        4
1005
BAE
  0
LINE
  5
BAF
102
{ACAD_REACTORS
330
BB1
102
}
330
17
100
AcDbEntity
  8
图例及图签
  6
DASH
 62
     3
 48
1.000000000000000E+16
100
AcDbLine
 10
1042.569302530611
 20
292.6956030218762
 30
0.0
 11
1038.206987551866
 21
287.1308857046429
 31
0.0
1001
AcDbBlockRepETag
1070
     1
1071
        5
1005
BAF
  0
LINE
  5
BB0
102
{ACAD_REACTORS
330
BB1
102
}
330
17
100
AcDbEntity
  8
图例及图签
  6
DASH
 62
     3
 48
1.000000000000000E+16
100
AcDbLine
 10
1038.206987551866
 20
287.1308857046429
 30
0.0
 11
1042.569302530611
 21
281.5681770002157
 31
0.0
1001
AcDbBlockRepETag
1070
     1
1071
        6
1005
BB0
  0
HATCH
  5
BB1
330
17
100
AcDbEntity
  8
图例及图签
  6
DASH
 62
     3
 48
1.000000000000000E+16
100
AcDbHatch
 10
0.0
 20
0.0
 30
0.0
210
0.0
220
0.0
230
1.0
  2
SOLID
 70
     1
 71
     1
 91
        2
 92
        7
 72
     0
 73
     1
 93
        4
 10
1038.206987551866
 20
287.1308857046432
 10
1042.569302530611
 20
292.6956030218762
 10
1019.582573163396
 20
287.1318900110459
 10
1019.587673039353
 20
287.1306556359522
 97
        4
330
BAF
330
BAD
330
BAE
330
BAC
 92
        7
 72
     0
 73
     1
 93
        3
 10
1042.569302530611
 20
281.5681770002157
 10
1038.206987551866
 20
287.1308857046433
 10
1019.587673039353
 20
287.1306556359522
 97
        3
330
BB0
330
BAC
330
BAE
 75
     0
 76
     1
 47
0.0524821823897721
 98
        2
 10
-49487.90545677443
 20
13088.01993477897
 10
-49487.53779091648
 20
13085.76321082683
1001
ACAD
1010
0.0
1020
0.0
1030
0.0
1001
AcDbBlockRepETag
1070
     1
1071
        7
1005
BB1
  0
LWPOLYLINE
  5
BB2
330
17
100
AcDbEntity
  8
图例及图签
 48
1.000000000000000E+16
100
AcDbPolyline
 90
        4
 70
     1
 43
0.0
 10
988.6692800973767
 20
327.5267386496166
 10
1143.576471663466
 20
327.5267386496166
 10
1143.576471663466
 20
247.0550721753743
 10
988.6692800973767
 20
247.0550721753743
  0
TEXT
  5
BB3
330
17
100
AcDbEntity
  8
图例及图签
370
     0
100
AcDbText
 10
1009.516757837884
 20
208.2729569535882
 30
0.0
 40
20.0
  1
进风风流
 50
359.9999997865572
  7
样式 3
100
AcDbText
1001
ZWMCAD_GENSCA_13_
1070
     1
1040
1.0
1001
ZWMCAD_GENSTANDARDFRAME_13_
1070
   410
1000
GB
1070
   411
1000
ZwmFrameMain_
  0
TEXT
  5
BB4
330
17
100
AcDbEntity
  8
图例及图签
370
     0
100
AcDbText
 10
1012.204667157328
 20
58.27295695358817
 30
0.0
 40
20.0
  1
局部风机
 50
359.9999997865572
  7
样式 3
100
AcDbText
1001
ZWMCAD_GENSCA_13_
1070
     1
1040
1.0
1001
ZWMCAD_GENSTANDARDFRAME_13_
1070
   410
1000
GB
1070
   411
1000
ZwmFrameMain_
  0
LWPOLYLINE
  5
BB5
330
17
100
AcDbEntity
  8
图例及图签
 48
1.000000000000000E+16
100
AcDbPolyline
 90
        4
 70
     1
 43
0.0
 10
988.6692800973767
 20
177.5267386496166
 10
1143.576471663466
 20
177.5267386496166
 10
1143.576471663466
 20
97.05507217537572
 10
988.6692800973767
 20
97.05507217537572
  0
LWPOLYLINE
  5
BB6
330
17
100
AcDbEntity
  8
图例及图签
 48
1.000000000000000E+16
100
AcDbPolyline
 90
        4
 70
     1
 43
0.0
 10
1188.669280097376
 20
477.5267386496166
 10
1343.576471663467
 20
477.5267386496166
 10
1343.576471663467
 20
397.0550721753743
 10
1188.669280097376
 20
397.0550721753743
  0
LINE
  5
BB7
330
17
100
AcDbEntity
  8
图例及图签
  6
ByBlock
 62
    30
370
    50
100
AcDbLine
 10
1276.76955657146
 20
465.1791498754277
 30
0.0
 11
1326.330738221011
 21
465.1791498754136
 31
0.0
  0
LINE
  5
BB8
330
17
100
AcDbEntity
  8
图例及图签
  6
ByBlock
 62
    30
370
    50
100
AcDbLine
 10
1201.247753326483
 20
419.2102830707998
 30
0.0
 11
1234.878561113664
 21
419.2102830707998
 31
0.0
  0
LINE
  5
BB9
330
17
100
AcDbEntity
  8
图例及图签
  6
ByBlock
 62
    30
370
    50
100
AcDbLine
 10
1326.330738221011
 20
465.1791498754136
 30
0.0
 11
1297.420053575836
 21
436.3012867141486
 31
0.0
  0
LINE
  5
BBA
330
17
100
AcDbEntity
  8
图例及图签
  6
ByBlock
 62
    30
370
    50
100
AcDbLine
 10
1272.639462758504
 20
442.1947164721755
 30
0.0
 11
1276.76955657146
 21
465.1791498754277
 31
0.0
  0
ARC
  5
BBB
330
17
100
AcDbEntity
  8
图例及图签
  6
ByBlock
 62
    30
370
    50
100
AcDbCircle
 10
1234.288559619971
 20
490.8699805196333
 30
0.0
 40
83.44655696549727
100
AcDbArc
 50
270.0
 51
319.1609914701359
  0
ARC
  5
BBC
330
17
100
AcDbEntity
  8
图例及图签
  6
ByBlock
 62
    30
370
    50
100
AcDbCircle
 10
1234.878561113664
 20
461.7210083957724
 30
0.0
 40
42.51072532369508
100
AcDbArc
 50
270.0
 51
332.6563597520774
  0
LINE
  5
BBD
330
17
100
AcDbEntity
  8
图例及图签
  6
ByBlock
 62
    30
370
    50
100
AcDbLine
 10
1234.288559619971
 20
407.4234235547447
 30
0.0
 11
1200.928592537887
 21
407.4234235547447
 31
0.0
  0
TEXT
  5
BBE
330
17
100
AcDbEntity
  8
图例及图签
370
     0
100
AcDbText
 10
1218.929041365766
 20
358.2729569535882
 30
0.0
 40
20.0
  1
扩散器
 50
359.9999997865572
  7
样式 3
100
AcDbText
1001
ZWMCAD_GENSCA_13_
1070
     1
1040
1.0
1001
ZWMCAD_GENSTANDARDFRAME_13_
1070
   410
1000
GB
1070
   411
1000
ZwmFrameMain_
  0
LWPOLYLINE
  5
BBF
330
17
100
AcDbEntity
  8
图例及图签
 48
1.000000000000000E+16
100
AcDbPolyline
 90
        4
 70
     1
 43
0.0
 10
1188.669280097376
 20
327.5267386496166
 10
1343.576471663467
 20
327.5267386496166
 10
1343.576471663467
 20
247.0550721753743
 10
1188.669280097376
 20
247.0550721753743
  0
TEXT
  5
BC0
330
17
100
AcDbEntity
  8
图例及图签
370
     0
100
AcDbText
 10
1181.027142243672
 20
208.2729569535882
 30
0.0
 40
20.0
  1
临时单向风门
 50
359.9999997865572
  7
样式 3
100
AcDbText
1001
ZWMCAD_GENSCA_13_
1070
     1
1040
1.0
1001
ZWMCAD_GENSTANDARDFRAME_13_
1070
   410
1000
GB
1070
   411
1000
ZwmFrameMain_
  0
LWPOLYLINE
  5
BC1
330
17
100
AcDbEntity
  8
图例及图签
 48
1.000000000000000E+16
100
AcDbPolyline
 90
        4
 70
     1
 43
0.0
 10
1188.669280097376
 20
177.5267386496166
 10
1343.576471663467
 20
177.5267386496166
 10
1343.576471663467
 20
97.05507217537572
 10
1188.669280097376
 20
97.05507217537572
  0
TEXT
  5
BC2
330
17
100
AcDbEntity
  8
图例及图签
370
     0
100
AcDbText
 10
1209.516757837883
 20
58.27295695358817
 30
0.0
 40
20.0
  1
临时密闭
 50
359.9999997865572
  7
样式 3
100
AcDbText
1001
ZWMCAD_GENSCA_13_
1070
     1
1040
1.0
1001
ZWMCAD_GENSTANDARDFRAME_13_
1070
   410
1000
GB
1070
   411
1000
ZwmFrameMain_
  0
LWPOLYLINE
  5
BC3
330
17
100
AcDbEntity
  8
图例及图签
 48
1.000000000000000E+16
100
AcDbPolyline
 90
        4
 70
     1
 43
0.0
 10
1388.669280097376
 20
477.5267386496166
 10
1543.576471663467
 20
477.5267386496166
 10
1543.576471663467
 20
397.0550721753743
 10
1388.669280097376
 20
397.0550721753743
  0
ARC
  5
BC4
330
17
100
AcDbEntity
  8
图例及图签
 62
     4
 48
1.000000000000000E+16
100
AcDbCircle
 10
1471.516510146198
 20
437.1238766403583
 30
0.0
 40
19.92082388687595
100
AcDbArc
 50
270.0
 51
90.0
  0
LINE
  5
BC5
330
17
100
AcDbEntity
  8
图例及图签
 62
     4
 48
1.000000000000000E+16
100
AcDbLine
 10
1471.516510146198
 20
417.2030527534992
 30
0.0
 11
1471.516510146198
 21
397.3098400770659
 31
0.0
  0
LINE
  5
BC6
330
17
100
AcDbEntity
  8
图例及图签
 62
     4
 48
1.000000000000000E+16
100
AcDbLine
 10
1471.516510146198
 20
476.9379132036743
 30
0.0
 11
1471.516510146198
 21
457.0447005272406
 31
0.0
  0
TEXT
  5
BC7
330
17
100
AcDbEntity
  8
图例及图签
370
     0
100
AcDbText
 10
1381.966360340179
 20
358.2729569535882
 30
0.0
 40
20.0
  1
临时调节风门
 50
359.9999997865572
  7
样式 3
100
AcDbText
1001
ZWMCAD_GENSCA_13_
1070
     1
1040
1.0
1001
ZWMCAD_GENSTANDARDFRAME_13_
1070
   410
1000
GB
1070
   411
1000
ZwmFrameMain_
  0
LINE
  5
BC8
330
17
100
AcDbEntity
  8
图例及图签
  6
井田边界
 62
     4
 48
100.0
370
    -3
100
AcDbLine
 10
1427.531655582694
 20
296.1877325427709
 30
0.0
 11
1510.568211111335
 21
296.5644834254858
 31
0.0
  0
LWPOLYLINE
  5
BC9
330
17
100
AcDbEntity
  8
图例及图签
  6
井田边界
 62
     4
 48
100.0
370
    -3
100
AcDbPolyline
 90
        4
 70
     0
 43
0.0
 10
1493.18162831953
 20
296.4970382255483
 10
1481.489850896506
 20
278.557456514704
 10
1456.885762843398
 20
278.4689648252897
 10
1445.095116245656
 20
296.2788617675173
  0
LWPOLYLINE
  5
BCA
330
17
100
AcDbEntity
  8
图例及图签
  6
井田边界
 62
     4
 48
100.0
370
    -3
100
AcDbPolyline
 90
        4
 70
     0
 43
0.0
 10
1433.141679789035
 20
296.2193506238041
 10
1451.526010963229
 20
268.4496231329617
 10
1486.921534809379
 20
268.5769275714633
 10
1505.153330522684
 20
296.5513558191228
  0
LINE
  5
BCB
330
17
100
AcDbEntity
  8
图例及图签
  6
井田边界
 62
     4
 48
100.0
370
    -3
100
AcDbLine
 10
1427.531655559368
 20
296.1877325427709
 30
0.0
 11
1510.568211088008
 21
296.5644834254858
 31
0.0
  0
LWPOLYLINE
  5
BCC
330
17
100
AcDbEntity
  8
图例及图签
  6
井田边界
 62
     4
 48
100.0
370
    -3
100
AcDbPolyline
 90
        4
 70
     0
 43
0.0
 10
1493.181628296203
 20
296.4970382255483
 10
1481.489850873179
 20
278.557456514704
 10
1456.885762820072
 20
278.4689648252897
 10
1445.095116222328
 20
296.2788617675173
  0
LWPOLYLINE
  5
BCD
330
17
100
AcDbEntity
  8
图例及图签
  6
井田边界
 62
     4
 48
100.0
370
    -3
100
AcDbPolyline
 90
        4
 70
     0
 43
0.0
 10
1433.141679765708
 20
296.2193506238041
 10
1451.526010939903
 20
268.4496231329617
 10
1486.921534786052
 20
268.5769275714633
 10
1505.153330499358
 20
296.5513558191228
  0
LWPOLYLINE
  5
BCE
330
17
100
AcDbEntity
  8
图例及图签
 48
1.000000000000000E+16
100
AcDbPolyline
 90
        4
 70
     1
 43
0.0
 10
1388.669280097376
 20
327.5267386496166
 10
1543.576471663467
 20
327.5267386496166
 10
1543.576471663467
 20
247.0550721753743
 10
1388.669280097376
 20
247.0550721753743
  0
TEXT
  5
BCF
330
17
100
AcDbEntity
  8
图例及图签
370
     0
100
AcDbText
 10
1435.525874356681
 20
208.2729569535882
 30
0.0
 40
20.0
  1
水仓
 50
359.9999997865572
  7
样式 3
100
AcDbText
1001
ZWMCAD_GENSCA_13_
1070
     1
1040
1.0
1001
ZWMCAD_GENSTANDARDFRAME_13_
1070
   410
1000
GB
1070
   411
1000
ZwmFrameMain_
  0
LWPOLYLINE
  5
BD0
330
17
100
AcDbEntity
  8
图例及图签
 48
1.000000000000000E+16
100
AcDbPolyline
 90
        4
 70
     1
 43
0.0
 10
1388.669280097376
 20
177.5267386496166
 10
1543.576471663467
 20
177.5267386496166
 10
1543.576471663467
 20
97.05507217537572
 10
1388.669280097376
 20
97.05507217537572
  0
TEXT
  5
BD1
330
17
100
AcDbEntity
  8
图例及图签
370
     0
100
AcDbText
 10
1409.516757837883
 20
58.27295695358817
 30
0.0
 40
20.0
  1
调节风窗
 50
359.9999997865572
  7
样式 3
100
AcDbText
1001
ZWMCAD_GENSCA_13_
1070
     1
1040
1.0
1001
ZWMCAD_GENSTANDARDFRAME_13_
1070
   410
1000
GB
1070
   411
1000
ZwmFrameMain_
  0
TEXT
  5
BD2
330
17
100
AcDbEntity
  8
图例及图签
370
     0
100
AcDbText
 10
1612.204667157326
 20
358.2729569535882
 30
0.0
 40
20.0
  1
网络节点
 50
359.9999997865572
  7
样式 3
100
AcDbText
1001
ZWMCAD_GENSCA_13_
1070
     1
1040
1.0
1001
ZWMCAD_GENSTANDARDFRAME_13_
1070
   410
1000
GB
1070
   411
1000
ZwmFrameMain_
  0
CIRCLE
  5
BD3
330
17
100
AcDbEntity
  8
图例及图签
 62
     6
370
    -3
100
AcDbCircle
 10
1666.854640371778
 20
437.6093266855355
 30
348.0
 40
34.32009048847645
  0
LWPOLYLINE
  5
BD4
330
17
100
AcDbEntity
  8
图例及图签
 48
1.000000000000000E+16
100
AcDbPolyline
 90
        4
 70
     1
 43
0.0
 10
1588.669280097376
 20
477.5267386496166
 10
1743.576471663467
 20
477.5267386496166
 10
1743.576471663467
 20
397.0550721753743
 10
1588.669280097376
 20
397.0550721753743
  0
LWPOLYLINE
  5
BD5
330
17
100
AcDbEntity
  8
图例及图签
 48
1.000000000000000E+16
100
AcDbPolyline
 90
        4
 70
     1
 43
0.0
 10
1588.669280097376
 20
327.5267386496166
 10
1743.576471663467
 20
327.5267386496166
 10
1743.576471663467
 20
247.0550721753743
 10
1588.669280097376
 20
247.0550721753743
  0
TEXT
  5
BD6
330
17
100
AcDbEntity
  8
图例及图签
370
     0
100
AcDbText
 10
1592.864256211609
 20
208.2729569535882
 30
0.0
 40
20.0
  1
消防材料库
 50
359.9999997865572
  7
样式 3
100
AcDbText
1001
ZWMCAD_GENSCA_13_
1070
     1
1040
1.0
1001
ZWMCAD_GENSTANDARDFRAME_13_
1070
   410
1000
GB
1070
   411
1000
ZwmFrameMain_
  0
ARC
  5
BD7
330
17
100
AcDbEntity
  8
图例及图签
 62
     4
370
     0
100
AcDbCircle
 10
1665.978730403993
 20
283.3219896381816
 30
0.0
 40
16.53915435355398
100
AcDbArc
 50
21.85456256474907
 51
152.4459081594945
1001
AcDbBlockRepETag
1000

  0
LINE
  5
BD8
330
17
100
AcDbEntity
  8
图例及图签
 62
     4
 48
1.000000000000000E+16
370
    -3
100
AcDbLine
 10
1651.315537737305
 20
290.9727678698655
 30
0.0
 11
1650.662925538316
 21
271.6349143321973
 31
0.0
  0
LINE
  5
BD9
330
17
100
AcDbEntity
  8
图例及图签
 62
     4
 48
1.000000000000000E+16
370
    -3
100
AcDbLine
 10
1650.890814121871
 20
278.3875862232349
 30
0.0
 11
1658.296684374655
 21
277.9358418235024
 31
0.0
  0
LINE
  5
BDA
330
17
100
AcDbEntity
  8
图例及图签
 62
     4
 48
1.000000000000000E+16
370
    -3
100
AcDbLine
 10
1658.296684374655
 20
277.9358418235024
 30
0.0
 11
1657.960745908029
 21
271.1904352603415
 31
0.0
  0
LINE
  5
BDB
330
17
100
AcDbEntity
  8
图例及图签
 62
     4
 48
1.000000000000000E+16
370
    -3
100
AcDbLine
 10
1650.662925538316
 20
271.6349143321973
 30
0.0
 11
1680.718560099662
 21
270.4755263962547
 31
0.0
  0
LINE
  5
BDC
330
17
100
AcDbEntity
  8
图例及图签
 62
     4
 48
1.000000000000000E+16
370
    -3
100
AcDbLine
 10
1680.718560099662
 20
270.4755263962547
 30
0.0
 11
1681.329244738445
 21
289.4787206213186
 31
0.0
  0
LWPOLYLINE
  5
BDD
330
17
100
AcDbEntity
  8
图例及图签
 48
1.000000000000000E+16
100
AcDbPolyline
 90
        4
 70
     1
 43
0.0
 10
1588.669280097376
 20
177.5267386496166
 10
1743.576471663467
 20
177.5267386496166
 10
1743.576471663467
 20
97.05507217537572
 10
1588.669280097376
 20
97.05507217537572
  0
TEXT
  5
BDE
330
17
100
AcDbEntity
  8
图例及图签
370
     0
100
AcDbText
 10
1635.525874356682
 20
58.27295695358817
 30
0.0
 40
20.0
  1
斜井
 50
359.9999997865572
  7
样式 3
100
AcDbText
1001
ZWMCAD_GENSCA_13_
1070
     1
1040
1.0
1001
ZWMCAD_GENSTANDARDFRAME_13_
1070
   410
1000
GB
1070
   411
1000
ZwmFrameMain_
  0
TEXT
  5
BDF
330
17
100
AcDbEntity
  8
图例及图签
370
     0
100
AcDbText
 10
1833.344599132026
 20
358.2729569535882
 30
0.0
 40
20.0
  1
岩巷
 50
359.9999997865572
  7
样式 3
100
AcDbText
1001
ZWMCAD_GENSCA_13_
1070
     1
1040
1.0
1001
ZWMCAD_GENSTANDARDFRAME_13_
1070
   410
1000
GB
1070
   411
1000
ZwmFrameMain_
  0
LINE
  5
BE0
330
17
100
AcDbEntity
  8
图例及图签
 62
    30
370
    -3
100
AcDbLine
 10
1921.78514248247
 20
445.0516594255494
 30
0.0
 11
1812.283032421438
 21
445.0516594255494
 31
0.0
  0
LINE
  5
BE1
330
17
100
AcDbEntity
  8
图例及图签
 62
    30
370
    -3
100
AcDbLine
 10
1921.78514248247
 20
430.4315315886165
 30
0.0
 11
1812.283032421438
 21
430.4315315886165
 31
0.0
  0
LWPOLYLINE
  5
BE2
330
17
100
AcDbEntity
  8
图例及图签
 48
1.000000000000000E+16
100
AcDbPolyline
 90
        4
 70
     1
 43
0.0
 10
1788.669280097376
 20
477.5267386496166
 10
1943.576471663467
 20
477.5267386496166
 10
1943.576471663467
 20
397.0550721753743
 10
1788.669280097376
 20
397.0550721753743
  0
LINE
  5
BE3
330
17
100
AcDbEntity
  8
图例及图签
 62
     4
 48
1.000000000000000E+16
370
    -3
100
AcDbLine
 10
1843.56572685454
 20
304.4545189251408
 30
0.0
 11
1843.56572685454
 21
265.8395814728024
 31
0.0
  0
LINE
  5
BE4
330
17
100
AcDbEntity
  8
图例及图签
 62
     4
 48
1.000000000000000E+16
370
    -3
100
AcDbLine
 10
1882.98004671008
 20
265.8395814728024
 30
0.0
 11
1843.56572685454
 21
265.8395814728024
 31
0.0
  0
LINE
  5
BE5
330
17
100
AcDbEntity
  8
图例及图签
 62
     4
 48
1.000000000000000E+16
370
    -3
100
AcDbLine
 10
1882.98004671008
 20
304.4545189251408
 30
0.0
 11
1882.98004671008
 21
265.8395814728024
 31
0.0
  0
ARC
  5
BE6
330
17
100
AcDbEntity
  8
图例及图签
 62
     4
 48
1.000000000000000E+16
100
AcDbCircle
 10
1863.272886782295
 20
297.7504870831658
 30
0.0
 40
20.81624834970603
100
AcDbArc
 50
18.78740803693522
 51
161.2125919630648
  0
LINE
  5
BE7
330
17
100
AcDbEntity
  8
图例及图签
 62
     4
 48
1.000000000000000E+16
370
    -3
100
AcDbLine
 10
1888.031994185142
 20
259.4993587071694
 30
0.0
 11
1838.764094365754
 21
259.4993587071694
 31
0.0
  0
LINE
  5
BE8
330
17
100
AcDbEntity
  8
图例及图签
 62
     4
 48
1.000000000000000E+16
370
    -3
100
AcDbLine
 10
1838.764094365754
 20
307.7680305225986
 30
0.0
 11
1838.764094365754
 21
259.4993587071694
 31
0.0
  0
LINE
  5
BE9
330
17
100
AcDbEntity
  8
图例及图签
 62
     4
 48
1.000000000000000E+16
370
    -3
100
AcDbLine
 10
1888.031994185142
 20
307.7680305225986
 30
0.0
 11
1888.031994185142
 21
259.4993587071694
 31
0.0
  0
ARC
  5
BEA
330
17
100
AcDbEntity
  8
图例及图签
 62
     4
 48
1.000000000000000E+16
100
AcDbCircle
 10
1863.398044275462
 20
299.3879907201235
 30
0.0
 40
26.02031043713254
100
AcDbArc
 50
18.78740803693522
 51
161.2125919630648
  0
LWPOLYLINE
  5
BEB
330
17
100
AcDbEntity
  8
图例及图签
 48
1.000000000000000E+16
100
AcDbPolyline
 90
        4
 70
     1
 43
0.0
 10
1788.669280097376
 20
327.5267386496166
 10
1943.576471663467
 20
327.5267386496166
 10
1943.576471663467
 20
247.0550721753743
 10
1788.669280097376
 20
247.0550721753743
  0
TEXT
  5
BEC
330
17
100
AcDbEntity
  8
图例及图签
370
     0
100
AcDbText
 10
1781.34021494251
 20
208.2729569535882
 30
0.0
 40
20.0
  1
永久避难硐室
 50
359.9999997865572
  7
样式 3
100
AcDbText
1001
ZWMCAD_GENSCA_13_
1070
     1
1040
1.0
1001
ZWMCAD_GENSTANDARDFRAME_13_
1070
   410
1000
GB
1070
   411
1000
ZwmFrameMain_
  0
LWPOLYLINE
  5
BED
330
17
100
AcDbEntity
  8
图例及图签
 48
1.000000000000000E+16
100
AcDbPolyline
 90
        4
 70
     1
 43
0.0
 10
1788.669280097376
 20
177.5267386496166
 10
1943.576471663467
 20
177.5267386496166
 10
1943.576471663467
 20
97.05507217537572
 10
1788.669280097376
 20
97.05507217537572
  0
TEXT
  5
BEE
330
17
100
AcDbEntity
  8
图例及图签
370
     0
100
AcDbText
 10
1809.516757837883
 20
58.27295695358817
 30
0.0
 40
20.0
  1
永久密闭
 50
359.9999997865572
  7
样式 3
100
AcDbText
1001
ZWMCAD_GENSCA_13_
1070
     1
1040
1.0
1001
ZWMCAD_GENSTANDARDFRAME_13_
1070
   410
1000
GB
1070
   411
1000
ZwmFrameMain_
  0
LWPOLYLINE
  5
BEF
330
17
100
AcDbEntity
  8
图例及图签
 48
1.000000000000000E+16
100
AcDbPolyline
 90
        4
 70
     1
 43
0.0
 10
1988.669280097376
 20
477.5267386496166
 10
2143.576471663467
 20
477.5267386496166
 10
2143.576471663467
 20
397.0550721753743
 10
1988.669280097376
 20
397.0550721753743
  0
TEXT
  5
BF0
330
17
100
AcDbEntity
  8
图例及图签
370
     0
100
AcDbText
 10
1983.018275709482
 20
358.2729569535882
 30
0.0
 40
20.0
  1
永久双向风门
 50
359.9999997865572
  7
样式 3
100
AcDbText
1001
ZWMCAD_GENSCA_13_
1070
     1
1040
1.0
1001
ZWMCAD_GENSTANDARDFRAME_13_
1070
   410
1000
GB
1070
   411
1000
ZwmFrameMain_
  0
LINE
  5
BF1
330
17
100
AcDbEntity
  8
图例及图签
 62
     4
 48
1.000000000000000E+16
370
    -3
100
AcDbLine
 10
2071.864345925483
 20
260.9530558668735
 30
0.0
 11
2071.179518068355
 21
312.4954325453919
 31
0.0
  0
ARC
  5
BF2
330
17
100
AcDbEntity
  8
图例及图签
 62
     4
 48
1.000000000000000E+16
100
AcDbCircle
 10
2079.750000840141
 20
286.5773608547356
 30
0.0
 40
19.92082388687595
100
AcDbArc
 50
270.7612267750186
 51
90.76122677543578
  0
LINE
  5
BF3
330
17
100
AcDbEntity
  8
图例及图签
 62
     4
 48
1.000000000000000E+16
100
AcDbLine
 10
2080.014659398585
 20
266.6582951091082
 30
0.0
 11
2080.278951127665
 21
246.7668381370208
 31
0.0
  0
LINE
  5
BF4
330
17
100
AcDbEntity
  8
图例及图签
 62
     4
 48
1.000000000000000E+16
100
AcDbLine
 10
2079.221050552646
 20
326.3878835724508
 30
0.0
 11
2079.485342281726
 21
306.4964266003848
 31
0.0
  0
LWPOLYLINE
  5
BF5
330
17
100
AcDbEntity
  8
图例及图签
 48
1.000000000000000E+16
100
AcDbPolyline
 90
        4
 70
     1
 43
0.0
 10
1988.669280097376
 20
327.5267386496166
 10
2143.576471663467
 20
327.5267386496166
 10
2143.576471663467
 20
247.0550721753743
 10
1988.669280097376
 20
247.0550721753743
  0
TEXT
  5
BF6
330
17
100
AcDbEntity
  8
图例及图签
370
     0
100
AcDbText
 10
1982.592505737871
 20
208.2729569535882
 30
0.0
 40
20.0
  1
永久调节风门
 50
359.9999997865572
  7
样式 3
100
AcDbText
1001
ZWMCAD_GENSCA_13_
1070
     1
1040
1.0
1001
ZWMCAD_GENSTANDARDFRAME_13_
1070
   410
1000
GB
1070
   411
1000
ZwmFrameMain_
  0
TEXT
  5
BF7
330
17
100
AcDbEntity
  8
图例及图签
370
     0
100
AcDbText
 10
2009.516757837883
 20
58.27295695358817
 30
0.0
 40
20.0
  1
主通风机
 50
359.9999997865572
  7
样式 3
100
AcDbText
1001
ZWMCAD_GENSCA_13_
1070
     1
1040
1.0
1001
ZWMCAD_GENSTANDARDFRAME_13_
1070
   410
1000
GB
1070
   411
1000
ZwmFrameMain_
  0
LWPOLYLINE
  5
BF8
330
17
100
AcDbEntity
  8
图例及图签
 48
1.000000000000000E+16
100
AcDbPolyline
 90
        4
 70
     1
 43
0.0
 10
1988.669280097376
 20
177.5267386496166
 10
2143.576471663467
 20
177.5267386496166
 10
2143.576471663467
 20
97.05507217537572
 10
1988.669280097376
 20
97.05507217537572
  0
HATCH
  5
BF9
330
17
100
AcDbEntity
  8
图例及图签
 62
     4
100
AcDbHatch
 10
0.0
 20
0.0
 30
0.0
210
0.0
220
0.0
230
1.0
  2
SOLID
 70
     1
 71
     0
 91
        6
 92
        7
 72
     1
 73
     1
 93
        3
 10
2236.286249276878
 20
448.2866900460698
 42
0.0
 10
2236.295750731763
 20
438.4773929938496
 42
0.5328313658465285
 10
2240.830263011639
 20
445.2396451064528
 42
0.3047749703989014
 97
        0
 92
        7
 72
     1
 73
     1
 93
        3
 10
2236.286249276965
 20
448.2866900460772
 42
0.5328313658502275
 10
2231.751736997001
 20
441.5244379334798
 42
0.3047749704027205
 10
2236.295750731821
 20
438.4773929938638
 42
0.0
 97
        0
 92
        7
 72
     1
 73
     1
 93
        3
 10
2236.310658421587
 20
423.0867018935355
 42
0.0
 10
2236.315409149001
 20
418.1820533731625
 42
0.0456552623281088
 10
2240.729817965578
 20
420.3194804179769
 42
0.2877823778379751
 97
        0
 92
        7
 72
     1
 73
     1
 93
        3
 10
2236.310658421587
 20
423.0867018935208
 42
0.4142135633055914
 10
2231.410760607294
 20
418.1773026399578
 42
0.0
 10
2236.315409149029
 20
418.1820533674008
 42
0.0
 97
        0
 92
        7
 72
     1
 73
     1
 93
        4
 10
2240.85467214069
 20
420.0396569538974
 42
0.0156223712422233
 10
2240.729817965519
 20
420.3194804181075
 42
-0.0456552624830197
 10
2236.3154091334
 20
418.1820533674008
 42
0.0
 10
2241.220057659477
 20
418.1868040948357
 42
0.0971714774831682
 97
        0
 92
        7
 72
     1
 73
     1
 93
        3
 10
2241.220057659477
 20
418.1868040948357
 42
0.0
 10
2231.410760607294
 20
418.1773026399578
 42
0.0971714774825364
 10
2231.776146126083
 20
416.324449780911
 42
0.822869114844493
 97
        0
 75
     0
 76
     1
 47
0.0038336387745525
 98
        6
 10
2238.266989239246
 20
444.7055045577108
 10
2234.466000678324
 20
443.1500251832734
 10
2238.374466325957
 20
421.1691140140068
 10
2234.181165515082
 20
419.777572852025
 10
2240.321135091698
 20
419.1959285192247
 10
2236.152318197259
 20
416.0731563289126
1001
ACAD
1010
0.0
1020
0.0
1030
0.0
1001
AcDbBlockRepETag
1070
     1
1071
        0
1005
BF9
  0
LINE
  5
BFA
330
17
100
AcDbEntity
  8
图例及图签
 62
     4
100
AcDbLine
 10
2236.266590859699
 20
468.5820296667915
 30
0.0
 11
2236.315409149001
 21
418.1820533731625
 31
0.0
1001
AcDbBlockRepETag
1070
     1
1071
        1
1005
BFA
  0
ARC
  5
BFB
330
17
100
AcDbEntity
  8
图例及图签
 62
     4
100
AcDbCircle
 10
2226.842843927313
 20
443.3728898725425
 30
0.0
 40
26.91296593487618
100
AcDbArc
 50
290.6078761094228
 51
69.50311922335422
1001
AcDbBlockRepETag
1070
     1
1071
        2
1005
BFB
  0
CIRCLE
  5
BFC
330
17
100
AcDbEntity
  8
图例及图签
 62
     4
100
AcDbCircle
 10
2236.291000004321
 20
443.3820415199624
 30
0.0
 40
4.904650826929249
1001
AcDbBlockRepETag
1070
     1
1071
        3
1005
BFC
  0
CIRCLE
  5
BFD
330
17
100
AcDbEntity
  8
图例及图签
 62
     4
100
AcDbCircle
 10
2236.3154091334
 20
418.1820533674008
 30
0.0
 40
4.904650826929249
1001
AcDbBlockRepETag
1070
     1
1071
        4
1005
BFD
  0
HATCH
  5
BFE
330
17
100
AcDbEntity
  8
图例及图签
 62
     4
100
AcDbHatch
 10
0.0
 20
0.0
 30
0.0
210
0.0
220
0.0
230
1.0
  2
SOLID
 70
     1
 71
     0
 91
        6
 92
        7
 72
     1
 73
     1
 93
        3
 10
2280.559807180238
 20
447.5219784409746
 42
0.0
 10
2280.569308635124
 20
437.7126813887556
 42
0.5328313658465285
 10
2285.103820914971
 20
444.4749335013589
 42
0.3047749703989014
 97
        0
 92
        7
 72
     1
 73
     1
 93
        3
 10
2280.559807180297
 20
447.5219784409818
 42
0.5328313658502275
 10
2276.025294900364
 20
440.759726328386
 42
0.3047749704027205
 10
2280.569308635183
 20
437.7126813887698
 42
0.0
 97
        0
 92
        7
 72
     1
 73
     1
 93
        3
 10
2280.584216324949
 20
422.3219902884416
 42
0.0
 10
2280.588967052363
 20
417.4173417680686
 42
0.0456552623281088
 10
2285.00337586894
 20
419.5547688128827
 42
0.2877823778379751
 97
        0
 92
        7
 72
     1
 73
     1
 93
        3
 10
2280.584216324949
 20
422.3219902884269
 42
0.4142135633055914
 10
2275.684318510627
 20
417.4125910348633
 42
0.0
 10
2280.588967052391
 20
417.4173417623069
 42
0.0
 97
        0
 92
        7
 72
     1
 73
     1
 93
        4
 10
2285.128230044051
 20
419.2749453488026
 42
0.0156223712422233
 10
2285.003375868882
 20
419.5547688130136
 42
-0.0456552624830197
 10
2280.588967036762
 20
417.4173417623069
 42
0.0
 10
2285.493615562839
 20
417.4220924897416
 42
0.0971714774831682
 97
        0
 92
        7
 72
     1
 73
     1
 93
        3
 10
2285.493615562839
 20
417.4220924897416
 42
0.0
 10
2275.684318510627
 20
417.4125910348633
 42
0.0971714774825364
 10
2276.049704029443
 20
415.5597381758156
 42
0.822869114844493
 97
        0
 75
     0
 76
     1
 47
0.0038336387745525
 98
        6
 10
2282.540547142607
 20
443.9407929526173
 10
2278.739558581685
 20
442.3853135781796
 10
2282.648024229319
 20
420.4044024089125
 10
2278.454723418415
 20
419.0128612469311
 10
2284.59469299506
 20
418.4312169141308
 10
2280.425876100621
 20
415.3084447238188
1001
ACAD
1010
0.0
1020
0.0
1030
0.0
1001
AcDbBlockRepETag
1070
     1
1071
        0
1005
BFE
  0
LINE
  5
BFF
330
17
100
AcDbEntity
  8
图例及图签
 62
     4
100
AcDbLine
 10
2280.540148763059
 20
467.8173180616976
 30
0.0
 11
2280.588967052363
 21
417.4173417680686
 31
0.0
1001
AcDbBlockRepETag
1070
     1
1071
        1
1005
BFF
  0
ARC
  5
C00
330
17
100
AcDbEntity
  8
图例及图签
 62
     4
100
AcDbCircle
 10
2271.116401830674
 20
442.6081782674486
 30
0.0
 40
26.91296593487618
100
AcDbArc
 50
290.6078761094228
 51
69.50311922335422
1001
AcDbBlockRepETag
1070
     1
1071
        2
1005
C00
  0
CIRCLE
  5
C01
330
17
100
AcDbEntity
  8
图例及图签
 62
     4
100
AcDbCircle
 10
2280.564557907682
 20
442.6173299148684
 30
0.0
 40
4.904650826929249
1001
AcDbBlockRepETag
1070
     1
1071
        3
1005
C01
  0
CIRCLE
  5
C02
330
17
100
AcDbEntity
  8
图例及图签
 62
     4
100
AcDbCircle
 10
2280.588967036762
 20
417.4173417623069
 30
0.0
 40
4.904650826929249
1001
AcDbBlockRepETag
1070
     1
1071
        4
1005
C02
  0
LWPOLYLINE
  5
C03
330
17
100
AcDbEntity
  8
图例及图签
 48
1.000000000000000E+16
100
AcDbPolyline
 90
        4
 70
     1
 43
0.0
 10
2188.669280097377
 20
479.5151602007613
 10
2343.576471663467
 20
479.5151602007613
 10
2343.576471663467
 20
399.0434937265209
 10
2188.669280097377
 20
399.0434937265209
  0
TEXT
  5
C04
330
17
100
AcDbEntity
  8
图例及图签
370
     0
100
AcDbText
 10
2209.516757837883
 20
360.2613785047329
 30
0.0
 40
20.0
  1
自动风门
 50
359.9999997865572
  7
样式 3
100
AcDbText
1001
ZWMCAD_GENSCA_13_
1070
     1
1040
1.0
1001
ZWMCAD_GENSTANDARDFRAME_13_
1070
   410
1000
GB
1070
   411
1000
ZwmFrameMain_
  0
LINE
  5
C05
330
17
100
AcDbEntity
  8
图例及图签
 62
    30
370
    -3
100
AcDbLine
 10
1710.893160650464
 20
145.2910696617436
 30
0.0
 11
1610.970042386631
 21
144.1819909397927
 31
0.0
  0
LINE
  5
C06
330
17
100
AcDbEntity
  8
图例及图签
 62
    30
370
    -3
100
AcDbLine
 10
1711.137447921516
 20
129.0927833071359
 30
0.0
 11
1610.970042386631
 21
127.9809931442464
 31
0.0
  0
LWPOLYLINE
  5
C07
330
17
100
AcDbEntity
  8
图例及图签
 62
    30
370
    -3
100
AcDbPolyline
 90
        2
 70
     0
 43
0.0
 10
1694.944317063273
 20
128.913050559805
 10
1695.067601950796
 20
120.7382343984318
  0
LWPOLYLINE
  5
C08
330
17
100
AcDbEntity
  8
图例及图签
 62
    30
370
    -3
100
AcDbPolyline
 90
        2
 70
     0
 43
0.0
 10
1703.040882514746
 20
129.0029170117236
 10
1703.346827523741
 20
108.7162127247911
  0
LWPOLYLINE
  5
C09
330
17
100
AcDbEntity
  8
图例及图签
 62
    30
370
    -3
100
AcDbPolyline
 90
        2
 70
     0
 43
0.0
 10
1711.620610638165
 20
97.05507217537572
 10
1711.137447921516
 20
129.0927833071359
  0
LWPOLYLINE
  5
C0A
330
17
100
AcDbEntity
  8
图例及图签
 62
    30
370
    -3
100
AcDbPolyline
 90
        2
 70
     0
 43
0.0
 10
1694.700029736341
 20
145.1113369366976
 10
1694.579212089958
 20
153.1225518933388
  0
LWPOLYLINE
  5
C0B
330
17
100
AcDbEntity
  8
图例及图签
 62
    30
370
    -3
100
AcDbPolyline
 90
        2
 70
     0
 43
0.0
 10
1702.796595198991
 20
145.2012033215837
 10
1702.492145320357
 20
165.3887683800094
  0
LWPOLYLINE
  5
C0C
330
17
100
AcDbEntity
  8
图例及图签
 62
    30
370
    -3
100
AcDbPolyline
 90
        2
 70
     0
 43
0.0
 10
1710.407012550415
 20
177.5267386496166
 10
1710.893160650464
 20
145.2910696617436
  0
LWPOLYLINE
  5
C0D
330
17
100
AcDbEntity
  8
图例及图签
 62
    30
370
    -3
100
AcDbPolyline
 90
        2
 70
     0
 43
0.0
 10
1694.944317063273
 20
128.9130505598268
 10
1695.067601950796
 20
120.7382343984318
  0
LWPOLYLINE
  5
C0E
330
17
100
AcDbEntity
  8
图例及图签
 62
    30
370
    -3
100
AcDbPolyline
 90
        2
 70
     0
 43
0.0
 10
1703.040882514746
 20
129.0029170117886
 10
1703.346827523741
 20
108.7162127248116
  0
LWPOLYLINE
  5
C0F
330
17
100
AcDbEntity
  8
图例及图签
 62
    30
370
    -3
100
AcDbPolyline
 90
        2
 70
     0
 43
0.0
 10
1711.620610638165
 20
97.05507217537572
 10
1711.137447921516
 20
129.0927833072023
  0
LWPOLYLINE
  5
C10
330
17
100
AcDbEntity
  8
图例及图签
 62
    30
370
    -3
100
AcDbPolyline
 90
        2
 70
     0
 43
0.0
 10
1694.700029736341
 20
145.1113369367199
 10
1694.579212089958
 20
153.1225518933388
  0
LWPOLYLINE
  5
C11
330
17
100
AcDbEntity
  8
图例及图签
 62
    30
370
    -3
100
AcDbPolyline
 90
        2
 70
     0
 43
0.0
 10
1702.796595198991
 20
145.2012033215837
 10
1702.492145320357
 20
165.3887683800094
  0
LWPOLYLINE
  5
C12
330
17
100
AcDbEntity
  8
图例及图签
 62
    30
370
    -3
100
AcDbPolyline
 90
        2
 70
     0
 43
0.0
 10
1710.407012550415
 20
177.5267386496166
 10
1710.893160650464
 20
145.2910696617436
  0
LWPOLYLINE
  5
C13
330
17
100
AcDbEntity
  8
图例及图签
 62
    30
370
    -3
100
AcDbPolyline
 90
        2
 70
     0
 43
0.0
 10
1694.944317063273
 20
128.9130505598268
 10
1695.067601950796
 20
120.7382343984759
  0
LWPOLYLINE
  5
C14
330
17
100
AcDbEntity
  8
图例及图签
 62
    30
370
    -3
100
AcDbPolyline
 90
        2
 70
     0
 43
0.0
 10
1703.040882514746
 20
129.0029170117886
 10
1703.346827523741
 20
108.7162127248116
  0
LWPOLYLINE
  5
C15
330
17
100
AcDbEntity
  8
图例及图签
 62
    30
370
    -3
100
AcDbPolyline
 90
        2
 70
     0
 43
0.0
 10
1711.620610638165
 20
97.05507217537572
 10
1711.137447921516
 20
129.092783307246
  0
LWPOLYLINE
  5
C16
330
17
100
AcDbEntity
  8
图例及图签
 62
    30
370
    -3
100
AcDbPolyline
 90
        2
 70
     0
 43
0.0
 10
1694.700029736341
 20
145.1113369367199
 10
1694.579212089958
 20
153.1225518933388
  0
LWPOLYLINE
  5
C17
330
17
100
AcDbEntity
  8
图例及图签
 62
    30
370
    -3
100
AcDbPolyline
 90
        2
 70
     0
 43
0.0
 10
1702.796595198991
 20
145.2012033215837
 10
1702.492145320357
 20
165.388768380053
  0
LWPOLYLINE
  5
C18
330
17
100
AcDbEntity
  8
图例及图签
 62
    30
370
    -3
100
AcDbPolyline
 90
        2
 70
     0
 43
0.0
 10
1710.407012550415
 20
177.5267386496166
 10
1710.893160650464
 20
145.2910696617436
  0
MTEXT
  5
C19
330
17
100
AcDbEntity
  8
图例及图签
 62
     6
370
    -3
100
AcDbMText
 10
1696.515168709128
 20
416.9487592299597
 30
348.0
 40
45.0
 41
0.0
 46
0.0
 71
     9
 72
     1
  1
25
  7
HZ
 73
     1
 44
1.0
1001
ACAD
1000
MTEXTBEGIN
1070
    73
1070
     1
1070
    44
1040
1.0
1070
    74
1070
     0
1000
MTEXTEND
  0
MTEXT
  5
C1A
330
17
100
AcDbEntity
  8
图例及图签
 62
     4
370
    -3
100
AcDbMText
 10
898.6298531568907
 20
285.655299711264
 30
0.0
 40
4.5
 41
0.0
 46
0.0
 71
     9
 72
     1
  1
F
  7
HZ
 73
     1
 44
1.0
1001
ACAD
1000
MTEXTBEGIN
1070
    73
1070
     1
1070
    44
1040
1.0
1070
    74
1070
     0
1000
MTEXTEND
  0
MTEXT
  5
C1B
330
17
100
AcDbEntity
  8
图例及图签
 62
     4
370
    -3
100
AcDbMText
 10
862.1510534800771
 20
285.685883081785
 30
0.0
 40
4.5
 41
0.0
 46
0.0
 71
     9
 72
     1
  1
F
  7
HZ
 73
     1
 44
1.0
1001
ACAD
1000
MTEXTBEGIN
1070
    73
1070
     1
1070
    44
1040
1.0
1070
    74
1070
     0
1000
MTEXTEND
  0
LWPOLYLINE
  5
C1C
330
17
100
AcDbEntity
  8
图例及图签
 48
1.000000000000000E+16
100
AcDbPolyline
 90
        4
 70
     1
 43
0.0
 10
188.669280097376
 20
477.5267386496166
 10
343.5764716634667
 20
477.5267386496166
 10
343.5764716634667
 20
397.0550721753743
 10
188.669280097376
 20
397.0550721753743
  0
LINE
  5
C1D
330
17
100
AcDbEntity
  8
图例及图签
 62
     4
370
    -3
100
AcDbLine
 10
327.9226845515095
 20
434.4740951037652
 30
0.0
 11
218.4205744904766
 21
434.3303038331399
 31
0.0
  0
LINE
  5
C1E
330
17
100
AcDbEntity
  8
图例及图签
 62
     4
370
    -3
100
AcDbLine
 10
327.9226845515095
 20
450.674111344179
 30
0.0
 11
218.4205744904766
 21
450.5303201151076
 31
0.0
  0
TEXT
  5
C1F
330
17
100
AcDbEntity
  8
图例及图签
370
     0
100
AcDbText
 10
209.5167578378832
 20
358.2729569535882
 30
0.0
 40
20.0
  1
42煤巷道
 50
359.9999997865572
  7
样式 3
100
AcDbText
1001
ZWMCAD_GENSCA_13_
1070
     1
1040
1.0
1001
ZWMCAD_GENSTANDARDFRAME_13_
1070
   410
1000
GB
1070
   411
1000
ZwmFrameMain_
  0
LWPOLYLINE
  5
C20
330
17
100
AcDbEntity
  8
图例及图签
 48
1.000000000000000E+16
100
AcDbPolyline
 90
        4
 70
     1
 43
0.0
 10
188.669280097376
 20
327.5267386496166
 10
343.5764716634667
 20
327.5267386496166
 10
343.5764716634667
 20
247.0550721753743
 10
188.669280097376
 20
247.0550721753743
  0
TEXT
  5
C21
330
17
100
AcDbEntity
  8
图例及图签
370
     0
100
AcDbText
 10
216.0329541264228
 20
208.2729569535882
 30
0.0
 40
20.0
  1
采空区
 50
359.9999997865572
  7
样式 3
100
AcDbText
1001
ZWMCAD_GENSCA_13_
1070
     1
1040
1.0
1001
ZWMCAD_GENSTANDARDFRAME_13_
1070
   410
1000
GB
1070
   411
1000
ZwmFrameMain_
  0
LWPOLYLINE
  5
C22
330
17
100
AcDbEntity
  8
图例及图签
 48
1.000000000000000E+16
100
AcDbPolyline
 90
        4
 70
     1
 43
0.0
 10
188.669280097376
 20
177.5267386496166
 10
343.5764716634667
 20
177.5267386496166
 10
343.5764716634667
 20
97.05507217537572
 10
188.669280097376
 20
97.05507217537572
  0
TEXT
  5
C23
330
17
100
AcDbEntity
  8
图例及图签
370
     0
100
AcDbText
 10
222.7746331446697
 20
58.27295695358817
 30
0.0
 40
20.0
  1
测风站
 50
359.9999997865572
  7
样式 3
100
AcDbText
1001
ZWMCAD_GENSCA_13_
1070
     1
1040
1.0
1001
ZWMCAD_GENSTANDARDFRAME_13_
1070
   410
1000
GB
1070
   411
1000
ZwmFrameMain_
  0
LWPOLYLINE
  5
C24
330
17
100
AcDbEntity
  8
图例及图签
 62
     1
 48
1.000000000000000E+16
370
    -3
100
AcDbPolyline
 90
        2
 70
     0
 43
0.0
 10
437.0393809799796
 20
455.4517789213313
 10
463.3671262332
 20
455.4517789213313
  0
CIRCLE
  5
C25
330
17
100
AcDbEntity
  8
图例及图签
 62
     1
 48
1.000000000000000E+16
100
AcDbCircle
 10
469.5178112919911
 20
455.4517789213313
 30
0.0
 40
6.1506850587769
  0
LWPOLYLINE
  5
C26
330
17
100
AcDbEntity
  8
图例及图签
 62
     1
 48
1.000000000000000E+16
370
    -3
100
AcDbPolyline
 90
        5
 70
     0
 43
0.0
 10
475.6686751429461
 20
455.4517789213313
 10
501.9365951736927
 20
455.4517789213313
 10
501.9365951736927
 20
414.350209931992
 10
437.0393809799796
 20
414.350209931992
 10
437.0393809799796
 20
455.4517789213313
  0
LWPOLYLINE
  5
C27
330
17
100
AcDbEntity
  8
图例及图签
 48
1.000000000000000E+16
100
AcDbPolyline
 90
        4
 70
     1
 43
0.0
 10
388.669280097377
 20
477.5267386496166
 10
543.5764716634666
 20
477.5267386496166
 10
543.5764716634666
 20
397.0550721753743
 10
388.669280097377
 20
397.0550721753743
  0
TEXT
  5
C28
330
17
100
AcDbEntity
  8
图例及图签
370
     0
100
AcDbText
 10
383.4691092946023
 20
358.2729569535882
 30
0.0
 40
20.0
  1
抽采瓦斯泵站
 50
359.9999997865572
  7
样式 3
100
AcDbText
1001
ZWMCAD_GENSCA_13_
1070
     1
1040
1.0
1001
ZWMCAD_GENSTANDARDFRAME_13_
1070
   410
1000
GB
1070
   411
1000
ZwmFrameMain_
  0
LINE
  5
C29
330
17
100
AcDbEntity
  8
图例及图签
 62
     6
370
    -3
100
AcDbLine
 10
476.9492335256299
 20
285.3640937186688
 30
0.0
 11
476.9492335256299
 21
262.9626603217589
 31
0.0
  0
LINE
  5
C2A
330
17
100
AcDbEntity
  8
图例及图签
 62
     6
370
    -3
100
AcDbLine
 10
459.5464670850423
 20
285.3640937186688
 30
0.0
 11
459.5464670850423
 21
262.9626603217589
 31
0.0
  0
ARC
  5
C2B
330
17
100
AcDbEntity
  8
图例及图签
 62
     6
370
    -3
100
AcDbCircle
 10
467.5268846904737
 20
285.6378396982068
 30
0.0
 40
19.19011783952273
100
AcDbArc
 50
359.1826511226772
 51
180.8173488773228
  0
LINE
  5
C2C
330
17
100
AcDbEntity
  8
图例及图签
 62
     6
370
    -3
100
AcDbLine
 10
439.6234697682021
 20
285.3640937186688
 30
0.0
 11
495.9047569802732
 21
285.3640937186688
 31
0.0
  0
LWPOLYLINE
  5
C2D
330
17
100
AcDbEntity
  8
图例及图签
 48
1.000000000000000E+16
100
AcDbPolyline
 90
        4
 70
     1
 43
0.0
 10
388.669280097377
 20
327.5267386496166
 10
543.5764716634666
 20
327.5267386496166
 10
543.5764716634666
 20
247.0550721753743
 10
388.669280097377
 20
247.0550721753743
  0
TEXT
  5
C2E
330
17
100
AcDbEntity
  8
图例及图签
370
     0
100
AcDbText
 10
427.4245162113892
 20
208.2729569535882
 30
0.0
 40
20.0
  1
防爆盖
 50
359.9999997865572
  7
样式 3
100
AcDbText
1001
ZWMCAD_GENSCA_13_
1070
     1
1040
1.0
1001
ZWMCAD_GENSTANDARDFRAME_13_
1070
   410
1000
GB
1070
   411
1000
ZwmFrameMain_
  0
ELLIPSE
  5
C2F
330
17
100
AcDbEntity
  8
图例及图签
  6
ByBlock
 62
    30
100
AcDbEllipse
 10
449.1470433540971
 20
137.4566659793527
 30
0.0
 11
14.5776474143317
 21
-15.68140772683316
 31
0.0
210
0.0
220
0.0
230
-1.0
 40
1.0
 41
2.711279077216917
 42
5.113541245381411
  0
LINE
  5
C30
330
17
100
AcDbEntity
  8
图例及图签
  6
ByBlock
 62
    30
370
    -3
100
AcDbLine
 10
429.3567770433591
 20
145.6273275342728
 30
0.0
 11
415.8327211120495
 21
145.78751101028
 31
0.0
  0
LINE
  5
C31
330
17
100
AcDbEntity
  8
图例及图签
  6
ByBlock
 62
    30
370
    -3
100
AcDbLine
 10
509.1948253208983
 20
143.8801758950176
 30
0.0
 11
522.0659923530629
 21
143.7277253836259
 31
0.0
  0
ELLIPSE
  5
C32
330
17
100
AcDbEntity
  8
图例及图签
  6
ByBlock
 62
    30
100
AcDbEllipse
 10
489.0660674832616
 20
136.5830901264171
 30
0.0
 11
14.5776474143317
 21
-15.68140772683316
 31
0.0
210
0.0
220
0.0
230
-1.0
 40
1.0
 41
2.71127907722366
 42
5.113541245371028
  0
LINE
  5
C33
330
17
100
AcDbEntity
  8
图例及图签
 62
    30
370
    -3
100
AcDbLine
 10
522.0597409360798
 20
137.7440577170091
 30
0.0
 11
415.8244336962678
 21
137.8550467014756
 31
0.0
  0
ELLIPSE
  5
C34
330
17
100
AcDbEntity
  8
图例及图签
  6
ByBlock
 62
    30
100
AcDbEllipse
 10
449.1478030241423
 20
138.183799258496
 30
0.0
 11
14.61038175301261
 21
15.65091363029618
 31
0.0
210
0.0
220
0.0
230
1.0
 40
1.0
 41
2.711279077225785
 42
5.113541245376968
  0
LINE
  5
C35
330
17
100
AcDbEntity
  8
图例及图签
  6
ByBlock
 62
    30
370
    -3
100
AcDbLine
 10
429.3405073910689
 20
130.0545071248234
 30
0.0
 11
415.8161462805436
 21
129.9225823927159
 31
0.0
  0
LINE
  5
C36
330
17
100
AcDbEntity
  8
图例及图签
  6
ByBlock
 62
    30
370
    -3
100
AcDbLine
 10
509.1820320407141
 20
131.6348340607119
 30
0.0
 11
522.0534895192113
 21
131.7603900506119
 31
0.0
  0
ELLIPSE
  5
C37
330
17
100
AcDbEntity
  8
图例及图签
  6
ByBlock
 62
    30
100
AcDbEllipse
 10
489.0685653394776
 20
138.9739627596609
 30
0.0
 11
14.61038175301261
 21
15.65091363029618
 31
0.0
210
0.0
220
0.0
230
1.0
 40
1.0
 41
2.711279077224129
 42
5.113541245378572
  0
LWPOLYLINE
  5
C38
330
17
100
AcDbEntity
  8
图例及图签
 48
1.000000000000000E+16
100
AcDbPolyline
 90
        4
 70
     1
 43
0.0
 10
388.669280097377
 20
177.5267386496166
 10
543.5764716634666
 20
177.5267386496166
 10
543.5764716634666
 20
97.05507217537572
 10
388.669280097377
 20
97.05507217537572
  0
TEXT
  5
C39
330
17
100
AcDbEntity
  8
图例及图签
370
     0
100
AcDbText
 10
427.4245162113892
 20
58.27295695358817
 30
0.0
 40
20.0
  1
防爆门
 50
359.9999997865572
  7
样式 3
100
AcDbText
1001
ZWMCAD_GENSCA_13_
1070
     1
1040
1.0
1001
ZWMCAD_GENSTANDARDFRAME_13_
1070
   410
1000
GB
1070
   411
1000
ZwmFrameMain_
  0
ARC
  5
C3A
330
17
100
AcDbEntity
  8
图例及图签
 62
     4
 48
1.000000000000000E+16
100
AcDbCircle
 10
671.6408882903197
 20
434.9633126084739
 30
0.0
 40
29.40163518002032
100
AcDbArc
 50
0.0
 51
180.0
  0
LINE
  5
C3B
330
17
100
AcDbEntity
  8
图例及图签
 62
     4
 48
1.000000000000000E+16
100
AcDbLine
 10
730.4034065840113
 20
434.9633126084739
 30
0.0
 11
701.0425234703452
 21
434.9633126084739
 31
0.0
  0
LINE
  5
C3C
330
17
100
AcDbEntity
  8
图例及图签
 62
     4
 48
1.000000000000000E+16
100
AcDbLine
 10
642.2392531102977
 20
434.9633126084739
 30
0.0
 11
612.8783699966025
 21
434.9633126084739
 31
0.0
  0
LINE
  5
C3D
330
17
100
AcDbEntity
  8
图例及图签
 62
     4
 48
1.000000000000000E+16
370
    -3
100
AcDbLine
 10
730.4034065840113
 20
449.6437541653222
 30
0.0
 11
730.4034065840113
 21
420.2828710516492
 31
0.0
  0
LINE
  5
C3E
330
17
100
AcDbEntity
  8
图例及图签
 62
     4
 48
1.000000000000000E+16
100
AcDbLine
 10
612.8783699966025
 20
449.6437541653222
 30
0.0
 11
612.8783699966025
 21
420.2828710516492
 31
0.0
  0
TEXT
  5
C3F
330
17
100
AcDbEntity
  8
图例及图签
370
     0
100
AcDbText
 10
627.4245162113892
 20
358.2729569535882
 30
0.0
 40
20.0
  1
防火门
 50
359.9999997865572
  7
样式 3
100
AcDbText
1001
ZWMCAD_GENSCA_13_
1070
     1
1040
1.0
1001
ZWMCAD_GENSTANDARDFRAME_13_
1070
   410
1000
GB
1070
   411
1000
ZwmFrameMain_
  0
TEXT
  5
C40
330
17
100
AcDbEntity
  8
图例及图签
370
     0
100
AcDbText
 10
609.5167578378832
 20
58.27295695358817
 30
0.0
 40
20.0
  1
防火密闭
 50
359.9999997865572
  7
样式 3
100
AcDbText
1001
ZWMCAD_GENSCA_13_
1070
     1
1040
1.0
1001
ZWMCAD_GENSTANDARDFRAME_13_
1070
   410
1000
GB
1070
   411
1000
ZwmFrameMain_
  0
MTEXT
  5
C41
330
17
100
AcDbEntity
  8
图例及图签
 62
     1
370
    -3
100
AcDbMText
 10
465.3627661138251
 20
461.3532990869175
 30
0.0
 40
12.0
 41
782.260005954047
 46
74.44417949326717
 71
     1
 72
     5
  1
G
 11
0.9999993481957808
 21
-0.0011417565471901
 31
0.0
 73
     1
 44
1.0
1001
ACAD
1000
MTEXTBEGIN
1070
    73
1070
     1
1070
    44
1040
1.0
1070
    74
1070
     0
1000
MTEXTEND
  0
MTEXT
  5
C42
330
17
100
AcDbEntity
  8
图例及图签
100
AcDbMText
 10
76.25947023621211
 20
336.0601471893247
 30
0.0
 40
29.99999999999998
 41
52.10596427970809
 46
540.9404201908373
 71
     1
 72
     5
  1
{\C256;图\P\P例}
  7
HZ
 73
     1
 44
1.0
1001
ACAD
1000
MTEXTBEGIN
1070
    73
1070
     1
1070
    44
1040
1.0
1070
    74
1070
     0
1000
MTEXTEND
  0
LINE
  5
C43
330
17
100
AcDbEntity
  8
图例及图签
 62
     4
370
    -3
100
AcDbLine
 10
722.6396972222874
 20
149.0089939954996
 30
0.0
 11
613.1375871612263
 21
148.8652027664361
 31
0.0
  0
LINE
  5
C44
330
17
100
AcDbEntity
  8
图例及图签
 62
     4
370
    -3
100
AcDbLine
 10
722.6396972222874
 20
132.8089777550844
 30
0.0
 11
613.1375871612263
 21
132.6651864844607
 31
0.0
  0
LINE
  5
C45
330
17
100
AcDbEntity
  8
图例及图签
 62
     4
370
    -3
100
AcDbLine
 10
326.1004384323469
 20
131.9348786012888
 30
0.0
 11
216.5983283713149
 21
131.791087330665
 31
0.0
  0
LINE
  5
C46
330
17
100
AcDbEntity
  8
图例及图签
 62
     4
370
    -3
100
AcDbLine
 10
1326.078394526529
 20
133.7545923969487
 30
0.0
 11
1216.576284465469
 21
133.6108011263168
 31
0.0
  0
LINE
  5
C47
330
17
100
AcDbEntity
  8
图例及图签
 62
     4
370
    -3
100
AcDbLine
 10
1326.078394526529
 20
149.9546086373571
 30
0.0
 11
1216.576284465469
 21
149.8108174082926
 31
0.0
  0
LINE
  5
C48
330
17
100
AcDbEntity
  8
图例及图签
  6
ByBlock
 62
     4
370
    -3
100
AcDbLine
 10
1269.181403759547
 20
169.1650390616378
 30
0.0
 11
1269.181403759547
 21
114.8684121808733
 31
0.0
1001
AcDbBlockRepETag
1000

  0
LINE
  5
C49
330
17
100
AcDbEntity
  8
图例及图签
 62
     4
370
    -3
100
AcDbLine
 10
1916.481200532166
 20
127.9341893490459
 30
0.0
 11
1806.979090471105
 21
127.7903980784222
 31
0.0
  0
LINE
  5
C4A
330
17
100
AcDbEntity
  8
图例及图签
 62
     4
370
    -3
100
AcDbLine
 10
1916.481200532166
 20
144.1342055894529
 30
0.0
 11
1806.979090471105
 21
143.9904143603967
 31
0.0
  0
LINE
  5
C4B
330
17
100
AcDbEntity
  8
图例及图签
 62
     4
 48
1.000000000000000E+16
100
AcDbLine
 10
1858.50337203667
 20
158.8305220471928
 30
0.0
 11
1858.410332647146
 21
118.9889829077615
 31
0.0
  0
LINE
  5
C4C
330
17
100
AcDbEntity
  8
图例及图签
 62
     4
 48
1.000000000000000E+16
100
AcDbLine
 10
1876.890120477496
 20
158.7875914584979
 30
0.0
 11
1876.797081087971
 21
118.9460523190691
 31
0.0
  0
LINE
  5
C4D
330
17
100
AcDbEntity
  8
图例及图签
 62
     4
370
    -3
100
AcDbLine
 10
1417.33285654393
 20
149.2321329311748
 30
0.0
 11
1526.834966604963
 21
149.3759242018209
 31
0.0
  0
LINE
  5
C4E
330
17
100
AcDbEntity
  8
图例及图签
 62
     4
370
    -3
100
AcDbLine
 10
1417.33285654393
 20
133.0321166907738
 30
0.0
 11
1526.834966604963
 21
133.1759079198382
 31
0.0
  0
LINE
  5
C4F
330
17
100
AcDbEntity
  8
图例及图签
 62
     4
 48
1.000000000000000E+16
100
AcDbLine
 10
1477.963761465377
 20
160.9918591112878
 30
-0.0000000041892671
 11
1477.970982333108
 21
117.7804174978664
 31
-0.0000000041892671
  0
LINE
  5
C50
330
17
100
AcDbEntity
  8
图例及图签
 62
     4
 48
1.000000000000000E+16
100
AcDbLine
 10
1461.740021617778
 20
160.9918591112655
 30
-0.0000000041892671
 11
1461.747242485537
 21
117.7804174978664
 31
-0.0000000041892671
  0
LINE
  5
C51
330
17
100
AcDbEntity
  8
图例及图签
 62
     4
 48
1.000000000000000E+16
100
AcDbLine
 10
1477.965260874408
 20
152.0190281814725
 30
-0.0000000041892671
 11
1461.734245988642
 21
152.0190281798354
 31
-0.0000000041892671
  0
LINE
  5
C52
330
17
100
AcDbEntity
  8
图例及图签
 62
     4
 48
1.000000000000000E+16
100
AcDbLine
 10
1477.963761465377
 20
146.480101943438
 30
-0.0000000041892671
 11
1473.791224457629
 21
149.4185473394909
 31
-0.0000000041892671
  0
LINE
  5
C53
330
17
100
AcDbEntity
  8
图例及图签
 62
     4
 48
1.000000000000000E+16
100
AcDbLine
 10
1473.791224457629
 20
149.4185473394909
 30
-0.0000000041892671
 11
1461.741956658822
 21
149.4120994307309
 31
-0.0000000041892671
  0
LINE
  5
C54
330
17
100
AcDbEntity
  8
图例及图签
 62
     4
 48
1.000000000000000E+16
100
AcDbLine
 10
1461.741956658822
 20
149.4120994307309
 30
-0.0000000041892671
 11
1465.905337757824
 21
146.480101943438
 31
-0.0000000041892671
  0
LINE
  5
C55
330
17
100
AcDbEntity
  8
图例及图签
 62
     4
 48
1.000000000000000E+16
100
AcDbLine
 10
1465.905337757824
 20
146.480101943438
 30
-0.0000000041892671
 11
1477.963761465377
 21
146.480101943438
 31
-0.0000000041892671
  0
LINE
  5
C56
330
17
100
AcDbEntity
  8
图例及图签
 62
     4
 48
1.000000000000000E+16
100
AcDbLine
 10
1465.905337757824
 20
140.77131105226
 30
-0.0000000041892671
 11
1477.963761465377
 21
140.7713110522168
 31
-0.0000000041892671
  0
LINE
  5
C57
330
17
100
AcDbEntity
  8
图例及图签
 62
     4
 48
1.000000000000000E+16
100
AcDbLine
 10
1477.963761465377
 20
140.7713110522168
 30
-0.0000000041892671
 11
1473.791224457629
 21
143.7097564483129
 31
-0.0000000041892671
  0
LINE
  5
C58
330
17
100
AcDbEntity
  8
图例及图签
 62
     4
 48
1.000000000000000E+16
100
AcDbLine
 10
1473.791224457629
 20
143.7097564483129
 30
-0.0000000041892671
 11
1461.741956658822
 21
143.7033085395528
 31
-0.0000000041892671
  0
LINE
  5
C59
330
17
100
AcDbEntity
  8
图例及图签
 62
     4
 48
1.000000000000000E+16
100
AcDbLine
 10
1461.741956658822
 20
143.7033085395528
 30
-0.0000000041892671
 11
1465.905337757824
 21
140.77131105226
 31
-0.0000000041892671
  0
LINE
  5
C5A
330
17
100
AcDbEntity
  8
图例及图签
 62
     4
 48
1.000000000000000E+16
100
AcDbLine
 10
1465.90967035199
 20
135.064554183446
 30
-0.0000000041892671
 11
1477.968094059543
 21
135.064554183446
 31
-0.0000000041892671
  0
LINE
  5
C5B
330
17
100
AcDbEntity
  8
图例及图签
 62
     4
 48
1.000000000000000E+16
100
AcDbLine
 10
1477.968094059543
 20
135.064554183446
 30
-0.0000000041892671
 11
1473.795557051795
 21
138.002999579498
 31
-0.0000000041892671
  0
LINE
  5
C5C
330
17
100
AcDbEntity
  8
图例及图签
 62
     4
 48
1.000000000000000E+16
100
AcDbLine
 10
1473.795557051795
 20
138.002999579498
 30
-0.0000000041892671
 11
1461.746289253017
 21
137.9965516707388
 31
-0.0000000041892671
  0
LINE
  5
C5D
330
17
100
AcDbEntity
  8
图例及图签
 62
     4
 48
1.000000000000000E+16
100
AcDbLine
 10
1461.746289253017
 20
137.9965516707388
 30
-0.0000000041892671
 11
1465.90967035199
 21
135.064554183446
 31
-0.0000000041892671
  0
LINE
  5
C5E
330
17
100
AcDbEntity
  8
图例及图签
 62
     4
 48
1.000000000000000E+16
100
AcDbLine
 10
1465.884744297612
 20
129.3537292696642
 30
-0.0000000041892671
 11
1477.943168005135
 21
129.3537292696642
 31
-0.0000000041892671
  0
LINE
  5
C5F
330
17
100
AcDbEntity
  8
图例及图签
 62
     4
 48
1.000000000000000E+16
100
AcDbLine
 10
1477.943168005135
 20
129.3537292696642
 30
-0.0000000041892671
 11
1473.770630997417
 21
132.2921746657157
 31
-0.0000000041892671
  0
LINE
  5
C60
330
17
100
AcDbEntity
  8
图例及图签
 62
     4
 48
1.000000000000000E+16
100
AcDbLine
 10
1473.770630997417
 20
132.2921746657157
 30
-0.0000000041892671
 11
1461.721363198638
 21
132.2857267569566
 31
-0.0000000041892671
  0
LINE
  5
C61
330
17
100
AcDbEntity
  8
图例及图签
 62
     4
 48
1.000000000000000E+16
100
AcDbLine
 10
1461.721363198638
 20
132.2857267569566
 30
-0.0000000041892671
 11
1465.884744297612
 21
129.3537292696642
 31
-0.0000000041892671
  0
LINE
  5
C62
330
17
100
AcDbEntity
  8
图例及图签
 62
     4
 48
1.000000000000000E+16
100
AcDbLine
 10
1477.969623424826
 20
125.9124576248286
 30
-0.0000000041892671
 11
1461.738608539032
 21
125.912457623192
 31
-0.0000000041892671
  0
HATCH
  5
C63
330
17
100
AcDbEntity
  8
图例及图签
 62
     4
370
     0
100
AcDbHatch
 10
0.0
 20
0.0
 30
0.0
210
0.0
220
0.0
230
1.0
  2
SOLID
 70
     1
 71
     0
 91
        1
 92
        7
 72
     0
 73
     1
 93
        4
 10
661.9822846536862
 20
132.1069459528817
 10
671.7626417565197
 20
132.2052996951897
 10
671.5940365404967
 20
148.9715064696001
 10
661.8136794284082
 20
148.8731527234408
 97
        0
 75
     0
 76
     1
 47
0.4108958283621086
 98
        1
 10
670.0653898246692
 20
138.4957361493511
1001
ACAD
1010
0.0
1020
0.0
1030
0.0
  0
LINE
  5
C64
330
17
100
AcDbEntity
  8
图例及图签
 62
     4
370
    -3
100
AcDbLine
 10
326.1004384323469
 20
148.1348948417039
 30
0.0
 11
216.5983283713149
 21
147.9911036126395
 31
0.0
  0
LINE
  5
C65
330
17
100
AcDbEntity
  8
图例及图签
  6
井田边界
370
   100
100
AcDbLine
 10
2212.090312684377
 20
139.3654798016259
 30
0.0
 11
2313.334236217452
 21
139.3654798016259
 31
0.0
  0
TEXT
  5
C66
330
17
100
AcDbEntity
  8
图例及图签
370
     0
100
AcDbText
 10
2210.521863953902
 20
58.27295695358817
 30
0.0
 40
20.0
  1
井田边界
 50
359.9999997865572
  7
样式 3
100
AcDbText
1001
ZWMCAD_GENSCA_13_
1070
     1
1040
1.0
1001
ZWMCAD_GENSTANDARDFRAME_13_
1070
   410
1000
GB
1070
   411
1000
ZwmFrameMain_
  0
LWPOLYLINE
  5
C67
330
17
100
AcDbEntity
  8
图例及图签
 48
1.000000000000000E+16
100
AcDbPolyline
 90
        4
 70
     1
 43
0.0
 10
2188.669280097377
 20
325.9246780578333
 10
2343.576471663467
 20
325.9246780578333
 10
2343.576471663467
 20
245.4530115835919
 10
2188.669280097377
 20
245.4530115835919
  0
LINE
  5
C68
330
17
100
AcDbEntity
  8
图例及图签
  6
CENTER
370
    50
100
AcDbLine
 10
2211.086989973498
 20
285.8720741841572
 30
0.0
 11
2321.931630393317
 21
285.8720741841572
 31
0.0
  0
TEXT
  5
C69
330
17
100
AcDbEntity
  8
图例及图签
370
     0
100
AcDbText
 10
2209.516757837883
 20
206.6708963618039
 30
0.0
 40
20.0
  1
盘区边界
 50
359.9999997865572
  7
样式 3
100
AcDbText
1001
ZWMCAD_GENSCA_13_
1070
     1
1040
1.0
1001
ZWMCAD_GENSTANDARDFRAME_13_
1070
   410
1000
GB
1070
   411
1000
ZwmFrameMain_
  0
LWPOLYLINE
  5
C6A
330
17
100
AcDbEntity
  8
图例及图签
 48
1.000000000000000E+16
100
AcDbPolyline
 90
        4
 70
     1
 43
0.0
 10
2188.669280097377
 20
177.5267386496166
 10
2343.576471663467
 20
177.5267386496166
 10
2343.576471663467
 20
97.05507217537572
 10
2188.669280097377
 20
97.05507217537572
  0
HATCH
  5
C6B
330
17
100
AcDbEntity
  8
图例及图签
  6
井田边界
 62
     4
 48
1.000000000000000E+16
370
     0
100
AcDbHatch
 10
0.0
 20
0.0
 30
0.0
210
0.0
220
0.0
230
1.0
  2
ANSI31
 70
     0
 71
     0
 91
        1
 92
        7
 72
     0
 73
     1
 93
        4
 10
188.669280097376
 20
247.0550721753743
 10
188.669280097376
 20
327.5267386496166
 10
343.5764716634667
 20
327.5267386496166
 10
343.5764716634667
 20
247.0550721753743
 97
        0
 75
     0
 76
     1
 52
0.0
 41
200.0
 77
     0
 78
     1
 53
45.0
 43
-36824.25865555297
 44
12933.92713089769
 45
-17.67766952966368
 46
17.67766952966369
 79
     0
 47
0.0
 98
        1
 10
279.0773208430328
 20
304.6302288675152
1001
ACAD
1010
0.0
1020
0.0
1030
0.0
  0
SPLINE
  5
C6C
330
17
100
AcDbEntity
  8
图例及图签
  6
DASH
 62
     4
 48
1.000000000000000E+16
370
     0
100
AcDbSpline
210
0.0
220
0.0
230
1.0
 70
     8
 71
     3
 72
     9
 73
     5
 74
     0
 42
0.000000001
 43
0.0000000001
 40
0.0
 40
0.0
 40
0.0
 40
0.0
 40
23.3540276333111
 40
57.94036313952496
 40
57.94036313952496
 40
57.94036313952496
 40
57.94036313952496
 10
2410.647313478047
 20
443.710049070844
 30
0.0
 10
2415.888675826741
 20
436.4492263379478
 30
0.0
 10
2428.892276002161
 20
418.4354296412416
 30
0.0
 10
2446.756626657205
 20
432.8511448215317
 30
0.0
 10
2457.622898773583
 20
440.8304091200125
 30
0.0
  0
LWPOLYLINE
  5
C6D
330
17
100
AcDbEntity
  8
图例及图签
 48
1.000000000000000E+16
100
AcDbPolyline
 90
        4
 70
     1
 43
0.0
 10
2387.6973171309
 20
478.3803110629164
 10
2542.604508696991
 20
478.3803110629164
 10
2542.604508696991
 20
397.908644588676
 10
2387.6973171309
 20
397.908644588676
  0
TEXT
  5
C6E
330
17
100
AcDbEntity
  8
图例及图签
 62
     4
100
AcDbText
 10
2460.734446050068
 20
436.73480153734
 30
0.0
 40
12.5
  1
985
 50
27.11643097572459
  7
宋体
100
AcDbText
  0
TEXT
  5
C6F
330
17
100
AcDbEntity
  8
图例及图签
370
     0
100
AcDbText
 10
2344.365335377552
 20
359.1628517586542
 30
0.0
 40
20.0
  1
42煤煤层底板等高线
 50
359.9999997865572
  7
样式 3
100
AcDbText
1001
ZWMCAD_GENSCA_13_
1070
     1
1040
1.0
1001
ZWMCAD_GENSTANDARDFRAME_13_
1070
   410
1000
GB
1070
   411
1000
ZwmFrameMain_
  0
SPLINE
  5
C70
330
17
100
AcDbEntity
  8
图例及图签
  6
DASH
 62
     4
 48
1.000000000000000E+16
370
     0
100
AcDbSpline
210
0.0
220
0.0
230
1.0
 70
     8
 71
     3
 72
     8
 73
     4
 74
     0
 42
0.000000001
 43
0.0000000001
 40
84.19734838517394
 40
84.19734838517394
 40
84.19734838517394
 40
84.19734838517394
 40
124.4355322222021
 40
124.4355322222021
 40
124.4355322222021
 40
124.4355322222021
 10
2482.052509559967
 20
452.5963070631777
 30
0.0
 10
2494.037167801647
 20
452.6985565495047
 30
0.0
 10
2504.91675990465
 20
441.1269636783726
 30
0.0
 10
2515.796352007638
 20
429.5553708072438
 30
0.0
  0
TEXT
  5
C71
330
17
100
AcDbEntity
  8
图例及图签
370
     0
100
AcDbText
 10
582.5943120467282
 20
208.4040546394317
 30
0.0
 40
20.0
  1
临时双向风门
 50
359.9999997865572
  7
样式 3
100
AcDbText
1001
ZWMCAD_GENSCA_13_
1070
     1
1040
1.0
1001
ZWMCAD_GENSTANDARDFRAME_13_
1070
   410
1000
GB
1070
   411
1000
ZwmFrameMain_
  0
LWPOLYLINE
  5
C72
330
17
100
AcDbEntity
  8
图例及图签
 48
1.000000000000000E+16
100
AcDbPolyline
 90
        4
 70
     1
 43
0.0
 10
588.2453164346242
 20
327.6578363354602
 10
743.1525080007132
 20
327.6578363354602
 10
743.1525080007132
 20
247.1861698612188
 10
588.2453164346242
 20
247.1861698612188
  0
LINE
  5
C73
330
17
100
AcDbEntity
  8
图例及图签
 62
     4
370
    -3
100
AcDbLine
 10
607.8093468711248
 20
295.835498012174
 30
0.0
 11
717.311456932185
 21
295.9792892827977
 31
0.0
  0
LINE
  5
C74
330
17
100
AcDbEntity
  8
图例及图签
 62
     4
370
    -3
100
AcDbLine
 10
607.8093468711248
 20
279.6354817717729
 30
0.0
 11
717.311456932185
 21
279.7792730008364
 31
0.0
  0
LINE
  5
C75
330
17
100
AcDbEntity
  8
图例及图签
 62
     4
370
    -3
100
AcDbLine
 10
1417.008904479146
 20
446.1658811030978
 30
0.0000000041892671
 11
1526.511014540207
 21
446.3096723737435
 31
0.0000000041892671
  0
LINE
  5
C76
330
17
100
AcDbEntity
  8
图例及图签
 62
     4
370
    -3
100
AcDbLine
 10
1417.008904479146
 20
429.9658648626972
 30
0.0000000041892671
 11
1526.511014540207
 21
430.1096560917616
 31
0.0000000041892671
  0
LINE
  5
C77
330
17
100
AcDbEntity
  8
图例及图签
 62
     4
370
    -3
100
AcDbLine
 10
2015.680474247063
 20
446.357364282977
 30
0.0000000041892671
 11
2125.182584308095
 21
446.5011555536215
 31
0.0000000041892671
  0
LINE
  5
C78
330
17
100
AcDbEntity
  8
图例及图签
 62
     4
370
    -3
100
AcDbLine
 10
2015.680474247063
 20
430.1573480425767
 30
0.0000000041892671
 11
2125.182584308095
 21
430.3011392716397
 31
0.0000000041892671
  0
LINE
  5
C79
330
17
100
AcDbEntity
  8
图例及图签
 62
     4
370
    -3
100
AcDbLine
 10
2014.242713080429
 20
292.4794676358179
 30
0.0000000041892671
 11
2123.744823141461
 21
292.6232589064635
 31
0.0000000041892671
  0
LINE
  5
C7A
330
17
100
AcDbEntity
  8
图例及图签
 62
     4
370
    -3
100
AcDbLine
 10
2014.242713080429
 20
276.2794513954176
 30
0.0000000041892671
 11
2123.744823141461
 21
276.4232426244817
 31
0.0000000041892671
  0
LINE
  5
C7B
330
17
100
AcDbEntity
  8
图例及图签
 62
     4
370
    -3
100
AcDbLine
 10
2317.464192957836
 20
451.7068647074746
 30
0.0
 11
2207.962082896805
 21
451.5630734784108
 31
0.0
  0
LINE
  5
C7C
330
17
100
AcDbEntity
  8
图例及图签
 62
     4
370
    -3
100
AcDbLine
 10
2317.464192957836
 20
435.5068484670669
 30
0.0
 11
2207.962082896805
 21
435.3630571964422
 31
0.0
  0
LINE
  5
C7D
330
17
100
AcDbEntity
  8
图例及图签
 62
     4
 48
1.000000000000000E+16
370
    -3
100
AcDbLine
 10
2032.693649928843
 20
259.5387964573351
 30
0.0
 11
2032.008822071745
 21
311.0811731358517
 31
0.0
  0
ARC
  5
C7E
330
17
100
AcDbEntity
  8
图例及图签
 62
     4
 48
1.000000000000000E+16
100
AcDbCircle
 10
2040.579304843531
 20
285.1631014451959
 30
0.0
 40
19.92082388687595
100
AcDbArc
 50
270.7612267750186
 51
90.76122677501857
  0
LINE
  5
C7F
330
17
100
AcDbEntity
  8
图例及图签
 62
     4
 48
1.000000000000000E+16
100
AcDbLine
 10
2040.843963401945
 20
265.2440356995689
 30
0.0
 11
2041.085634619232
 21
247.0550721753743
 31
0.0
  0
LINE
  5
C80
330
17
100
AcDbEntity
  8
图例及图签
 62
     4
 48
1.000000000000000E+16
100
AcDbLine
 10
2040.050354556036
 20
324.9736241629107
 30
0.0
 11
2040.314646285115
 21
305.0821671908457
 31
0.0
  0
ARC
  5
C81
330
17
100
AcDbEntity
  8
图例及图签
 62
     4
 48
1.000000000000000E+16
100
AcDbCircle
 10
1451.595686259353
 20
437.1238766403583
 30
0.0
 40
19.92082388687595
100
AcDbArc
 50
270.0
 51
90.0
  0
LINE
  5
C82
330
17
100
AcDbEntity
  8
图例及图签
 62
     4
 48
1.000000000000000E+16
100
AcDbLine
 10
1451.595686259353
 20
417.2030527534992
 30
0.0
 11
1451.595686259353
 21
397.3098400770659
 31
0.0
  0
LINE
  5
C83
330
17
100
AcDbEntity
  8
图例及图签
 62
     4
 48
1.000000000000000E+16
100
AcDbLine
 10
1451.595686259353
 20
476.9379132036743
 30
0.0
 11
1451.595686259353
 21
457.0447005272406
 31
0.0
  0
LINE
  5
C84
330
17
100
AcDbEntity
  8
图例及图签
 62
     4
370
    -3
100
AcDbLine
 10
1317.031226332387
 20
278.1325904421978
 30
0.0
 11
1207.529116271355
 21
277.9887991715805
 31
0.0
  0
LINE
  5
C85
330
17
100
AcDbEntity
  8
图例及图签
 62
     4
370
    -3
100
AcDbLine
 10
1317.031226332387
 20
294.3326066826116
 30
0.0
 11
1207.529116271355
 21
294.1888154535476
 31
0.0
  0
ARC
  5
C86
330
17
100
AcDbEntity
  8
图例及图签
 62
     4
 48
1.000000000000000E+16
100
AcDbCircle
 10
1471.516510146198
 20
437.1238766403583
 30
0.0
 40
19.92082388687595
100
AcDbArc
 50
270.0
 51
90.0
  0
LINE
  5
C87
330
17
100
AcDbEntity
  8
图例及图签
 62
     4
 48
1.000000000000000E+16
100
AcDbLine
 10
1471.516510146198
 20
417.2030527534992
 30
0.0
 11
1471.516510146198
 21
397.3098400770659
 31
0.0
  0
LINE
  5
C88
330
17
100
AcDbEntity
  8
图例及图签
 62
     4
 48
1.000000000000000E+16
100
AcDbLine
 10
1471.516510146198
 20
476.9379132036743
 30
0.0
 11
1471.516510146198
 21
457.0447005272406
 31
0.0
  0
ARC
  5
C89
330
17
100
AcDbEntity
  8
图例及图签
 62
     4
 48
1.000000000000000E+16
100
AcDbCircle
 10
1451.595686259353
 20
437.1238766403583
 30
0.0
 40
19.92082388687595
100
AcDbArc
 50
270.0
 51
90.0
  0
LINE
  5
C8A
330
17
100
AcDbEntity
  8
图例及图签
 62
     4
 48
1.000000000000000E+16
100
AcDbLine
 10
1451.595686259353
 20
417.2030527534992
 30
0.0
 11
1451.595686259353
 21
397.3098400770659
 31
0.0
  0
LINE
  5
C8B
330
17
100
AcDbEntity
  8
图例及图签
 62
     4
 48
1.000000000000000E+16
100
AcDbLine
 10
1451.595686259353
 20
476.9379132036743
 30
0.0
 11
1451.595686259353
 21
457.0447005272406
 31
0.0
  0
TEXT
  5
C8C
330
17
100
AcDbEntity
  8
经纬网
 62
     7
370
    20
100
AcDbText
 10
345.4202167694321
 20
7579.303967712769
 30
0.0
 40
15.0
  1
43
 50
298.9999999985728
  7
经纬网
100
AcDbText
  0
LINE
  5
C8D
330
17
100
AcDbEntity
  8
网格线
100
AcDbLine
 10
375.0
 20
566.9999999999999
 30
0.0
 11
375.0
 21
8593.000000000001
 31
0.0
  0
LINE
  5
C90
330
17
100
AcDbEntity
  8
网格线
100
AcDbLine
 10
1375.0
 20
565.4999999999999
 30
0.0
 11
1375.0
 21
8593.000000000001
 31
0.0
  0
LINE
  5
C91
330
17
100
AcDbEntity
  8
网格线
100
AcDbLine
 10
2375.0
 20
565.4999999999999
 30
0.0
 11
2375.0
 21
8593.000000000001
 31
0.0
  0
CIRCLE
  5
CD9
330
17
100
AcDbEntity
  8
通风-22、52煤通风系统图图签（通风管理部）
 62
     4
 48
0.3
370
    -3
100
AcDbCircle
 10
1036.92853822124
 20
135.3297741695946
 30
0.0
 40
20.92853822123718
  0
LINE
  5
CDA
330
17
100
AcDbEntity
  8
通风-22、52煤通风系统图图签（通风管理部）
 62
     4
 48
0.3
370
    -3
100
AcDbLine
 10
1055.660181191408
 20
146.0774381688735
 30
0.0
 11
1123.831078558265
 21
166.0373855961056
 31
0.0
  0
LINE
  5
CDB
330
17
100
AcDbEntity
  8
通风-22、52煤通风系统图图签（通风管理部）
 62
     4
 48
0.3
370
    -3
100
AcDbLine
 10
1123.831078558265
 20
166.0373855961056
 30
0.0
 11
1123.831078558265
 21
108.0
 31
0.0
  0
LINE
  5
CDC
330
17
100
AcDbEntity
  8
通风-22、52煤通风系统图图签（通风管理部）
 62
     4
 48
0.3
370
    -3
100
AcDbLine
 10
1123.831078558265
 20
108.0
 30
0.0
 11
1055.353105077141
 21
124.8891862845807
 31
0.0
  0
ENDSEC
  0
SECTION
  2
OBJECTS
  0
DICTIONARY
  5
A
330
0
100
AcDbDictionary
281
     1
  3
ACAD_COLOR
350
B
  3
ACAD_GROUP
350
C
  3
ACAD_LAYOUT
350
D
  3
ACAD_MATERIAL
350
E
  3
ACAD_MLEADERSTYLE
350
F
  3
ACAD_MLINESTYLE
350
10
  3
ACAD_PLOTSETTINGS
350
11
  3
ACAD_PLOTSTYLENAME
350
12
  3
ACAD_SCALELIST
350
14
  3
ACAD_TABLESTYLE
350
15
  3
ACAD_VISUALSTYLE
350
16
  3
AcDbVariableDictionary
350
65
  3
EZDXF_META
350
2D
  0
DICTIONARY
  5
127
330
1
100
AcDbDictionary
280
     1
281
     1
  3
ACAD_LAYERSTATES
360
128
  0
DICTIONARY
  5
C1
330
C0
100
AcDbDictionary
280
     1
281
     1
  3
ADSK_XREC_LAYER_RECONCILED
360
C2
  0
DICTIONARY
  5
BD
330
BC
100
AcDbDictionary
280
     1
281
     1
  3
ADSK_XREC_LAYER_RECONCILED
360
BE
  0
DICTIONARY
  5
2B9
330
2B8
100
AcDbDictionary
280
     1
281
     1
  3
ADSK_XREC_LAYER_RECONCILED
360
2BA
  0
DICTIONARY
  5
CAB
330
CAA
100
AcDbDictionary
280
     1
281
     1
  3
ADSK_XREC_LAYER_RECONCILED
360
CAC
  0
DICTIONARY
  5
C8E
330
17
100
AcDbDictionary
280
     1
281
     1
  3
ACAD_SORTENTS
360
C8F
  0
DICTIONARY
  5
B
330
A
100
AcDbDictionary
281
     1
  0
DICTIONARY
  5
C
330
A
100
AcDbDictionary
281
     1
  0
DICTIONARY
  5
D
330
A
100
AcDbDictionary
281
     1
  3
Layout1
350
1E
  3
Model
350
1A
  0
DICTIONARY
  5
E
330
A
100
AcDbDictionary
281
     1
  3
ByBlock
350
1F
  3
ByLayer
350
20
  3
Global
350
21
  0
DICTIONARY
  5
F
330
A
100
AcDbDictionary
281
     1
  3
Standard
350
2C
  0
DICTIONARY
  5
10
330
A
100
AcDbDictionary
281
     1
  3
Standard
350
22
  0
DICTIONARY
  5
11
330
A
100
AcDbDictionary
281
     1
  0
ACDBDICTIONARYWDFLT
  5
12
330
A
100
AcDbDictionary
281
     1
  3
Normal
350
13
100
AcDbDictionaryWithDefault
340
13
  0
DICTIONARY
  5
14
330
A
100
AcDbDictionary
281
     1
  0
DICTIONARY
  5
15
330
A
100
AcDbDictionary
281
     1
  3
Standard
350
62
  0
DICTIONARY
  5
16
330
A
100
AcDbDictionary
281
     1
  3
2dWireframe
350
4E
  3
Basic
350
51
  3
Brighten
350
55
  3
ColorChange
350
59
  3
Conceptual
350
53
  3
Dim
350
54
  3
EdgeColorOff
350
5C
  3
Facepattern
350
58
  3
Flat
350
4A
  3
FlatWithEdges
350
4B
  3
Gouraud
350
4C
  3
GouraudWithEdges
350
4D
  3
Hidden
350
50
  3
JitterOff
350
5A
  3
Linepattern
350
57
  3
OverhangOff
350
5B
  3
Realistic
350
52
  3
Shaded
350
61
  3
Shaded with edges
350
60
  3
Shades of Gray
350
5D
  3
Sketchy
350
5E
  3
Thicken
350
56
  3
Wireframe
350
4F
  3
X-Ray
350
5F
  0
DICTIONARY
  5
65
102
{ACAD_REACTORS
330
A
102
}
330
A
100
AcDbDictionary
281
     1
  3
CMLEADERSTYLE
350
67
  3
CTABLESTYLE
350
66
  3
DIMASSOC
350
68
  3
HIDETEXT
350
69
  0
DICTIONARY
  5
2D
330
A
100
AcDbDictionary
281
     1
  3
CREATED_BY_EZDXF
350
2E
  3
WRITTEN_BY_EZDXF
350
49
  0
DICTIONARY
  5
128
102
{ACAD_REACTORS
330
127
102
}
330
127
100
AcDbDictionary
281
     1
  0
XRECORD
  5
C2
102
{ACAD_REACTORS
330
C1
102
}
330
C1
100
AcDbXrecord
280
     1
290
     1
  0
XRECORD
  5
BE
102
{ACAD_REACTORS
330
BD
102
}
330
BD
100
AcDbXrecord
280
     1
290
     1
  0
XRECORD
  5
2BA
102
{ACAD_REACTORS
330
2B9
102
}
330
2B9
100
AcDbXrecord
280
     1
290
     1
  0
XRECORD
  5
CAC
102
{ACAD_REACTORS
330
CAB
102
}
330
CAB
100
AcDbXrecord
280
     1
290
     1
  0
SORTENTSTABLE
  5
C8F
102
{ACAD_REACTORS
330
C8E
102
}
330
17
100
AcDbSortentsTable
330
17
331
3D
  5
3E
331
3E
  5
40
331
3F
  5
42
331
40
  5
43
331
41
  5
44
331
42
  5
45
331
43
  5
46
331
44
  5
B3
331
45
  5
12A
331
46
  5
2E4
331
B3
  5
30E
331
12A
  5
362
331
2E4
  5
38C
331
30E
  5
3B6
331
362
  5
3E0
331
38C
  5
40A
331
3B6
  5
434
331
3E0
  5
45E
331
40A
  5
488
331
434
  5
4B3
331
45E
  5
4DD
331
488
  5
507
331
4B3
  5
531
331
4DD
  5
55B
331
507
  5
585
331
531
  5
5AF
331
55B
  5
5D9
331
585
  5
603
331
5AF
  5
62D
331
5D9
  5
657
331
603
  5
6AB
331
62D
  5
6D5
331
657
  5
6FF
331
6AB
  5
729
331
6D5
  5
753
331
6FF
  5
77D
331
729
  5
7A7
331
753
  5
7D1
331
77D
  5
7FB
331
7A7
  5
825
331
7D1
  5
878
331
7FB
  5
8A2
331
825
  5
8CC
331
878
  5
8F6
331
8A2
  5
920
331
8CC
  5
94A
331
8F6
  5
974
331
920
  5
99E
331
94A
  5
9C8
331
974
  5
9F2
331
99E
  5
A1C
331
9C8
  5
A1F
331
9F2
  5
B73
331
A1C
  5
B74
331
A1F
  5
B75
331
B73
  5
B76
331
B74
  5
B77
331
B75
  5
B78
331
B76
  5
B79
331
B77
  5
B7A
331
B78
  5
B7B
331
B79
  5
B7C
331
B7A
  5
B7D
331
B7B
  5
B7E
331
B7C
  5
B7F
331
B7D
  5
B80
331
B7E
  5
B81
331
B7F
  5
B82
331
B80
  5
B83
331
B81
  5
B84
331
B82
  5
B85
331
B83
  5
B86
331
B84
  5
B87
331
B85
  5
B88
331
B86
  5
B89
331
B87
  5
B8A
331
B88
  5
B8B
331
B89
  5
B8C
331
B8A
  5
B8D
331
B8B
  5
B8E
331
B8C
  5
B8F
331
B8D
  5
B90
331
B8E
  5
B91
331
B8F
  5
B92
331
B90
  5
B93
331
B91
  5
B94
331
B92
  5
B95
331
B93
  5
B96
331
B94
  5
B97
331
B95
  5
B98
331
B96
  5
B99
331
B97
  5
B9A
331
B98
  5
B9B
331
B99
  5
B9C
331
B9A
  5
B9D
331
B9B
  5
B9E
331
B9C
  5
B9F
331
B9D
  5
BA0
331
B9E
  5
BA1
331
B9F
  5
BA2
331
BA0
  5
BA3
331
BA1
  5
BA4
331
BA2
  5
BA5
331
BA3
  5
BA6
331
BA4
  5
BA7
331
BA5
  5
BA8
331
BA6
  5
BA9
331
BA7
  5
BAA
331
BA8
  5
BAB
331
BA9
  5
BAC
331
BAA
  5
BAD
331
BAB
  5
BAE
331
BAC
  5
BAF
331
BAD
  5
BB0
331
BAE
  5
BB1
331
BAF
  5
BB2
331
BB0
  5
BB3
331
BB1
  5
BB4
331
BB2
  5
BB5
331
BB3
  5
BB6
331
BB4
  5
BB7
331
BB5
  5
BB8
331
BB6
  5
BB9
331
BB7
  5
BBA
331
BB8
  5
BBB
331
BB9
  5
BBC
331
BBA
  5
BBD
331
BBB
  5
BBE
331
BBC
  5
BBF
331
BBD
  5
BC0
331
BBE
  5
BC1
331
BBF
  5
BC2
331
BC0
  5
BC3
331
BC1
  5
BC4
331
BC2
  5
BC5
331
BC3
  5
BC6
331
BC4
  5
BC7
331
BC5
  5
BC8
331
BC6
  5
BC9
331
BC7
  5
BCA
331
BC8
  5
BCB
331
BC9
  5
BCC
331
BCA
  5
BCD
331
BCB
  5
BCE
331
BCC
  5
BCF
331
BCD
  5
BD0
331
BCE
  5
BD1
331
BCF
  5
BD2
331
BD0
  5
BD3
331
BD1
  5
BD4
331
BD2
  5
BD5
331
BD3
  5
BD6
331
BD4
  5
BD7
331
BD5
  5
BD8
331
BD6
  5
BD9
331
BD7
  5
BDA
331
BD8
  5
BDB
331
BD9
  5
BDC
331
BDA
  5
BDD
331
BDB
  5
BDE
331
BDC
  5
BDF
331
BDD
  5
BE0
331
BDE
  5
BE1
331
BDF
  5
BE2
331
BE0
  5
BE3
331
BE1
  5
BE4
331
BE2
  5
BE5
331
BE3
  5
BE6
331
BE4
  5
BE7
331
BE5
  5
BE8
331
BE6
  5
BE9
331
BE7
  5
BEA
331
BE8
  5
BEB
331
BE9
  5
BEC
331
BEA
  5
BED
331
BEB
  5
BEE
331
BEC
  5
BEF
331
BED
  5
BF0
331
BEE
  5
BF1
331
BEF
  5
BF2
331
BF0
  5
BF3
331
BF1
  5
BF4
331
BF2
  5
BF5
331
BF3
  5
BF6
331
BF4
  5
BF7
331
BF5
  5
BF8
331
BF6
  5
BF9
331
BF7
  5
BFA
331
BF8
  5
BFB
331
BF9
  5
BFC
331
BFA
  5
BFD
331
BFB
  5
BFE
331
BFC
  5
BFF
331
BFD
  5
C00
331
BFE
  5
C01
331
BFF
  5
C02
331
C00
  5
C03
331
C01
  5
C04
331
C02
  5
C05
331
C03
  5
C06
331
C04
  5
C07
331
C05
  5
C08
331
C06
  5
C09
331
C07
  5
C0A
331
C08
  5
C0B
331
C09
  5
C0C
331
C0A
  5
C0D
331
C0B
  5
C0E
331
C0C
  5
C0F
331
C0D
  5
C10
331
C0E
  5
C11
331
C0F
  5
C12
331
C10
  5
C13
331
C11
  5
C14
331
C12
  5
C15
331
C13
  5
C16
331
C14
  5
C17
331
C15
  5
C18
331
C16
  5
C19
331
C17
  5
C1A
331
C18
  5
C1B
331
C19
  5
C1C
331
C1A
  5
C1D
331
C1B
  5
C1E
331
C1C
  5
C1F
331
C1D
  5
C20
331
C1E
  5
C21
331
C1F
  5
C22
331
C20
  5
C23
331
C21
  5
C24
331
C22
  5
C25
331
C23
  5
C26
331
C24
  5
C27
331
C25
  5
C28
331
C26
  5
C29
331
C27
  5
C2A
331
C28
  5
C2B
331
C29
  5
C2C
331
C2A
  5
C2D
331
C2B
  5
C2E
331
C2C
  5
C2F
331
C2D
  5
C30
331
C2E
  5
C31
331
C2F
  5
C32
331
C30
  5
C33
331
C31
  5
C34
331
C32
  5
C35
331
C33
  5
C36
331
C34
  5
C37
331
C35
  5
C38
331
C36
  5
C39
331
C37
  5
C3A
331
C38
  5
C3B
331
C39
  5
C3C
331
C3A
  5
C3D
331
C3B
  5
C3E
331
C3C
  5
C3F
331
C3D
  5
C40
331
C3E
  5
C41
331
C3F
  5
C42
331
C40
  5
C43
331
C41
  5
C44
331
C42
  5
C45
331
C43
  5
C46
331
C44
  5
C47
331
C45
  5
C48
331
C46
  5
C49
331
C47
  5
C4A
331
C48
  5
C4B
331
C49
  5
C4C
331
C4A
  5
C4D
331
C4B
  5
C4E
331
C4C
  5
C4F
331
C4D
  5
C50
331
C4E
  5
C51
331
C4F
  5
C52
331
C50
  5
C53
331
C51
  5
C54
331
C52
  5
C55
331
C53
  5
C56
331
C54
  5
C57
331
C55
  5
C58
331
C56
  5
C59
331
C57
  5
C5A
331
C58
  5
C5B
331
C59
  5
C5C
331
C5A
  5
C5D
331
C5B
  5
C5E
331
C5C
  5
C5F
331
C5D
  5
C60
331
C5E
  5
C61
331
C5F
  5
C62
331
C60
  5
C63
331
C61
  5
C64
331
C62
  5
C65
331
C63
  5
C66
331
C64
  5
C67
331
C65
  5
C68
331
C66
  5
C69
331
C67
  5
C6A
331
C68
  5
C6B
331
C69
  5
C6C
331
C6A
  5
C6D
331
C6B
  5
C6E
331
C6C
  5
C6F
331
C6D
  5
C70
331
C6E
  5
C71
331
C6F
  5
C72
331
C70
  5
C73
331
C71
  5
C74
331
C72
  5
C75
331
C73
  5
C76
331
C74
  5
C77
331
C75
  5
C78
331
C76
  5
C79
331
C77
  5
C7A
331
C78
  5
C7B
331
C79
  5
C7C
331
C7A
  5
C7D
331
C7B
  5
C7E
331
C7C
  5
C7F
331
C7D
  5
C80
331
C7E
  5
C81
331
C7F
  5
C82
331
C80
  5
C83
331
C81
  5
C84
331
C82
  5
C85
331
C83
  5
C86
331
C84
  5
C87
331
C85
  5
C88
331
C86
  5
C89
331
C87
  5
C8A
331
C88
  5
C8B
331
C89
  5
C8C
331
C8A
  5
C8D
331
C8B
  5
C90
331
C8C
  5
C91
331
C8D
  5
3D
331
C90
  5
3F
331
C91
  5
41
  0
LAYOUT
  5
1E
330
D
100
AcDbPlotSettings
  1

  2
Adobe PDF
  4
A3
  6

 40
7.5
 41
20.0
 42
7.5
 43
20.0
 44
420.0
 45
297.0
 46
0.0
 47
0.0
 48
0.0
 49
0.0
140
0.0
141
0.0
142
1.0
143
1.0
 70
     0
 72
     1
 73
     0
 74
     5
  7

 75
    16
 76
     0
 77
     2
 78
   300
147
1.0
148
0.0
149
0.0
100
AcDbLayout
  1
Layout1
 70
     1
 71
     1
 10
0.0
 20
0.0
 11
420.0
 21
297.0
 12
0.0
 22
0.0
 32
0.0
 14
1.000000000000000E+20
 24
1.000000000000000E+20
 34
1.000000000000000E+20
 15
-1.000000000000000E+20
 25
-1.000000000000000E+20
 35
-1.000000000000000E+20
146
0.0
 13
0.0
 23
0.0
 33
0.0
 16
1.0
 26
0.0
 36
0.0
 17
0.0
 27
1.0
 37
0.0
 76
     1
330
1B
  0
LAYOUT
  5
1A
330
D
100
AcDbPlotSettings
  1

  2
Adobe PDF
  4
A3
  6

 40
7.5
 41
20.0
 42
7.5
 43
20.0
 44
420.0
 45
297.0
 46
0.0
 47
0.0
 48
0.0
 49
0.0
140
0.0
141
0.0
142
1.0
143
1.0
 70
  1024
 72
     1
 73
     0
 74
     5
  7

 75
    16
 76
     0
 77
     2
 78
   300
147
1.0
148
0.0
149
0.0
100
AcDbLayout
  1
Model
 70
     1
 71
     0
 10
0.0
 20
0.0
 11
420.0
 21
297.0
 12
0.0
 22
0.0
 32
0.0
 14
1.000000000000000E+20
 24
1.000000000000000E+20
 34
1.000000000000000E+20
 15
-1.000000000000000E+20
 25
-1.000000000000000E+20
 35
-1.000000000000000E+20
146
0.0
 13
0.0
 23
0.0
 33
0.0
 16
1.0
 26
0.0
 36
0.0
 17
0.0
 27
1.0
 37
0.0
 76
     1
330
17
331
23
  0
MATERIAL
  5
1F
102
{ACAD_REACTORS
330
E
102
}
330
E
100
AcDbMaterial
  1
ByBlock
 71
     1
 91
-1023410177
 73
     2
 78
     2
172
     2
176
     2
270
     2
273
     1
274
     2
 94
       63
  0
MATERIAL
  5
20
102
{ACAD_REACTORS
330
E
102
}
330
E
100
AcDbMaterial
  1
ByLayer
 71
     1
 91
-1023410177
 73
     2
 78
     2
172
     2
176
     2
270
     2
273
     1
274
     2
 94
       63
  0
MATERIAL
  5
21
102
{ACAD_REACTORS
330
E
102
}
330
E
100
AcDbMaterial
  1
Global
 71
     1
 91
-1023410177
 73
     2
 78
     2
172
     2
176
     2
270
     2
273
     1
274
     2
 94
       63
  0
MLEADERSTYLE
  5
2C
102
{ACAD_REACTORS
330
F
102
}
330
F
100
AcDbMLeaderStyle
179
     2
170
     2
171
     1
172
     0
 90
        2
 40
0.0
 41
0.0
173
     1
 91
-1056964608
340
0
 92
       -2
290
     1
 42
2.0
291
     1
 43
8.0
  3
Standard
 44
4.0
300

342
29
174
     1
178
     1
175
     1
176
     0
 93
-1056964608
 45
4.0
292
     0
297
     0
 46
4.0
 94
-1056964608
 47
1.0
 49
1.0
140
1.0
293
     1
141
0.0
294
     1
177
     0
142
1.0
295
     0
296
     0
143
3.75
271
     0
272
     9
273
     9
298
     0
  0
MLINESTYLE
  5
22
102
{ACAD_REACTORS
330
10
102
}
330
10
100
AcDbMlineStyle
  2
Standard
 70
     0
  3

 62
   256
 51
90.0
 52
90.0
 71
     2
 49
0.5
 62
   256
  6
BYLAYER
 49
-0.5
 62
   256
  6
BYLAYER
  0
ACDBPLACEHOLDER
  5
13
102
{ACAD_REACTORS
330
12
102
}
330
12
  0
TABLESTYLE
  5
62
102
{ACAD_REACTORS
330
15
102
}
330
15
100
AcDbTableStyle
  3
Standard
 70
     0
 71
     0
 40
1.5
 41
1.5
280
     0
281
     0
  7
Standard
140
4.5
170
     2
 62
     7
 63
   257
283
     0
 90
        4
 91
        0
  1

274
    -2
284
     1
 64
     0
275
    -2
285
     1
 65
     0
276
    -2
286
     1
 66
     0
277
    -2
287
     1
 67
     0
278
    -2
288
     1
 68
     0
279
    -2
289
     1
 69
     0
  7
Standard
140
6.0
170
     5
 62
     7
 63
   257
283
     0
 90
        4
 91
        0
  1

274
    -2
284
     1
 64
     0
275
    -2
285
     1
 65
     0
276
    -2
286
     1
 66
     0
277
    -2
287
     1
 67
     0
278
    -2
288
     1
 68
     0
279
    -2
289
     1
 69
     0
  7
Standard
140
4.5
170
     5
 62
     7
 63
   257
283
     0
 90
        4
 91
        0
  1

274
    -2
284
     1
 64
     0
275
    -2
285
     1
 65
     0
276
    -2
286
     1
 66
     0
277
    -2
287
     1
 67
     0
278
    -2
288
     1
 68
     0
279
    -2
289
     1
 69
     0
  0
VISUALSTYLE
  5
4E
102
{ACAD_REACTORS
330
16
102
}
330
16
100
AcDbVisualStyle
  2
2dWireframe
 70
     4
177
     3
291
     0
 70
    58
 90
        0
176
     1
 90
        2
176
     1
 90
        0
176
     1
 90
        0
176
     1
 40
0.6
176
     1
 40
30.0
176
     1
 62
     7
176
     1
 90
        1
176
     1
 90
        4
176
     1
 62
     7
176
     1
 62
   257
176
     1
 90
        1
176
     1
 90
        1
176
     1
 40
1.0
176
     1
 90
        0
176
     1
 62
   257
176
     1
 40
1.0
176
     1
 90
        1
176
     1
 90
        6
176
     1
 90
        2
176
     1
 62
     7
176
     1
 90
        5
176
     1
 90
        0
176
     1
 90
        0
176
     1
290
     0
176
     1
 90
        1
176
     1
 40
0.0
176
     1
 90
        0
176
     1
290
     1
176
     1
290
     1
176
     1
290
     0
176
     1
290
     0
176
     1
290
     0
176
     1
290
     0
176
     1
290
     0
176
     1
290
     0
176
     1
290
     0
176
     1
 90
       50
176
     1
 40
0.0
176
     1
 40
1.0
176
     1
 90
        0
176
     1
 62
    18
420
        0
176
     1
 90
       50
176
     1
 90
        3
176
     1
 62
     5
420
      255
176
     1
290
     0
176
     1
 90
       50
176
     1
 90
       50
176
     1
 90
       50
176
     1
290
     0
176
     1
 90
       50
176
     1
 62
   256
176
     0
 40
1.0
176
     0
 90
        2
176
     1
  1
strokes_ogs.tif
176
     1
290
     0
176
     1
 40
1.0
176
     1
 40
1.0
176
     1
  0
VISUALSTYLE
  5
51
102
{ACAD_REACTORS
330
16
102
}
330
16
100
AcDbVisualStyle
  2
Basic
 70
     7
177
     3
291
     1
 70
    58
 90
        1
176
     1
 90
        0
176
     1
 90
        1
176
     1
 90
        0
176
     1
 40
0.6
176
     1
 40
30.0
176
     1
 62
     7
176
     1
 90
        0
176
     1
 90
        4
176
     1
 62
     7
176
     1
 62
   257
176
     1
 90
        1
176
     1
 90
        1
176
     1
 40
1.0
176
     1
 90
        8
176
     1
 62
     7
176
     1
 40
1.0
176
     1
 90
        1
176
     1
 90
        6
176
     1
 90
        2
176
     1
 62
     7
176
     1
 90
        5
176
     1
 90
        0
176
     1
 90
        0
176
     1
290
     0
176
     1
 90
        1
176
     1
 40
0.0
176
     1
 90
        0
176
     1
290
     0
176
     1
290
     1
176
     1
290
     1
176
     1
290
     0
176
     1
290
     0
176
     1
290
     0
176
     1
290
     0
176
     1
290
     0
176
     1
290
     0
176
     1
 90
       50
176
     1
 40
0.0
176
     1
 40
1.0
176
     1
 90
        0
176
     1
 62
    18
420
        0
176
     1
 90
       50
176
     1
 90
        3
176
     1
 62
     5
420
      255
176
     1
290
     0
176
     1
 90
       50
176
     1
 90
       50
176
     1
 90
       50
176
     1
290
     0
176
     1
 90
       50
176
     1
 62
   256
176
     0
 40
1.0
176
     0
 90
        2
176
     1
  1
strokes_ogs.tif
176
     1
290
     0
176
     1
 40
1.0
176
     1
 40
1.0
176
     1
  0
VISUALSTYLE
  5
55
102
{ACAD_REACTORS
330
16
102
}
330
16
100
AcDbVisualStyle
  2
Brighten
 70
    12
177
     3
291
     1
 70
    58
 90
        2
176
     1
 90
        2
176
     1
 90
        0
176
     1
 90
        0
176
     1
 40
0.6
176
     1
 40
30.0
176
     1
 62
     7
176
     1
 90
        1
176
     1
 90
        4
176
     1
 62
     7
176
     1
 62
   257
176
     1
 90
        1
176
     1
 90
        1
176
     1
 40
1.0
176
     1
 90
        8
176
     1
 62
     7
176
     1
 40
1.0
176
     1
 90
        1
176
     1
 90
        6
176
     1
 90
        2
176
     1
 62
     7
176
     1
 90
        5
176
     1
 90
        0
176
     1
 90
        0
176
     1
290
     0
176
     1
 90
        1
176
     1
 40
50.0
176
     1
 90
        0
176
     1
290
     0
176
     1
290
     1
176
     1
290
     1
176
     1
290
     0
176
     1
290
     0
176
     1
290
     0
176
     1
290
     0
176
     1
290
     0
176
     1
290
     0
176
     1
 90
       50
176
     1
 40
0.0
176
     1
 40
1.0
176
     1
 90
        0
176
     1
 62
    18
420
        0
176
     1
 90
       50
176
     1
 90
        3
176
     1
 62
     5
420
      255
176
     1
290
     0
176
     1
 90
       50
176
     1
 90
       50
176
     1
 90
       50
176
     1
290
     0
176
     1
 90
       50
176
     1
 62
   256
176
     0
 40
1.0
176
     0
 90
        2
176
     1
  1
strokes_ogs.tif
176
     1
290
     0
176
     1
 40
1.0
176
     1
 40
1.0
176
     1
  0
VISUALSTYLE
  5
59
102
{ACAD_REACTORS
330
16
102
}
330
16
100
AcDbVisualStyle
  2
ColorChange
 70
    16
177
     3
291
     1
 70
    58
 90
        2
176
     1
 90
        2
176
     1
 90
        3
176
     1
 90
        0
176
     1
 40
0.6
176
     1
 40
30.0
176
     1
 62
     8
176
     1
 90
        1
176
     1
 90
        4
176
     1
 62
     7
176
     1
 62
   257
176
     1
 90
        1
176
     1
 90
        1
176
     1
 40
1.0
176
     1
 90
        8
176
     1
 62
     8
176
     1
 40
1.0
176
     1
 90
        1
176
     1
 90
        6
176
     1
 90
        2
176
     1
 62
     7
176
     1
 90
        5
176
     1
 90
        0
176
     1
 90
        0
176
     1
290
     0
176
     1
 90
        1
176
     1
 40
0.0
176
     1
 90
        0
176
     1
290
     0
176
     1
290
     1
176
     1
290
     1
176
     1
290
     0
176
     1
290
     0
176
     1
290
     0
176
     1
290
     0
176
     1
290
     0
176
     1
290
     0
176
     1
 90
       50
176
     1
 40
0.0
176
     1
 40
1.0
176
     1
 90
        0
176
     1
 62
    18
420
        0
176
     1
 90
       50
176
     1
 90
        3
176
     1
 62
     5
420
      255
176
     1
290
     0
176
     1
 90
       50
176
     1
 90
       50
176
     1
 90
       50
176
     1
290
     0
176
     1
 90
       50
176
     1
 62
   256
176
     0
 40
1.0
176
     0
 90
        2
176
     1
  1
strokes_ogs.tif
176
     1
290
     0
176
     1
 40
1.0
176
     1
 40
1.0
176
     1
  0
VISUALSTYLE
  5
53
102
{ACAD_REACTORS
330
16
102
}
330
16
100
AcDbVisualStyle
  2
Conceptual
 70
     9
177
     3
291
     0
 70
    58
 90
        3
176
     1
 90
        2
176
     1
 90
        0
176
     1
 90
        0
176
     1
 40
0.6
176
     1
 40
30.0
176
     1
 62
     7
176
     1
 90
        2
176
     1
 90
        2
176
     1
 62
     7
176
     1
 62
   257
176
     1
 90
        1
176
     1
 90
        1
176
     1
 40
179.0
176
     1
 90
        8
176
     1
 62
     7
176
     1
 40
1.0
176
     1
 90
        1
176
     1
 90
        6
176
     1
 90
        2
176
     1
 62
     7
176
     1
 90
        3
176
     1
 90
        0
176
     1
 90
        0
176
     1
290
     0
176
     1
 90
        1
176
     1
 40
0.0
176
     1
 90
        0
176
     1
290
     0
176
     1
290
     1
176
     1
290
     1
176
     1
290
     0
176
     1
290
     0
176
     1
290
     0
176
     1
290
     0
176
     1
290
     0
176
     1
290
     0
176
     1
 90
       50
176
     1
 40
0.0
176
     1
 40
1.0
176
     1
 90
        0
176
     1
 62
    18
420
        0
176
     1
 90
       50
176
     1
 90
        3
176
     1
 62
     5
420
      255
176
     1
290
     0
176
     1
 90
       50
176
     1
 90
       50
176
     1
 90
       50
176
     1
290
     0
176
     1
 90
       50
176
     1
 62
   256
176
     0
 40
1.0
176
     0
 90
        2
176
     1
  1
strokes_ogs.tif
176
     1
290
     0
176
     1
 40
1.0
176
     1
 40
1.0
176
     1
  0
VISUALSTYLE
  5
54
102
{ACAD_REACTORS
330
16
102
}
330
16
100
AcDbVisualStyle
  2
Dim
 70
    11
177
     3
291
     1
 70
    58
 90
        2
176
     1
 90
        2
176
     1
 90
        0
176
     1
 90
        0
176
     1
 40
0.6
176
     1
 40
30.0
176
     1
 62
     7
176
     1
 90
        1
176
     1
 90
        4
176
     1
 62
     7
176
     1
 62
   257
176
     1
 90
        1
176
     1
 90
        1
176
     1
 40
1.0
176
     1
 90
        8
176
     1
 62
     7
176
     1
 40
1.0
176
     1
 90
        1
176
     1
 90
        6
176
     1
 90
        2
176
     1
 62
     7
176
     1
 90
        5
176
     1
 90
        0
176
     1
 90
        0
176
     1
290
     0
176
     1
 90
        1
176
     1
 40
-50.0
176
     1
 90
        0
176
     1
290
     0
176
     1
290
     1
176
     1
290
     1
176
     1
290
     0
176
     1
290
     0
176
     1
290
     0
176
     1
290
     0
176
     1
290
     0
176
     1
290
     0
176
     1
 90
       50
176
     1
 40
0.0
176
     1
 40
1.0
176
     1
 90
        0
176
     1
 62
    18
420
        0
176
     1
 90
       50
176
     1
 90
        3
176
     1
 62
     5
420
      255
176
     1
290
     0
176
     1
 90
       50
176
     1
 90
       50
176
     1
 90
       50
176
     1
290
     0
176
     1
 90
       50
176
     1
 62
   256
176
     0
 40
1.0
176
     0
 90
        2
176
     1
  1
strokes_ogs.tif
176
     1
290
     0
176
     1
 40
1.0
176
     1
 40
1.0
176
     1
  0
VISUALSTYLE
  5
5C
102
{ACAD_REACTORS
330
16
102
}
330
16
100
AcDbVisualStyle
  2
EdgeColorOff
 70
    22
177
     3
291
     1
 70
    58
 90
        2
176
     0
 90
        2
176
     0
 90
        0
176
     0
 90
        0
176
     0
 40
0.6
176
     0
 40
30.0
176
     0
 62
     7
176
     0
 90
        1
176
     0
 90
        4
176
     0
 62
     7
176
     0
 62
   257
176
     0
 90
        1
176
     0
 90
        1
176
     0
 40
1.0
176
     0
 90
        8
176
     2
 62
     7
176
     0
 40
1.0
176
     0
 90
        1
176
     0
 90
        6
176
     0
 90
        2
176
     0
 62
     7
176
     0
 90
        5
176
     0
 90
        0
176
     0
 90
        0
176
     0
290
     0
176
     0
 90
        1
176
     0
 40
0.0
176
     0
 90
        0
176
     0
290
     0
176
     0
290
     1
176
     0
290
     1
176
     0
290
     0
176
     0
290
     0
176
     0
290
     0
176
     0
290
     0
176
     0
290
     0
176
     0
290
     0
176
     0
 90
       50
176
     0
 40
0.0
176
     0
 40
1.0
176
     0
 90
        0
176
     0
 62
    18
420
        0
176
     0
 90
       50
176
     0
 90
        3
176
     0
 62
     5
420
      255
176
     0
290
     0
176
     0
 90
       50
176
     0
 90
       50
176
     0
 90
       50
176
     0
290
     0
176
     0
 90
       50
176
     0
 62
   256
176
     0
 40
1.0
176
     0
 90
        2
176
     0
  1
strokes_ogs.tif
176
     0
290
     0
176
     0
 40
1.0
176
     0
 40
1.0
176
     0
  0
VISUALSTYLE
  5
58
102
{ACAD_REACTORS
330
16
102
}
330
16
100
AcDbVisualStyle
  2
Facepattern
 70
    15
177
     3
291
     1
 70
    58
 90
        2
176
     1
 90
        2
176
     1
 90
        0
176
     1
 90
        0
176
     1
 40
0.6
176
     1
 40
30.0
176
     1
 62
     7
176
     1
 90
        1
176
     1
 90
        4
176
     1
 62
     7
176
     1
 62
   257
176
     1
 90
        1
176
     1
 90
        1
176
     1
 40
1.0
176
     1
 90
        8
176
     1
 62
     7
176
     1
 40
1.0
176
     1
 90
        1
176
     1
 90
        6
176
     1
 90
        2
176
     1
 62
     7
176
     1
 90
        5
176
     1
 90
        0
176
     1
 90
        0
176
     1
290
     0
176
     1
 90
        1
176
     1
 40
0.0
176
     1
 90
        0
176
     1
290
     0
176
     1
290
     1
176
     1
290
     1
176
     1
290
     0
176
     1
290
     0
176
     1
290
     0
176
     1
290
     0
176
     1
290
     0
176
     1
290
     0
176
     1
 90
       50
176
     1
 40
0.0
176
     1
 40
1.0
176
     1
 90
        0
176
     1
 62
    18
420
        0
176
     1
 90
       50
176
     1
 90
        3
176
     1
 62
     5
420
      255
176
     1
290
     0
176
     1
 90
       50
176
     1
 90
       50
176
     1
 90
       50
176
     1
290
     0
176
     1
 90
       50
176
     1
 62
   256
176
     0
 40
1.0
176
     0
 90
        2
176
     1
  1
strokes_ogs.tif
176
     1
290
     0
176
     1
 40
1.0
176
     1
 40
1.0
176
     1
  0
VISUALSTYLE
  5
4A
102
{ACAD_REACTORS
330
16
102
}
330
16
100
AcDbVisualStyle
  2
Flat
 70
     0
177
     3
291
     1
 70
    58
 90
        2
176
     1
 90
        1
176
     1
 90
        1
176
     1
 90
        2
176
     1
 40
0.6
176
     1
 40
30.0
176
     1
 62
     7
176
     1
 90
        0
176
     1
 90
        0
176
     1
 62
     7
176
     1
 62
   257
176
     1
 90
        1
176
     1
 90
        1
176
     1
 40
1.0
176
     1
 90
        8
176
     1
 62
     7
176
     1
 40
1.0
176
     1
 90
        1
176
     1
 90
        6
176
     1
 90
        2
176
     1
 62
     7
176
     1
 90
        5
176
     1
 90
        0
176
     1
 90
        0
176
     1
290
     0
176
     1
 90
       13
176
     1
 40
0.0
176
     1
 90
        0
176
     1
290
     0
176
     1
290
     1
176
     1
290
     1
176
     1
290
     0
176
     1
290
     0
176
     1
290
     0
176
     1
290
     0
176
     1
290
     0
176
     1
290
     0
176
     1
 90
       50
176
     1
 40
0.0
176
     1
 40
1.0
176
     1
 90
        0
176
     1
 62
    18
420
        0
176
     1
 90
       50
176
     1
 90
        3
176
     1
 62
     5
420
      255
176
     1
290
     0
176
     1
 90
       50
176
     1
 90
       50
176
     1
 90
       50
176
     1
290
     0
176
     1
 90
       50
176
     1
 62
   256
176
     0
 40
1.0
176
     0
 90
        2
176
     1
  1
strokes_ogs.tif
176
     1
290
     0
176
     1
 40
1.0
176
     1
 40
1.0
176
     1
  0
VISUALSTYLE
  5
4B
102
{ACAD_REACTORS
330
16
102
}
330
16
100
AcDbVisualStyle
  2
FlatWithEdges
 70
     1
177
     3
291
     1
 70
    58
 90
        2
176
     1
 90
        1
176
     1
 90
        1
176
     1
 90
        2
176
     1
 40
0.6
176
     1
 40
30.0
176
     1
 62
     7
176
     1
 90
        1
176
     1
 90
        0
176
     1
 62
     7
176
     1
 62
   257
176
     1
 90
        1
176
     1
 90
        1
176
     1
 40
1.0
176
     1
 90
        0
176
     1
 62
   257
176
     1
 40
1.0
176
     1
 90
        1
176
     1
 90
        6
176
     1
 90
        2
176
     1
 62
     7
176
     1
 90
        5
176
     1
 90
        0
176
     1
 90
        0
176
     1
290
     0
176
     1
 90
       13
176
     1
 40
0.0
176
     1
 90
        0
176
     1
290
     0
176
     1
290
     1
176
     1
290
     1
176
     1
290
     0
176
     1
290
     0
176
     1
290
     0
176
     1
290
     0
176
     1
290
     0
176
     1
290
     0
176
     1
 90
       50
176
     1
 40
0.0
176
     1
 40
1.0
176
     1
 90
        0
176
     1
 62
    18
420
        0
176
     1
 90
       50
176
     1
 90
        3
176
     1
 62
     5
420
      255
176
     1
290
     0
176
     1
 90
       50
176
     1
 90
       50
176
     1
 90
       50
176
     1
290
     0
176
     1
 90
       50
176
     1
 62
   256
176
     0
 40
1.0
176
     0
 90
        2
176
     1
  1
strokes_ogs.tif
176
     1
290
     0
176
     1
 40
1.0
176
     1
 40
1.0
176
     1
  0
VISUALSTYLE
  5
4C
102
{ACAD_REACTORS
330
16
102
}
330
16
100
AcDbVisualStyle
  2
Gouraud
 70
     2
177
     3
291
     1
 70
    58
 90
        2
176
     1
 90
        2
176
     1
 90
        1
176
     1
 90
        2
176
     1
 40
0.6
176
     1
 40
30.0
176
     1
 62
     7
176
     1
 90
        0
176
     1
 90
        0
176
     1
 62
     7
176
     1
 62
   257
176
     1
 90
        1
176
     1
 90
        1
176
     1
 40
1.0
176
     1
 90
        0
176
     1
 62
     7
176
     1
 40
1.0
176
     1
 90
        1
176
     1
 90
        6
176
     1
 90
        2
176
     1
 62
     7
176
     1
 90
        5
176
     1
 90
        0
176
     1
 90
        0
176
     1
290
     0
176
     1
 90
       13
176
     1
 40
0.0
176
     1
 90
        0
176
     1
290
     0
176
     1
290
     1
176
     1
290
     1
176
     1
290
     0
176
     1
290
     0
176
     1
290
     0
176
     1
290
     0
176
     1
290
     0
176
     1
290
     0
176
     1
 90
       50
176
     1
 40
0.0
176
     1
 40
1.0
176
     1
 90
        0
176
     1
 62
    18
420
        0
176
     1
 90
       50
176
     1
 90
        3
176
     1
 62
     5
420
      255
176
     1
290
     0
176
     1
 90
       50
176
     1
 90
       50
176
     1
 90
       50
176
     1
290
     0
176
     1
 90
       50
176
     1
 62
   256
176
     0
 40
1.0
176
     0
 90
        2
176
     1
  1
strokes_ogs.tif
176
     1
290
     0
176
     1
 40
1.0
176
     1
 40
1.0
176
     1
  0
VISUALSTYLE
  5
4D
102
{ACAD_REACTORS
330
16
102
}
330
16
100
AcDbVisualStyle
  2
GouraudWithEdges
 70
     3
177
     3
291
     1
 70
    58
 90
        2
176
     1
 90
        2
176
     1
 90
        1
176
     1
 90
        2
176
     1
 40
0.6
176
     1
 40
30.0
176
     1
 62
     7
176
     1
 90
        1
176
     1
 90
        0
176
     1
 62
     7
176
     1
 62
   257
176
     1
 90
        1
176
     1
 90
        1
176
     1
 40
1.0
176
     1
 90
        0
176
     1
 62
   257
176
     1
 40
1.0
176
     1
 90
        1
176
     1
 90
        6
176
     1
 90
        2
176
     1
 62
     7
176
     1
 90
        5
176
     1
 90
        0
176
     1
 90
        0
176
     1
290
     0
176
     1
 90
       13
176
     1
 40
0.0
176
     1
 90
        0
176
     1
290
     0
176
     1
290
     1
176
     1
290
     1
176
     1
290
     0
176
     1
290
     0
176
     1
290
     0
176
     1
290
     0
176
     1
290
     0
176
     1
290
     0
176
     1
 90
       50
176
     1
 40
0.0
176
     1
 40
1.0
176
     1
 90
        0
176
     1
 62
    18
420
        0
176
     1
 90
       50
176
     1
 90
        3
176
     1
 62
     5
420
      255
176
     1
290
     0
176
     1
 90
       50
176
     1
 90
       50
176
     1
 90
       50
176
     1
290
     0
176
     1
 90
       50
176
     1
 62
   256
176
     0
 40
1.0
176
     0
 90
        2
176
     1
  1
strokes_ogs.tif
176
     1
290
     0
176
     1
 40
1.0
176
     1
 40
1.0
176
     1
  0
VISUALSTYLE
  5
50
102
{ACAD_REACTORS
330
16
102
}
330
16
100
AcDbVisualStyle
  2
Hidden
 70
     6
177
     3
291
     0
 70
    58
 90
        1
176
     1
 90
        2
176
     1
 90
        2
176
     1
 90
        0
176
     1
 40
0.6
176
     1
 40
30.0
176
     1
 62
     7
176
     1
 90
        2
176
     1
 90
        2
176
     1
 62
     7
176
     1
 62
   257
176
     1
 90
        2
176
     1
 90
        1
176
     1
 40
40.0
176
     1
 90
        0
176
     1
 62
   257
176
     1
 40
1.0
176
     1
 90
        1
176
     1
 90
        6
176
     1
 90
        2
176
     1
 62
     7
176
     1
 90
        3
176
     1
 90
        0
176
     1
 90
        0
176
     1
290
     0
176
     1
 90
        1
176
     1
 40
0.0
176
     1
 90
        0
176
     1
290
     0
176
     1
290
     1
176
     1
290
     1
176
     1
290
     0
176
     1
290
     0
176
     1
290
     0
176
     1
290
     0
176
     1
290
     0
176
     1
290
     0
176
     1
 90
       50
176
     1
 40
0.0
176
     1
 40
1.0
176
     1
 90
        0
176
     1
 62
    18
420
        0
176
     1
 90
       50
176
     1
 90
        3
176
     1
 62
     5
420
      255
176
     1
290
     0
176
     1
 90
       50
176
     1
 90
       50
176
     1
 90
       50
176
     1
290
     0
176
     1
 90
       50
176
     1
 62
   256
176
     0
 40
1.0
176
     0
 90
        2
176
     1
  1
strokes_ogs.tif
176
     1
290
     0
176
     1
 40
1.0
176
     1
 40
1.0
176
     1
  0
VISUALSTYLE
  5
5A
102
{ACAD_REACTORS
330
16
102
}
330
16
100
AcDbVisualStyle
  2
JitterOff
 70
    20
177
     3
291
     1
 70
    58
 90
        2
176
     0
 90
        2
176
     0
 90
        0
176
     0
 90
        0
176
     0
 40
0.6
176
     0
 40
30.0
176
     0
 62
     7
176
     0
 90
        1
176
     0
 90
        4
176
     0
 62
     7
176
     0
 62
   257
176
     0
 90
        1
176
     0
 90
        1
176
     0
 40
1.0
176
     0
 90
       10
176
     2
 62
     7
176
     0
 40
1.0
176
     0
 90
        1
176
     0
 90
        6
176
     0
 90
        2
176
     0
 62
     7
176
     0
 90
        5
176
     0
 90
        0
176
     0
 90
        0
176
     0
290
     0
176
     0
 90
        1
176
     0
 40
0.0
176
     0
 90
        0
176
     0
290
     0
176
     0
290
     1
176
     0
290
     1
176
     0
290
     0
176
     0
290
     0
176
     0
290
     0
176
     0
290
     0
176
     0
290
     0
176
     0
290
     0
176
     0
 90
       50
176
     0
 40
0.0
176
     0
 40
1.0
176
     0
 90
        0
176
     0
 62
    18
420
        0
176
     0
 90
       50
176
     0
 90
        3
176
     0
 62
     5
420
      255
176
     0
290
     0
176
     0
 90
       50
176
     0
 90
       50
176
     0
 90
       50
176
     0
290
     0
176
     0
 90
       50
176
     0
 62
   256
176
     0
 40
1.0
176
     0
 90
        2
176
     0
  1
strokes_ogs.tif
176
     0
290
     0
176
     0
 40
1.0
176
     0
 40
1.0
176
     0
  0
VISUALSTYLE
  5
57
102
{ACAD_REACTORS
330
16
102
}
330
16
100
AcDbVisualStyle
  2
Linepattern
 70
    14
177
     3
291
     1
 70
    58
 90
        2
176
     1
 90
        2
176
     1
 90
        0
176
     1
 90
        0
176
     1
 40
0.6
176
     1
 40
30.0
176
     1
 62
     7
176
     1
 90
        1
176
     1
 90
        4
176
     1
 62
     7
176
     1
 62
   257
176
     1
 90
        7
176
     1
 90
        7
176
     1
 40
1.0
176
     1
 90
        8
176
     1
 62
     7
176
     1
 40
1.0
176
     1
 90
        1
176
     1
 90
        6
176
     1
 90
        2
176
     1
 62
     7
176
     1
 90
        5
176
     1
 90
        0
176
     1
 90
        0
176
     1
290
     0
176
     1
 90
        1
176
     1
 40
0.0
176
     1
 90
        0
176
     1
290
     0
176
     1
290
     1
176
     1
290
     1
176
     1
290
     0
176
     1
290
     0
176
     1
290
     0
176
     1
290
     0
176
     1
290
     0
176
     1
290
     0
176
     1
 90
       50
176
     1
 40
0.0
176
     1
 40
1.0
176
     1
 90
        0
176
     1
 62
    18
420
        0
176
     1
 90
       50
176
     1
 90
        3
176
     1
 62
     5
420
      255
176
     1
290
     0
176
     1
 90
       50
176
     1
 90
       50
176
     1
 90
       50
176
     1
290
     0
176
     1
 90
       50
176
     1
 62
   256
176
     0
 40
1.0
176
     0
 90
        2
176
     1
  1
strokes_ogs.tif
176
     1
290
     0
176
     1
 40
1.0
176
     1
 40
1.0
176
     1
  0
VISUALSTYLE
  5
5B
102
{ACAD_REACTORS
330
16
102
}
330
16
100
AcDbVisualStyle
  2
OverhangOff
 70
    21
177
     3
291
     1
 70
    58
 90
        2
176
     0
 90
        2
176
     0
 90
        0
176
     0
 90
        0
176
     0
 40
0.6
176
     0
 40
30.0
176
     0
 62
     7
176
     0
 90
        1
176
     0
 90
        4
176
     0
 62
     7
176
     0
 62
   257
176
     0
 90
        1
176
     0
 90
        1
176
     0
 40
1.0
176
     0
 90
        9
176
     2
 62
     7
176
     0
 40
1.0
176
     0
 90
        1
176
     0
 90
        6
176
     0
 90
        2
176
     0
 62
     7
176
     0
 90
        5
176
     0
 90
        0
176
     0
 90
        0
176
     0
290
     0
176
     0
 90
        1
176
     0
 40
0.0
176
     0
 90
        0
176
     0
290
     0
176
     0
290
     1
176
     0
290
     1
176
     0
290
     0
176
     0
290
     0
176
     0
290
     0
176
     0
290
     0
176
     0
290
     0
176
     0
290
     0
176
     0
 90
       50
176
     0
 40
0.0
176
     0
 40
1.0
176
     0
 90
        0
176
     0
 62
    18
420
        0
176
     0
 90
       50
176
     0
 90
        3
176
     0
 62
     5
420
      255
176
     0
290
     0
176
     0
 90
       50
176
     0
 90
       50
176
     0
 90
       50
176
     0
290
     0
176
     0
 90
       50
176
     0
 62
   256
176
     0
 40
1.0
176
     0
 90
        2
176
     0
  1
strokes_ogs.tif
176
     0
290
     0
176
     0
 40
1.0
176
     0
 40
1.0
176
     0
  0
VISUALSTYLE
  5
52
102
{ACAD_REACTORS
330
16
102
}
330
16
100
AcDbVisualStyle
  2
Realistic
 70
     8
177
     3
291
     0
 70
    58
 90
        2
176
     1
 90
        3
176
     1
 90
        0
176
     1
 90
        2
176
     1
 40
0.6
176
     1
 40
30.0
176
     1
 62
     7
176
     1
 90
        0
176
     1
 90
        0
176
     1
 62
     7
176
     1
 62
   257
176
     1
 90
        1
176
     1
 90
        1
176
     1
 40
1.0
176
     1
 90
        8
176
     1
 62
   257
176
     1
 40
1.0
176
     1
 90
        1
176
     1
 90
        6
176
     1
 90
        2
176
     1
 62
     7
176
     1
 90
        3
176
     1
 90
        0
176
     1
 90
        0
176
     1
290
     0
176
     1
 90
       13
176
     1
 40
0.0
176
     1
 90
        0
176
     1
290
     0
176
     1
290
     1
176
     1
290
     1
176
     1
290
     0
176
     1
290
     0
176
     1
290
     0
176
     1
290
     0
176
     1
290
     0
176
     1
290
     0
176
     1
 90
       50
176
     1
 40
0.0
176
     1
 40
1.0
176
     1
 90
        0
176
     1
 62
    18
420
        0
176
     1
 90
       50
176
     1
 90
        3
176
     1
 62
     5
420
      255
176
     1
290
     0
176
     1
 90
       50
176
     1
 90
       50
176
     1
 90
       50
176
     1
290
     0
176
     1
 90
       50
176
     1
 62
   256
176
     0
 40
1.0
176
     0
 90
        2
176
     1
  1
strokes_ogs.tif
176
     1
290
     0
176
     1
 40
1.0
176
     1
 40
1.0
176
     1
  0
VISUALSTYLE
  5
61
102
{ACAD_REACTORS
330
16
102
}
330
16
100
AcDbVisualStyle
  2
Shaded
 70
    27
177
     3
291
     0
 70
    58
 90
        2
176
     1
 90
        2
176
     1
 90
        1
176
     1
 90
        2
176
     1
 40
0.6
176
     1
 40
30.0
176
     1
 62
     7
176
     1
 90
        0
176
     1
 90
        4
176
     1
 62
     7
176
     1
 62
   257
176
     1
 90
        1
176
     1
 90
        1
176
     1
 40
1.0
176
     1
 90
        8
176
     1
 62
   257
176
     1
 40
1.0
176
     1
 90
        1
176
     1
 90
        6
176
     1
 90
        2
176
     1
 62
     8
176
     1
 90
        3
176
     1
 90
        0
176
     1
 90
        0
176
     1
290
     0
176
     1
 90
        5
176
     1
 40
0.0
176
     1
 90
        0
176
     1
290
     0
176
     1
290
     1
176
     1
290
     1
176
     1
290
     0
176
     1
290
     0
176
     1
290
     0
176
     1
290
     0
176
     1
290
     0
176
     1
290
     0
176
     1
 90
       50
176
     1
 40
0.0
176
     1
 40
1.0
176
     1
 90
        0
176
     1
 62
    18
420
        0
176
     1
 90
       50
176
     1
 90
        3
176
     1
 62
     5
420
      255
176
     1
290
     0
176
     1
 90
       50
176
     1
 90
       50
176
     1
 90
       50
176
     1
290
     0
176
     1
 90
       50
176
     1
 62
   256
176
     0
 40
1.0
176
     0
 90
        2
176
     1
  1
strokes_ogs.tif
176
     1
290
     0
176
     1
 40
1.0
176
     1
 40
1.0
176
     1
  0
VISUALSTYLE
  5
60
102
{ACAD_REACTORS
330
16
102
}
330
16
100
AcDbVisualStyle
  2
Shaded with edges
 70
    26
177
     3
291
     0
 70
    58
 90
        2
176
     1
 90
        2
176
     1
 90
        1
176
     1
 90
        2
176
     1
 40
0.6
176
     1
 40
30.0
176
     1
 62
     7
176
     1
 90
        1
176
     1
 90
       10
176
     1
 62
     7
176
     1
 62
   257
176
     1
 90
        2
176
     1
 90
        1
176
     1
 40
1.0
176
     1
 90
        8
176
     1
 62
   257
176
     1
 40
1.0
176
     1
 90
        1
176
     1
 90
        6
176
     1
 90
        2
176
     1
 62
     7
176
     1
 90
        3
176
     1
 90
        0
176
     1
 90
        0
176
     1
290
     0
176
     1
 90
        5
176
     1
 40
0.0
176
     1
 90
        0
176
     1
290
     0
176
     1
290
     1
176
     1
290
     1
176
     1
290
     0
176
     1
290
     0
176
     1
290
     0
176
     1
290
     0
176
     1
290
     0
176
     1
290
     0
176
     1
 90
       50
176
     1
 40
0.0
176
     1
 40
1.0
176
     1
 90
        0
176
     1
 62
    18
420
        0
176
     1
 90
       50
176
     1
 90
        3
176
     1
 62
     5
420
      255
176
     1
290
     0
176
     1
 90
       50
176
     1
 90
       50
176
     1
 90
       50
176
     1
290
     0
176
     1
 90
       50
176
     1
 62
   256
176
     0
 40
1.0
176
     0
 90
        2
176
     1
  1
strokes_ogs.tif
176
     1
290
     0
176
     1
 40
1.0
176
     1
 40
1.0
176
     1
  0
VISUALSTYLE
  5
5D
102
{ACAD_REACTORS
330
16
102
}
330
16
100
AcDbVisualStyle
  2
Shades of Gray
 70
    23
177
     3
291
     0
 70
    58
 90
        2
176
     1
 90
        2
176
     1
 90
        3
176
     1
 90
        0
176
     1
 40
0.6
176
     1
 40
30.0
176
     1
 62
     7
176
     1
 90
        2
176
     1
 90
        2
176
     1
 62
     7
176
     1
 62
     7
176
     1
 90
        1
176
     1
 90
        1
176
     1
 40
40.0
176
     1
 90
        8
176
     1
 62
     7
176
     1
 40
1.0
176
     1
 90
        1
176
     1
 90
        6
176
     1
 90
        2
176
     1
 62
     7
176
     1
 90
        3
176
     1
 90
        0
176
     1
 90
        0
176
     1
290
     0
176
     1
 90
        1
176
     1
 40
0.0
176
     1
 90
        0
176
     1
290
     0
176
     1
290
     1
176
     1
290
     1
176
     1
290
     0
176
     1
290
     0
176
     1
290
     0
176
     1
290
     0
176
     1
290
     0
176
     1
290
     0
176
     1
 90
       50
176
     1
 40
0.0
176
     1
 40
1.0
176
     1
 90
        0
176
     1
 62
    18
420
        0
176
     1
 90
       50
176
     1
 90
        3
176
     1
 62
     5
420
      255
176
     1
290
     0
176
     1
 90
       50
176
     1
 90
       50
176
     1
 90
       50
176
     1
290
     0
176
     1
 90
       50
176
     1
 62
   256
176
     0
 40
1.0
176
     0
 90
        2
176
     1
  1
strokes_ogs.tif
176
     1
290
     0
176
     1
 40
1.0
176
     1
 40
1.0
176
     1
  0
VISUALSTYLE
  5
5E
102
{ACAD_REACTORS
330
16
102
}
330
16
100
AcDbVisualStyle
  2
Sketchy
 70
    24
177
     3
291
     0
 70
    58
 90
        1
176
     1
 90
        2
176
     1
 90
        2
176
     1
 90
        0
176
     1
 40
0.6
176
     1
 40
30.0
176
     1
 62
     7
176
     1
 90
        2
176
     1
 90
        2
176
     1
 62
     7
176
     1
 62
     7
176
     1
 90
        1
176
     1
 90
        1
176
     1
 40
40.0
176
     1
 90
       11
176
     1
 62
     7
176
     1
 40
1.0
176
     1
 90
        1
176
     1
 90
        6
176
     1
 90
        2
176
     1
 62
     7
176
     1
 90
        6
176
     1
 90
        0
176
     1
 90
        0
176
     1
290
     0
176
     1
 90
        1
176
     1
 40
0.0
176
     1
 90
        0
176
     1
290
     0
176
     1
290
     1
176
     1
290
     1
176
     1
290
     0
176
     1
290
     0
176
     1
290
     0
176
     1
290
     0
176
     1
290
     0
176
     1
290
     0
176
     1
 90
       50
176
     1
 40
0.0
176
     1
 40
1.0
176
     1
 90
        0
176
     1
 62
    18
420
        0
176
     1
 90
       50
176
     1
 90
        3
176
     1
 62
     5
420
      255
176
     1
290
     0
176
     1
 90
       50
176
     1
 90
       50
176
     1
 90
       50
176
     1
290
     0
176
     1
 90
       50
176
     1
 62
   256
176
     0
 40
1.0
176
     0
 90
        2
176
     1
  1
strokes_ogs.tif
176
     1
290
     0
176
     1
 40
1.0
176
     1
 40
1.0
176
     1
  0
VISUALSTYLE
  5
56
102
{ACAD_REACTORS
330
16
102
}
330
16
100
AcDbVisualStyle
  2
Thicken
 70
    13
177
     3
291
     1
 70
    58
 90
        2
176
     1
 90
        2
176
     1
 90
        0
176
     1
 90
        0
176
     1
 40
0.6
176
     1
 40
30.0
176
     1
 62
     7
176
     1
 90
        1
176
     1
 90
        4
176
     1
 62
     7
176
     1
 62
   257
176
     1
 90
        1
176
     1
 90
        1
176
     1
 40
1.0
176
     1
 90
       12
176
     1
 62
     7
176
     1
 40
1.0
176
     1
 90
        1
176
     1
 90
        6
176
     1
 90
        2
176
     1
 62
     7
176
     1
 90
        5
176
     1
 90
        0
176
     1
 90
        0
176
     1
290
     0
176
     1
 90
        1
176
     1
 40
0.0
176
     1
 90
        0
176
     1
290
     0
176
     1
290
     1
176
     1
290
     1
176
     1
290
     0
176
     1
290
     0
176
     1
290
     0
176
     1
290
     0
176
     1
290
     0
176
     1
290
     0
176
     1
 90
       50
176
     1
 40
0.0
176
     1
 40
1.0
176
     1
 90
        0
176
     1
 62
    18
420
        0
176
     1
 90
       50
176
     1
 90
        3
176
     1
 62
     5
420
      255
176
     1
290
     0
176
     1
 90
       50
176
     1
 90
       50
176
     1
 90
       50
176
     1
290
     0
176
     1
 90
       50
176
     1
 62
   256
176
     0
 40
1.0
176
     0
 90
        2
176
     1
  1
strokes_ogs.tif
176
     1
290
     0
176
     1
 40
1.0
176
     1
 40
1.0
176
     1
  0
VISUALSTYLE
  5
4F
102
{ACAD_REACTORS
330
16
102
}
330
16
100
AcDbVisualStyle
  2
Wireframe
 70
     5
177
     3
291
     0
 70
    58
 90
        0
176
     1
 90
        2
176
     1
 90
        0
176
     1
 90
        0
176
     1
 40
0.6
176
     1
 40
30.0
176
     1
 62
     7
176
     1
 90
        1
176
     1
 90
        4
176
     1
 62
     7
176
     1
 62
   257
176
     1
 90
        1
176
     1
 90
        1
176
     1
 40
1.0
176
     1
 90
        0
176
     1
 62
   257
176
     1
 40
1.0
176
     1
 90
        1
176
     1
 90
        6
176
     1
 90
        2
176
     1
 62
     7
176
     1
 90
        3
176
     1
 90
        0
176
     1
 90
        0
176
     1
290
     0
176
     1
 90
        1
176
     1
 40
0.0
176
     1
 90
        0
176
     1
290
     0
176
     1
290
     1
176
     1
290
     1
176
     1
290
     0
176
     1
290
     0
176
     1
290
     0
176
     1
290
     0
176
     1
290
     0
176
     1
290
     0
176
     1
 90
       50
176
     1
 40
0.0
176
     1
 40
1.0
176
     1
 90
        0
176
     1
 62
    18
420
        0
176
     1
 90
       50
176
     1
 90
        3
176
     1
 62
     5
420
      255
176
     1
290
     0
176
     1
 90
       50
176
     1
 90
       50
176
     1
 90
       50
176
     1
290
     0
176
     1
 90
       50
176
     1
 62
   256
176
     0
 40
1.0
176
     0
 90
        2
176
     1
  1
strokes_ogs.tif
176
     1
290
     0
176
     1
 40
1.0
176
     1
 40
1.0
176
     1
  0
VISUALSTYLE
  5
5F
102
{ACAD_REACTORS
330
16
102
}
330
16
100
AcDbVisualStyle
  2
X-Ray
 70
    25
177
     3
291
     0
 70
    58
 90
        2
176
     1
 90
        2
176
     1
 90
        1
176
     1
 90
        1
176
     1
 40
0.5
176
     1
 40
30.0
176
     1
 62
     7
176
     1
 90
        1
176
     1
 90
        0
176
     1
 62
     7
176
     1
 62
   257
176
     1
 90
        1
176
     1
 90
        1
176
     1
 40
1.0
176
     1
 90
        8
176
     1
 62
     7
176
     1
 40
1.0
176
     1
 90
        1
176
     1
 90
        6
176
     1
 90
        2
176
     1
 62
     7
176
     1
 90
        3
176
     1
 90
        0
176
     1
 90
        0
176
     1
290
     0
176
     1
 90
       13
176
     1
 40
0.0
176
     1
 90
        0
176
     1
290
     0
176
     1
290
     1
176
     1
290
     1
176
     1
290
     0
176
     1
290
     0
176
     1
290
     0
176
     1
290
     0
176
     1
290
     0
176
     1
290
     0
176
     1
 90
       50
176
     1
 40
0.0
176
     1
 40
1.0
176
     1
 90
        0
176
     1
 62
    18
420
        0
176
     1
 90
       50
176
     1
 90
        3
176
     1
 62
     5
420
      255
176
     1
290
     0
176
     1
 90
       50
176
     1
 90
       50
176
     1
 90
       50
176
     1
290
     0
176
     1
 90
       50
176
     1
 62
   256
176
     0
 40
1.0
176
     0
 90
        2
176
     1
  1
strokes_ogs.tif
176
     1
290
     0
176
     1
 40
1.0
176
     1
 40
1.0
176
     1
  0
DICTIONARYVAR
  5
67
102
{ACAD_REACTORS
330
65
102
}
330
65
100
DictionaryVariables
280
    32
  1
Standard
  0
DICTIONARYVAR
  5
66
102
{ACAD_REACTORS
330
65
102
}
330
65
100
DictionaryVariables
280
   120
  1
Standard
  0
DICTIONARYVAR
  5
68
102
{ACAD_REACTORS
330
65
102
}
330
65
100
DictionaryVariables
280
   100
  1
1
  0
DICTIONARYVAR
  5
69
102
{ACAD_REACTORS
330
65
102
}
330
65
100
DictionaryVariables
280
    97
  1
1
  0
DICTIONARYVAR
  5
2E
330
2D
100
DictionaryVariables
280
     0
  1
1.0.3 @ 2024-10-25T02:06:09.972608+00:00
  0
DICTIONARYVAR
  5
49
330
2D
100
DictionaryVariables
280
     0
  1
1.0.3 @ 2024-10-25T02:06:09.975100+00:00
  0
ENDSEC
  0
SECTION
  2
ACDSDATA
 70
     2
 71
     2
  0
ACDSSCHEMA
 90
        0
  1
AcDb3DSolid_ASM_Data
  2
AcDbDs::ID
280
    10
 91
        0
  2
ASM_Data
280
    15
 91
        0
101
ACDSRECORD
 95
        0
 90
        1
  2
AcDbDs::TreatedAsObjectData
280
     1
291
     1
101
ACDSRECORD
 95
        0
 90
        2
  2
AcDbDs::Legacy
280
     1
291
     1
101
ACDSRECORD
  1
AcDbDs::ID
 90
        3
  2
AcDs:Indexable
280
     1
291
     1
101
ACDSRECORD
  1
AcDbDs::ID
 90
        4
  2
AcDbDs::HandleAttribute
280
     7
282
     1
  0
ACDSSCHEMA
 90
        1
  1
AcDbDs::TreatedAsObjectDataSchema
  2
AcDbDs::TreatedAsObjectData
280
     1
 91
        0
  0
ACDSSCHEMA
 90
        2
  1
AcDbDs::LegacySchema
  2
AcDbDs::Legacy
280
     1
 91
        0
  0
ACDSSCHEMA
 90
        3
  1
AcDbDs::IndexedPropertySchema
  2
AcDs:Indexable
280
     1
 91
        0
  0
ACDSSCHEMA
 90
        4
  1
AcDbDs::HandleAttributeSchema
  2
AcDbDs::HandleAttribute
280
     7
 91
        8
  0
ENDSEC
  0
EOF
