  0
SECTION
  2
HEADER
  9
$ACADVER
  1
AC1032
  9
$ACADMAINTVER
 90
        4
  9
$DWGCODEPAGE
  3
ANSI_936
  9
$LASTSAVEDBY
  1
localuser
  9
$REQUIREDVERSIONS
160
                 0
  9
$INSBASE
 10
0.0
 20
0.0
 30
0.0
  9
$EXTMIN
 10
-5765.538750147292
 20
-2658.202414855493
 30
-0.0302031403215304
  9
$EXTMAX
 10
5012.61768699405
 20
5762.334659848828
 30
348.0
  9
$LIMMIN
 10
0.0
 20
0.0
  9
$LIMMAX
 10
420.0
 20
297.0
  9
$ORTHOMODE
 70
     0
  9
$REGENMODE
 70
     1
  9
$FILLMODE
 70
     1
  9
$QTEXTMODE
 70
     0
  9
$MIRRTEXT
 70
     0
  9
$LTSCALE
 40
1.0
  9
$ATTMODE
 70
     1
  9
$TEXTSIZE
 40
2.5
  9
$TRACEWID
 40
1.0
  9
$TEXTSTYLE
  7
Standard
  9
$CLAYER
  8
0
  9
$CELTYPE
  6
ByLayer
  9
$CECOLOR
 62
   256
  9
$CELTSCALE
 40
1.0
  9
$DISPSILH
 70
     0
  9
$DIMSCALE
 40
1.0
  9
$DIMASZ
 40
2.5
  9
$DIMEXO
 40
0.625
  9
$DIMDLI
 40
3.75
  9
$DIMRND
 40
0.0
  9
$DIMDLE
 40
0.0
  9
$DIMEXE
 40
1.25
  9
$DIMTP
 40
0.0
  9
$DIMTM
 40
0.0
  9
$DIMTXT
 40
2.5
  9
$DIMCEN
 40
2.5
  9
$DIMTSZ
 40
0.0
  9
$DIMTOL
 70
     0
  9
$DIMLIM
 70
     0
  9
$DIMTIH
 70
     0
  9
$DIMTOH
 70
     0
  9
$DIMSE1
 70
     0
  9
$DIMSE2
 70
     0
  9
$DIMTAD
 70
     1
  9
$DIMZIN
 70
     8
  9
$DIMBLK
  1

  9
$DIMASO
 70
     1
  9
$DIMSHO
 70
     1
  9
$DIMPOST
  1

  9
$DIMAPOST
  1

  9
$DIMALT
 70
     0
  9
$DIMALTD
 70
     3
  9
$DIMALTF
 40
0.03937007874016
  9
$DIMLFAC
 40
1.0
  9
$DIMTOFL
 70
     1
  9
$DIMTVP
 40
0.0
  9
$DIMTIX
 70
     0
  9
$DIMSOXD
 70
     0
  9
$DIMSAH
 70
     0
  9
$DIMBLK1
  1

  9
$DIMBLK2
  1

  9
$DIMSTYLE
  2
ISO-25
  9
$DIMCLRD
 70
     0
  9
$DIMCLRE
 70
     0
  9
$DIMCLRT
 70
     0
  9
$DIMTFAC
 40
1.0
  9
$DIMGAP
 40
0.625
  9
$DIMJUST
 70
     0
  9
$DIMSD1
 70
     0
  9
$DIMSD2
 70
     0
  9
$DIMTOLJ
 70
     0
  9
$DIMTZIN
 70
     8
  9
$DIMALTZ
 70
     0
  9
$DIMALTTZ
 70
     0
  9
$DIMUPT
 70
     0
  9
$DIMDEC
 70
     2
  9
$DIMTDEC
 70
     2
  9
$DIMALTU
 70
     2
  9
$DIMALTTD
 70
     3
  9
$DIMTXSTY
  7
Standard
  9
$DIMAUNIT
 70
     0
  9
$DIMADEC
 70
     0
  9
$DIMALTRND
 40
0.0
  9
$DIMAZIN
 70
     0
  9
$DIMDSEP
 70
    44
  9
$DIMATFIT
 70
     3
  9
$DIMFRAC
 70
     0
  9
$DIMLDRBLK
  1

  9
$DIMLUNIT
 70
     2
  9
$DIMLWD
 70
    -2
  9
$DIMLWE
 70
    -2
  9
$DIMTMOVE
 70
     0
  9
$DIMFXL
 40
1.0
  9
$DIMFXLON
 70
     0
  9
$DIMJOGANG
 40
0.7853981633974483
  9
$DIMTFILL
 70
     0
  9
$DIMTFILLCLR
 70
     0
  9
$DIMARCSYM
 70
     0
  9
$DIMLTYPE
  6

  9
$DIMLTEX1
  6

  9
$DIMLTEX2
  6

  9
$DIMTXTDIRECTION
 70
     0
  9
$LUNITS
 70
     2
  9
$LUPREC
 70
     4
  9
$SKETCHINC
 40
1.0
  9
$FILLETRAD
 40
0.0
  9
$AUNITS
 70
     0
  9
$AUPREC
 70
     0
  9
$MENU
  1
.
  9
$ELEVATION
 40
0.0
  9
$PELEVATION
 40
0.0
  9
$THICKNESS
 40
0.0
  9
$LIMCHECK
 70
     0
  9
$CHAMFERA
 40
0.0
  9
$CHAMFERB
 40
0.0
  9
$CHAMFERC
 40
0.0
  9
$CHAMFERD
 40
0.0
  9
$SKPOLY
 70
     0
  9
$TDCREATE
 40
2460223.679990787
  9
$TDUCREATE
 40
2460223.346657454
  9
$TDUPDATE
 40
2460509.893974340
  9
$TDUUPDATE
 40
2460509.560641007
  9
$TDINDWG
 40
0.684397500
  9
$TDUSRTIMER
 40
0.684395903
  9
$USRTIMER
 70
     1
  9
$ANGBASE
 50
0.0
  9
$ANGDIR
 70
     0
  9
$PDMODE
 70
     0
  9
$PDSIZE
 40
0.0
  9
$PLINEWID
 40
0.0
  9
$SPLFRAME
 70
     0
  9
$SPLINETYPE
 70
     6
  9
$SPLINESEGS
 70
     8
  9
$HANDSEED
  5
780
  9
$SURFTAB1
 70
     6
  9
$SURFTAB2
 70
     6
  9
$SURFTYPE
 70
     6
  9
$SURFU
 70
     6
  9
$SURFV
 70
     6
  9
$UCSBASE
  2

  9
$UCSNAME
  2

  9
$UCSORG
 10
0.0
 20
0.0
 30
0.0
  9
$UCSXDIR
 10
1.0
 20
0.0
 30
0.0
  9
$UCSYDIR
 10
0.0
 20
1.0
 30
0.0
  9
$UCSORTHOREF
  2

  9
$UCSORTHOVIEW
 70
     0
  9
$UCSORGTOP
 10
0.0
 20
0.0
 30
0.0
  9
$UCSORGBOTTOM
 10
0.0
 20
0.0
 30
0.0
  9
$UCSORGLEFT
 10
0.0
 20
0.0
 30
0.0
  9
$UCSORGRIGHT
 10
0.0
 20
0.0
 30
0.0
  9
$UCSORGFRONT
 10
0.0
 20
0.0
 30
0.0
  9
$UCSORGBACK
 10
0.0
 20
0.0
 30
0.0
  9
$PUCSBASE
  2

  9
$PUCSNAME
  2

  9
$PUCSORG
 10
0.0
 20
0.0
 30
0.0
  9
$PUCSXDIR
 10
1.0
 20
0.0
 30
0.0
  9
$PUCSYDIR
 10
0.0
 20
1.0
 30
0.0
  9
$PUCSORTHOREF
  2

  9
$PUCSORTHOVIEW
 70
     0
  9
$PUCSORGTOP
 10
0.0
 20
0.0
 30
0.0
  9
$PUCSORGBOTTOM
 10
0.0
 20
0.0
 30
0.0
  9
$PUCSORGLEFT
 10
0.0
 20
0.0
 30
0.0
  9
$PUCSORGRIGHT
 10
0.0
 20
0.0
 30
0.0
  9
$PUCSORGFRONT
 10
0.0
 20
0.0
 30
0.0
  9
$PUCSORGBACK
 10
0.0
 20
0.0
 30
0.0
  9
$USERI1
 70
     0
  9
$USERI2
 70
     0
  9
$USERI3
 70
     0
  9
$USERI4
 70
     0
  9
$USERI5
 70
     0
  9
$USERR1
 40
0.0
  9
$USERR2
 40
0.0
  9
$USERR3
 40
0.0
  9
$USERR4
 40
0.0
  9
$USERR5
 40
0.0
  9
$WORLDVIEW
 70
     1
  9
$SHADEDGE
 70
     3
  9
$SHADEDIF
 70
    70
  9
$TILEMODE
 70
     1
  9
$MAXACTVP
 70
    64
  9
$PINSBASE
 10
0.0
 20
0.0
 30
0.0
  9
$PLIMCHECK
 70
     0
  9
$PEXTMIN
 10
0.0
 20
0.0
 30
0.0
  9
$PEXTMAX
 10
0.0
 20
0.0
 30
0.0
  9
$PLIMMIN
 10
0.0
 20
0.0
  9
$PLIMMAX
 10
12.0
 20
9.0
  9
$UNITMODE
 70
     0
  9
$VISRETAIN
 70
     1
  9
$PLINEGEN
 70
     0
  9
$PSLTSCALE
 70
     1
  9
$TREEDEPTH
 70
  3020
  9
$CMLSTYLE
  2
Standard
  9
$CMLJUST
 70
     0
  9
$CMLSCALE
 40
20.0
  9
$PROXYGRAPHICS
 70
     1
  9
$MEASUREMENT
 70
     1
  9
$CELWEIGHT
370
    -1
  9
$ENDCAPS
280
     0
  9
$JOINSTYLE
280
     0
  9
$LWDISPLAY
290
     0
  9
$INSUNITS
 70
     4
  9
$HYPERLINKBASE
  1

  9
$STYLESHEET
  1

  9
$XEDIT
290
     1
  9
$CEPSNTYPE
380
     0
  9
$PSTYLEMODE
290
     1
  9
$FINGERPRINTGUID
  2
{88DD161E-4AD6-4ECB-98CD-FC546227A17D}
  9
$VERSIONGUID
  2
{9C1232CA-F1CC-4FBE-8C23-57BC76D1A2EC}
  9
$EXTNAMES
290
     1
  9
$PSVPSCALE
 40
0.0
  9
$OLESTARTUP
290
     0
  9
$SORTENTS
280
   127
  9
$INDEXCTL
280
     0
  9
$HIDETEXT
280
     1
  9
$XCLIPFRAME
280
     2
  9
$HALOGAP
280
     0
  9
$OBSCOLOR
 70
   257
  9
$OBSLTYPE
280
     0
  9
$INTERSECTIONDISPLAY
280
     0
  9
$INTERSECTIONCOLOR
 70
   257
  9
$DIMASSOC
280
     2
  9
$PROJECTNAME
  1

  9
$CAMERADISPLAY
290
     0
  9
$LENSLENGTH
 40
50.0
  9
$CAMERAHEIGHT
 40
0.0
  9
$STEPSPERSEC
 40
2.0
  9
$STEPSIZE
 40
6.0
  9
$3DDWFPREC
 40
2.0
  9
$PSOLWIDTH
 40
0.25
  9
$PSOLHEIGHT
 40
4.0
  9
$LOFTANG1
 40
1.570796326794896
  9
$LOFTANG2
 40
1.570796326794896
  9
$LOFTMAG1
 40
0.0
  9
$LOFTMAG2
 40
0.0
  9
$LOFTPARAM
 70
     7
  9
$LOFTNORMALS
280
     1
  9
$LATITUDE
 40
37.795
  9
$LONGITUDE
 40
-122.394
  9
$NORTHDIRECTION
 40
0.0
  9
$TIMEZONE
 70
 -8000
  9
$LIGHTGLYPHDISPLAY
280
     1
  9
$TILEMODELIGHTSYNCH
280
     1
  9
$CMATERIAL
347
12D
  9
$SOLIDHIST
280
     1
  9
$SHOWHIST
280
     1
  9
$DWFFRAME
280
     2
  9
$DGNFRAME
280
     2
  9
$REALWORLDSCALE
290
     1
  9
$INTERFERECOLOR
 62
   256
  9
$CSHADOW
280
     0
  9
$SHADOWPLANELOCATION
 40
0.0
  0
ENDSEC
  0
SECTION
  2
CLASSES
  0
CLASS
  1
ACDBDICTIONARYWDFLT
  2
AcDbDictionaryWithDefault
  3
ObjectDBX Classes
 90
        0
 91
        1
280
     0
281
     0
  0
CLASS
  1
ACDBPLACEHOLDER
  2
AcDbPlaceHolder
  3
ObjectDBX Classes
 90
        0
 91
        0
280
     0
281
     0
  0
CLASS
  1
LAYOUT
  2
AcDbLayout
  3
ObjectDBX Classes
 90
        0
 91
        0
280
     0
281
     0
  0
CLASS
  1
DICTIONARYVAR
  2
AcDbDictionaryVar
  3
ObjectDBX Classes
 90
        0
 91
        9
280
     0
281
     0
  0
CLASS
  1
TABLESTYLE
  2
AcDbTableStyle
  3
ObjectDBX Classes
 90
     4095
 91
        1
280
     0
281
     0
  0
CLASS
  1
WIPEOUTVARIABLES
  2
AcDbWipeoutVariables
  3
"WipeOut|Product Desc:     WipeOut Dbx Application|Company:          Autodesk, Inc.|WEB Address:      www.autodesk.com"
 90
        0
 91
        0
280
     0
281
     0
  0
CLASS
  1
SCALE
  2
AcDbScale
  3
ObjectDBX Classes
 90
     1153
 91
       17
280
     0
281
     0
  0
CLASS
  1
MLEADERSTYLE
  2
AcDbMLeaderStyle
  3
ACDB_MLEADERSTYLE_CLASS
 90
     4095
 91
        2
280
     0
281
     0
  0
CLASS
  1
MATERIAL
  2
AcDbMaterial
  3
ObjectDBX Classes
 90
     1153
 91
        3
280
     0
281
     0
  0
CLASS
  1
VISUALSTYLE
  2
AcDbVisualStyle
  3
ObjectDBX Classes
 90
     4095
 91
       24
280
     0
281
     0
  0
CLASS
  1
ACDBSECTIONVIEWSTYLE
  2
AcDbSectionViewStyle
  3
ObjectDBX Classes
 90
     1025
 91
        1
280
     0
281
     0
  0
CLASS
  1
ACDBDETAILVIEWSTYLE
  2
AcDbDetailViewStyle
  3
ObjectDBX Classes
 90
     1025
 91
        1
280
     0
281
     0
  0
CLASS
  1
SORTENTSTABLE
  2
AcDbSortentsTable
  3
ObjectDBX Classes
 90
        0
 91
        1
280
     0
281
     0
  0
ENDSEC
  0
SECTION
  2
TABLES
  0
TABLE
  2
VPORT
  5
8
330
0
100
AcDbSymbolTable
 70
     1
  0
VPORT
  5
1BA
330
8
100
AcDbSymbolTableRecord
100
AcDbViewportTableRecord
  2
*Active
 70
     0
 10
0.0
 20
0.0
 11
1.0
 21
1.0
 12
1521.061153049466
 22
2923.424410887692
 13
0.0
 23
0.0
 14
10.0
 24
10.0
 15
10.0
 25
10.0
 16
0.0
 26
0.0
 36
1.0
 17
0.0
 27
0.0
 37
0.0
 40
15440.362329887
 41
2.098799630655586
 42
50.0
 43
0.0
 44
0.0
 50
0.0
 51
0.0
 71
    16
 72
  1000
 73
     1
 74
     3
 75
     0
 76
     0
 77
     0
 78
     0
281
     0
 65
     1
110
0.0
120
0.0
130
0.0
111
1.0
121
0.0
131
0.0
112
0.0
122
1.0
132
0.0
 79
     0
146
0.0
348
14B
 60
     3
 61
     5
292
     1
282
     1
141
0.0
142
0.0
 63
   256
1001
ACAD_NAV_VCDISPLAY
1070
     3
  0
ENDTAB
  0
TABLE
  2
LTYPE
  5
5
330
0
100
AcDbSymbolTable
 70
     5
  0
LTYPE
  5
14
330
5
100
AcDbSymbolTableRecord
100
AcDbLinetypeTableRecord
  2
ByBlock
 70
     0
  3

 72
    65
 73
     0
 40
0.0
  0
LTYPE
  5
15
330
5
100
AcDbSymbolTableRecord
100
AcDbLinetypeTableRecord
  2
ByLayer
 70
     0
  3

 72
    65
 73
     0
 40
0.0
  0
LTYPE
  5
16
330
5
100
AcDbSymbolTableRecord
100
AcDbLinetypeTableRecord
  2
Continuous
 70
     0
  3
Solid line
 72
    65
 73
     0
 40
0.0
  0
LTYPE
  5
237
330
5
100
AcDbSymbolTableRecord
100
AcDbLinetypeTableRecord
  2
0a26剥蚀边界
 70
     0
  3
----*-----
 72
    65
 73
     3
 40
45.0
 49
40.0
 74
     0
 49
-2.5
 74
     4
 75
   148
340
238
 46
1.0
 50
0.0
 44
0.0
 45
0.0
 49
-2.5
 74
     0
  0
LTYPE
  5
4D6
330
5
100
AcDbSymbolTableRecord
100
AcDbLinetypeTableRecord
  2
DASH
 70
     0
  3
__ __ __ __ __ __ __ __ __ __ __ __ __ __ __ __
 72
    65
 73
     2
 40
0.35
 49
0.25
 74
     0
 49
-0.1
 74
     0
  0
LTYPE
  5
4D7
330
5
100
AcDbSymbolTableRecord
100
AcDbLinetypeTableRecord
  2
井田边界
 70
     0
  3

 72
    65
 73
     3
 40
500.0
 49
400.0
 74
     0
 49
-50.0
 74
     2
 75
     0
340
11
 46
60.0
 50
0.0
 44
-20.0
 45
-30.0
  9
+
 49
-50.0
 74
     0
  0
LTYPE
  5
4D5
330
5
100
AcDbSymbolTableRecord
100
AcDbLinetypeTableRecord
  2
CENTER
 70
     0
  3
Center ____ _ ____ _ ____ _ ____ _ ____ _ ____
 72
    65
 73
     4
 40
50.8
 49
31.75
 74
     0
 49
-6.349999999999997
 74
     0
 49
6.349999999999997
 74
     0
 49
-6.349999999999997
 74
     0
  0
ENDTAB
  0
TABLE
  2
LAYER
  5
2
102
{ACAD_XDICTIONARY
360
FA
102
}
330
0
100
AcDbSymbolTable
 70
     5
  0
LAYER
  5
10
330
2
100
AcDbSymbolTableRecord
100
AcDbLayerTableRecord
  2
0
 70
     0
 62
     7
  6
Continuous
370
    -3
390
F
347
13D
348
0
  0
LAYER
  5
235
330
2
100
AcDbSymbolTableRecord
100
AcDbLayerTableRecord
  2
1000经纬网
 70
     0
 62
     7
  6
Continuous
370
    -3
390
F
347
13D
348
0
1001
AcAecLayerStandard
1000

1000

  0
LAYER
  5
22D
102
{ACAD_XDICTIONARY
360
22E
102
}
330
2
100
AcDbSymbolTableRecord
100
AcDbLayerTableRecord
  2
经纬网
 70
     0
 62
     7
  6
Continuous
370
    -3
390
F
347
13D
348
0
  0
LAYER
  5
233
330
2
100
AcDbSymbolTableRecord
100
AcDbLayerTableRecord
  2
图例及图签
 70
     1
 62
     7
  6
Continuous
370
    -3
390
F
347
13D
348
0
1001
AcAecLayerStandard
1000

1000

  0
LAYER
  5
4CF
330
2
100
AcDbSymbolTableRecord
100
AcDbLayerTableRecord
  2
风量风速
 70
     0
 62
     7
  6
Continuous
370
    -3
390
F
347
13D
348
0
1001
AcAecLayerStandard
1000

1000

  0
ENDTAB
  0
TABLE
  2
STYLE
  5
3
330
0
100
AcDbSymbolTable
 70
     9
  0
STYLE
  5
11
330
3
100
AcDbSymbolTableRecord
100
AcDbTextStyleTableRecord
  2
Standard
 70
     0
 40
0.0
 41
1.0
 50
0.0
 71
     0
 42
2.5
  3

  4

1001
ACAD
1000
SimSun
1071
    34306
  0
STYLE
  5
21D
330
3
100
AcDbSymbolTableRecord
100
AcDbTextStyleTableRecord
  2
Annotative
 70
     0
 40
0.0
 41
1.0
 50
0.0
 71
     0
 42
2.5
  3

  4

1001
AcadAnnotative
1000
AnnotativeData
1002
{
1070
     1
1070
     1
1002
}
1001
ACAD
1000
SimSun
1071
    34306
  0
STYLE
  5
241
330
3
100
AcDbSymbolTableRecord
100
AcDbTextStyleTableRecord
  2
楷体GB2312
 70
     0
 40
30.0
 41
1.0
 50
0.0
 71
     0
 42
3.799999999999997
  3
simkai.ttf
  4

1001
ACAD
1000
KaiTi
1071
    34353
  0
STYLE
  5
23E
330
3
100
AcDbSymbolTableRecord
100
AcDbTextStyleTableRecord
  2
HZ
 70
     0
 40
0.0
 41
1.0
 50
0.0
 71
     0
 42
3.799999999999998
  3

  4

1001
ACAD
1000
SimSun
1071
    34306
  0
STYLE
  5
238
330
3
100
AcDbSymbolTableRecord
100
AcDbTextStyleTableRecord
  2

 70
     1
 40
0.0
 41
1.0
 50
0.0
 71
     0
 42
2.5
  3
aaa
  4

  0
STYLE
  5
23F
330
3
100
AcDbSymbolTableRecord
100
AcDbTextStyleTableRecord
  2
黑体
 70
     0
 40
7.0
 41
1.0
 50
0.0
 71
     0
 42
7.0
  3

  4

1001
ACAD
1000
SimSun
1071
    34306
  0
STYLE
  5
240
330
3
100
AcDbSymbolTableRecord
100
AcDbTextStyleTableRecord
  2
经纬网
 70
     0
 40
0.0
 41
1.0
 50
0.0
 71
     0
 42
3.5
  3

  4

1001
ACAD
1000
SimSun
1071
    34306
  0
STYLE
  5
4E0
330
3
100
AcDbSymbolTableRecord
100
AcDbTextStyleTableRecord
  2
样式 3
 70
     0
 40
10.0
 41
1.0
 50
0.0
 71
     0
 42
10.0
  3

  4

1001
ACAD
1000
SimSun
1071
    34306
  0
STYLE
  5
4E1
330
3
100
AcDbSymbolTableRecord
100
AcDbTextStyleTableRecord
  2
宋体
 70
     0
 40
0.0
 41
0.618
 50
0.0
 71
     0
 42
3.5
  3

  4

1001
ACAD
1000
SimSun
1071
    34306
  0
ENDTAB
  0
TABLE
  2
VIEW
  5
6
330
0
100
AcDbSymbolTable
 70
     0
  0
ENDTAB
  0
TABLE
  2
UCS
  5
7
330
0
100
AcDbSymbolTable
 70
     0
  0
ENDTAB
  0
TABLE
  2
APPID
  5
9
330
0
100
AcDbSymbolTable
 70
    14
  0
APPID
  5
12
330
9
100
AcDbSymbolTableRecord
100
AcDbRegAppTableRecord
  2
ACAD
 70
     0
  0
APPID
  5
F4
330
9
100
AcDbSymbolTableRecord
100
AcDbRegAppTableRecord
  2
ACAD_PSEXT
 70
     0
  0
APPID
  5
16E
330
9
100
AcDbSymbolTableRecord
100
AcDbRegAppTableRecord
  2
ACAD_NAV_VCDISPLAY
 70
     0
  0
APPID
  5
21E
330
9
100
AcDbSymbolTableRecord
100
AcDbRegAppTableRecord
  2
AcadAnnoPO
 70
     0
  0
APPID
  5
21F
330
9
100
AcDbSymbolTableRecord
100
AcDbRegAppTableRecord
  2
AcadAnnotative
 70
     0
  0
APPID
  5
224
330
9
100
AcDbSymbolTableRecord
100
AcDbRegAppTableRecord
  2
ACAD_DSTYLE_DIMJAG
 70
     0
  0
APPID
  5
225
330
9
100
AcDbSymbolTableRecord
100
AcDbRegAppTableRecord
  2
ACAD_DSTYLE_DIMBREAK
 70
     0
  0
APPID
  5
226
330
9
100
AcDbSymbolTableRecord
100
AcDbRegAppTableRecord
  2
ACAD_DSTYLE_DIMTALN
 70
     0
  0
APPID
  5
234
330
9
100
AcDbSymbolTableRecord
100
AcDbRegAppTableRecord
  2
AcAecLayerStandard
 70
     0
  0
APPID
  5
23B
330
9
100
AcDbSymbolTableRecord
100
AcDbRegAppTableRecord
  2
AcLayerTools
 70
     0
  0
APPID
  5
23C
330
9
100
AcDbSymbolTableRecord
100
AcDbRegAppTableRecord
  2
AcDbDynamicBlockGUID
 70
     0
  0
APPID
  5
4DE
330
9
100
AcDbSymbolTableRecord
100
AcDbRegAppTableRecord
  2
ZWMCAD_GENSCA_13_
 70
     0
  0
APPID
  5
4DD
330
9
100
AcDbSymbolTableRecord
100
AcDbRegAppTableRecord
  2
ZWMCAD_GENSTANDARDFRAME_13_
 70
     0
  0
APPID
  5
4DA
330
9
100
AcDbSymbolTableRecord
100
AcDbRegAppTableRecord
  2
AcDbBlockRepETag
 70
     0
  0
ENDTAB
  0
TABLE
  2
DIMSTYLE
  5
A
330
0
100
AcDbSymbolTable
 70
     3
100
AcDbDimStyleTable
 71
     2
340
9C
340
227
  0
DIMSTYLE
105
27
330
A
100
AcDbSymbolTableRecord
100
AcDbDimStyleTableRecord
  2
Standard
 70
     0
340
11
  0
DIMSTYLE
105
9C
330
A
100
AcDbSymbolTableRecord
100
AcDbDimStyleTableRecord
  2
ISO-25
 70
     0
 41
2.5
 42
0.625
 43
3.75
 44
1.25
 73
     0
 74
     0
 77
     1
 78
     8
140
2.5
141
2.5
143
0.03937007874016
147
0.625
171
     3
172
     1
271
     2
272
     2
274
     3
278
    44
283
     0
284
     8
340
11
  0
DIMSTYLE
105
227
330
A
100
AcDbSymbolTableRecord
100
AcDbDimStyleTableRecord
  2
Annotative
 70
     0
 41
2.5
 42
0.625
 43
3.75
 44
1.25
 73
     0
 74
     0
 77
     1
 78
     8
140
2.5
141
2.5
143
0.03937007874016
147
0.625
171
     3
172
     1
271
     2
272
     2
274
     3
278
    44
283
     0
284
     8
340
11
1001
ACAD_DSTYLE_DIMBREAK
1070
   391
1040
3.75
1001
AcadAnnotative
1000
AnnotativeData
1002
{
1070
     1
1070
     1
1002
}
1001
ACAD_DSTYLE_DIMJAG
1070
   388
1040
1.5
1001
ACAD_DSTYLE_DIMTALN
1070
   392
1070
     0
  0
ENDTAB
  0
TABLE
  2
BLOCK_RECORD
  5
1
330
0
100
AcDbSymbolTable
 70
     4
  0
BLOCK_RECORD
  5
1F
330
1
100
AcDbSymbolTableRecord
100
AcDbBlockTableRecord
  2
*MODEL_SPACE
340
22
 70
     0
280
     1
281
     0
  0
BLOCK_RECORD
  5
1C7
330
1
100
AcDbSymbolTableRecord
100
AcDbBlockTableRecord
  2
*PAPER_SPACE
340
1C8
 70
     0
280
     1
281
     0
  0
BLOCK_RECORD
  5
1CC
330
1
100
AcDbSymbolTableRecord
100
AcDbBlockTableRecord
  2
*PAPER_SPACE0
340
1CD
 70
     0
280
     1
281
     0
  0
BLOCK_RECORD
  5
263
330
1
100
AcDbSymbolTableRecord
100
AcDbBlockTableRecord
  2
W指北针
340
0
102
{BLKREFS
331
262
331
29E
331
36B
331
3A7
331
43D
331
43E
102
}
 70
     0
280
     1
281
     0
  0
BLOCK_RECORD
  5
2B9
330
1
100
AcDbSymbolTableRecord
100
AcDbBlockTableRecord
  2
zw$78B2
340
0
102
{BLKREFS
331
2B8
331
3C1
331
458
102
}
 70
     0
280
     1
281
     0
1001
AcDbDynamicBlockGUID
1000
{3203A4E1-2083-43D1-B992-E8084843D9DE}
  0
BLOCK_RECORD
  5
5B5
102
{ACAD_XDICTIONARY
360
5B6
102
}
330
1
100
AcDbSymbolTableRecord
100
AcDbBlockTableRecord
  2
A$C0F3E0099
340
0
102
{BLKREFS
331
5B3
331
6D8
102
}
 70
     0
280
     1
281
     0
  0
ENDTAB
  0
ENDSEC
  0
SECTION
  2
BLOCKS
  0
BLOCK
  5
20
330
1F
100
AcDbEntity
  8
0
100
AcDbBlockBegin
  2
*MODEL_SPACE
 70
     0
 10
0.0
 20
0.0
 30
0.0
  3
*MODEL_SPACE
  1

  0
ENDBLK
  5
21
330
1F
100
AcDbEntity
  8
0
100
AcDbBlockEnd
  0
BLOCK
  5
1C9
330
1C7
100
AcDbEntity
 67
     1
  8
0
100
AcDbBlockBegin
  2
*PAPER_SPACE
 70
     0
 10
0.0
 20
0.0
 30
0.0
  3
*PAPER_SPACE
  1

  0
ENDBLK
  5
1CA
330
1C7
100
AcDbEntity
 67
     1
  8
0
100
AcDbBlockEnd
  0
BLOCK
  5
1CE
330
1CC
100
AcDbEntity
  8
0
100
AcDbBlockBegin
  2
*PAPER_SPACE0
 70
     0
 10
0.0
 20
0.0
 30
0.0
  3
*PAPER_SPACE0
  1

  0
ENDBLK
  5
1CF
330
1CC
100
AcDbEntity
  8
0
100
AcDbBlockEnd
  0
BLOCK
  5
264
330
263
100
AcDbEntity
  8
经纬网
100
AcDbBlockBegin
  2
W指北针
 70
     0
 10
0.0
 20
0.0
 30
0.0
  3
W指北针
  1

  0
LWPOLYLINE
  5
265
330
263
100
AcDbEntity
  8
经纬网
100
AcDbPolyline
 90
        2
 70
     0
 43
0.15
 10
-3.862818884197622
 20
11.36127766879508
 42
6.047727933567202
 10
3.862818884197622
 20
11.36127766879508
  0
LWPOLYLINE
  5
266
330
263
100
AcDbEntity
  8
经纬网
100
AcDbPolyline
 90
        2
 70
     0
 43
0.15
 10
-3.647035091184076
 20
13.51662439532811
 42
7.544929979512557
 10
3.647035091184076
 20
13.51662439532811
  0
LWPOLYLINE
  5
267
330
263
100
AcDbEntity
  8
经纬网
100
AcDbPolyline
 90
        2
 70
     0
 43
0.15
 10
0.0
 20
50.0
 10
-6.037496098782867
 20
-10.37496098683914
  0
LWPOLYLINE
  5
268
330
263
100
AcDbEntity
  8
经纬网
100
AcDbPolyline
 90
        2
 70
     0
 43
0.15
 10
0.0
 20
50.0
 10
6.037262627389281
 20
-10.37262627540622
  0
LWPOLYLINE
  5
269
330
263
100
AcDbEntity
  8
经纬网
100
AcDbPolyline
 90
        2
 70
     0
 43
0.15
 10
8.0
 20
-30.0
 10
3.607200142927466
 20
-13.52700053405715
  0
LWPOLYLINE
  5
26A
330
263
100
AcDbEntity
  8
经纬网
100
AcDbPolyline
 90
        2
 70
     0
 43
0.15
 10
-3.754322791006416
 20
12.44608614704339
 42
6.777809891014006
 10
3.754322791006416
 20
12.44608614704339
  0
LWPOLYLINE
  5
26B
330
263
100
AcDbEntity
  8
经纬网
100
AcDbPolyline
 90
        2
 70
     0
 43
0.15
 10
-7.593198624439537
 20
-25.93198623944772
 10
-6.333251837640999
 20
-23.74969439039706
  0
LWPOLYLINE
  5
26C
330
263
100
AcDbEntity
  8
经纬网
100
AcDbPolyline
 90
        2
 70
     0
 43
0.15
 10
-7.351300669368356
 20
-23.51300669152988
 10
-5.342146606650202
 20
-20.03304977511289
  0
LWPOLYLINE
  5
26D
330
263
100
AcDbEntity
  8
经纬网
100
AcDbPolyline
 90
        2
 70
     0
 43
0.15
 10
-7.109402714762835
 20
-21.09402714355383
 10
-4.351041375659406
 20
-16.31640515982872
  0
LWPOLYLINE
  5
26E
330
263
100
AcDbEntity
  8
经纬网
100
AcDbPolyline
 90
        2
 70
     0
 43
0.15
 10
-6.867504759691655
 20
-18.67504759563599
 10
-3.855682116001844
 20
-13.45841775409644
  0
LWPOLYLINE
  5
26F
330
263
100
AcDbEntity
  8
经纬网
100
AcDbPolyline
 90
        2
 70
     0
 43
0.15
 10
-6.625606805086132
 20
-16.25606804771814
 10
-4.827144155744462
 20
-13.14103936339961
  0
LWPOLYLINE
  5
270
330
263
100
AcDbEntity
  8
经纬网
100
AcDbPolyline
 90
        2
 70
     0
 43
0.15
 10
-6.383708850480616
 20
-13.83708849968388
 10
-5.761297408491372
 20
-12.75904025958152
  0
LWPOLYLINE
  5
271
330
263
100
AcDbEntity
  8
经纬网
100
AcDbPolyline
 90
        2
 70
     0
 43
0.15
 10
-5.899912940803915
 20
-8.999129403848201
 10
0.0
 20
1.21981956908712
  0
LWPOLYLINE
  5
272
330
263
100
AcDbEntity
  8
经纬网
100
AcDbPolyline
 90
        2
 70
     0
 43
0.15
 10
-4.206627257168292
 20
7.933727431867738
 10
0.0
 20
15.21981956908712
  0
LWPOLYLINE
  5
273
330
263
100
AcDbEntity
  8
经纬网
100
AcDbPolyline
 90
        2
 70
     0
 43
0.15
 10
-4.206627257168292
 20
7.933727431867738
 10
0.0
 20
15.21981956908712
  0
LWPOLYLINE
  5
274
330
263
100
AcDbEntity
  8
经纬网
100
AcDbPolyline
 90
        2
 70
     0
 43
0.15
 10
-4.448525211773811
 20
5.514747883949893
 10
0.0
 20
13.21981956908712
  0
LWPOLYLINE
  5
275
330
263
100
AcDbEntity
  8
经纬网
100
AcDbPolyline
 90
        2
 70
     0
 43
0.15
 10
-4.690423166844992
 20
3.095768335915636
 10
0.0
 20
11.21981956908712
  0
LWPOLYLINE
  5
276
330
263
100
AcDbEntity
  8
经纬网
100
AcDbPolyline
 90
        2
 70
     0
 43
0.15
 10
-4.932321121450511
 20
0.6767887879977934
 10
0.0
 20
9.219819569087119
  0
LWPOLYLINE
  5
277
330
263
100
AcDbEntity
  8
经纬网
100
AcDbPolyline
 90
        2
 70
     0
 43
0.15
 10
-5.658014985732733
 20
-6.58014985587215
 10
0.0
 20
3.21981956908712
  0
LWPOLYLINE
  5
278
330
263
100
AcDbEntity
  8
经纬网
100
AcDbPolyline
 90
        2
 70
     0
 43
0.15
 10
-2.755239527672529
 20
22.44760471954942
 10
0.0
 20
27.21981956908712
  0
LWPOLYLINE
  5
279
330
263
100
AcDbEntity
  8
经纬网
100
AcDbPolyline
 90
        2
 70
     0
 43
0.15
 10
-2.755239527672529
 20
22.44760471954942
 10
0.0
 20
27.21981956908712
  0
LWPOLYLINE
  5
27A
330
263
100
AcDbEntity
  8
经纬网
100
AcDbPolyline
 90
        2
 70
     0
 43
0.15
 10
-2.997137483209371
 20
20.02862517163157
 10
0.0
 20
25.21981956908712
  0
LWPOLYLINE
  5
27B
330
263
100
AcDbEntity
  8
经纬网
100
AcDbPolyline
 90
        2
 70
     0
 43
0.15
 10
-3.239035437814891
 20
17.60964562371373
 10
0.0
 20
23.21981956908712
  0
LWPOLYLINE
  5
27C
330
263
100
AcDbEntity
  8
经纬网
100
AcDbPolyline
 90
        2
 70
     0
 43
0.15
 10
-3.480933392886071
 20
15.19066607567947
 10
0.0
 20
21.21981956908712
  0
LWPOLYLINE
  5
27D
330
263
100
AcDbEntity
  8
经纬网
100
AcDbPolyline
 90
        2
 70
     0
 43
0.15
 10
-4.206627257168292
 20
7.933727431867738
 10
0.0
 20
15.21981956908712
  0
LWPOLYLINE
  5
27E
330
263
100
AcDbEntity
  8
经纬网
100
AcDbPolyline
 90
        2
 70
     0
 43
0.15
 10
-1.303851799108086
 20
36.96148200734751
 10
0.0
 20
39.21981956908712
  0
LWPOLYLINE
  5
27F
330
263
100
AcDbEntity
  8
经纬网
100
AcDbPolyline
 90
        2
 70
     0
 43
0.15
 10
-1.303851799108086
 20
36.96148200734751
 10
0.0
 20
39.21981956908712
  0
LWPOLYLINE
  5
280
330
263
100
AcDbEntity
  8
经纬网
100
AcDbPolyline
 90
        2
 70
     0
 43
0.15
 10
-1.545749753713606
 20
34.54250245931326
 10
0.0
 20
37.21981956908712
  0
LWPOLYLINE
  5
281
330
263
100
AcDbEntity
  8
经纬网
100
AcDbPolyline
 90
        2
 70
     0
 43
0.15
 10
-1.787647708319124
 20
32.12352291139541
 10
0.0
 20
35.21981956908712
  0
LWPOLYLINE
  5
282
330
263
100
AcDbEntity
  8
经纬网
100
AcDbPolyline
 90
        2
 70
     0
 43
0.15
 10
-2.029545663390308
 20
29.70454336336116
 10
0.0
 20
33.21981956908712
  0
LWPOLYLINE
  5
283
330
263
100
AcDbEntity
  8
经纬网
100
AcDbPolyline
 90
        2
 70
     0
 43
0.15
 10
-2.755239527672529
 20
22.44760471954942
 10
0.0
 20
27.21981956908712
  0
LWPOLYLINE
  5
284
330
263
100
AcDbEntity
  8
经纬网
100
AcDbPolyline
 90
        2
 70
     0
 43
0.15
 10
-0.0943620251491666
 20
49.05637974699494
 10
0.0
 20
49.21981956908711
  0
LWPOLYLINE
  5
285
330
263
100
AcDbEntity
  8
经纬网
100
AcDbPolyline
 90
        2
 70
     0
 43
0.15
 10
-0.0943620251491666
 20
49.05637974699494
 10
0.0
 20
49.21981956908711
  0
LWPOLYLINE
  5
286
330
263
100
AcDbEntity
  8
经纬网
100
AcDbPolyline
 90
        2
 70
     0
 43
0.15
 10
-0.3362599797546863
 20
46.63740019907709
 10
0.0
 20
47.2198195690871
  0
LWPOLYLINE
  5
287
330
263
100
AcDbEntity
  8
经纬网
100
AcDbPolyline
 90
        2
 70
     0
 43
0.15
 10
-0.5781579343602063
 20
44.21842065115924
 10
0.0
 20
45.2198195690871
  0
LWPOLYLINE
  5
288
330
263
100
AcDbEntity
  8
经纬网
100
AcDbPolyline
 90
        2
 70
     0
 43
0.15
 10
-1.303851799108086
 20
36.96148200734751
 10
0.0
 20
39.21981956908712
  0
LWPOLYLINE
  5
289
330
263
100
AcDbEntity
  8
经纬网
100
AcDbPolyline
 90
        2
 70
     0
 43
0.15
 10
-8.0
 20
-30.0
 10
-3.607260449789464
 20
-13.52722668659408
  0
LWPOLYLINE
  5
28A
330
263
100
AcDbEntity
  8
经纬网
100
AcDbPolyline
 90
        2
 70
     0
 43
0.15
 10
-0.5781579343602063
 20
44.21842065115924
 10
0.0
 20
45.2198195690871
  0
LWPOLYLINE
  5
28B
330
263
100
AcDbEntity
  8
经纬网
100
AcDbPolyline
 90
        2
 70
     0
 43
0.15
 10
-3.964729302562773
 20
10.35270697978558
 10
0.0
 20
17.21981956908711
  0
LWPOLYLINE
  5
28C
330
263
100
AcDbEntity
  8
经纬网
100
AcDbPolyline
 90
        2
 70
     0
 43
0.15
 10
-3.722831347491591
 20
12.77168652776163
 10
0.0
 20
19.21981956908712
  0
LWPOLYLINE
  5
28D
330
263
100
AcDbEntity
  8
经纬网
100
AcDbPolyline
 90
        2
 70
     0
 43
0.15
 10
-2.513341573067009
 20
24.86658426752547
 10
0.0
 20
29.21981956908712
  0
LWPOLYLINE
  5
28E
330
263
100
AcDbEntity
  8
经纬网
100
AcDbPolyline
 90
        2
 70
     0
 43
0.15
 10
-2.271443617995826
 20
27.28556381544331
 10
0.0
 20
31.21981956908712
  0
LWPOLYLINE
  5
28F
330
263
100
AcDbEntity
  8
经纬网
100
AcDbPolyline
 90
        2
 70
     0
 43
0.15
 10
-1.061953844036904
 20
39.38046155526535
 10
0.0
 20
41.21981956908712
  0
LWPOLYLINE
  5
290
330
263
100
AcDbEntity
  8
经纬网
100
AcDbPolyline
 90
        2
 70
     0
 43
0.15
 10
-0.820055889431387
 20
41.79944110318319
 10
0.0
 20
43.2198195690871
  0
LWPOLYLINE
  5
291
330
263
100
AcDbEntity
  8
经纬网
100
AcDbPolyline
 90
        2
 70
     0
 43
0.15
 10
-5.416117031127214
 20
-4.161170307954303
 10
0.0
 20
5.219819569087118
  0
LWPOLYLINE
  5
292
330
263
100
AcDbEntity
  8
经纬网
100
AcDbPolyline
 90
        2
 70
     0
 43
0.15
 10
-5.174219076521693
 20
-1.742190759920049
 10
0.0
 20
7.219819569087121
  0
LWPOLYLINE
  5
293
330
263
100
AcDbEntity
  8
经纬网
100
AcDbPolyline
 90
        2
 70
     0
 43
0.15
 10
-7.835096579045057
 20
-28.35096578748198
 10
-7.324357068631798
 20
-27.46633900573943
  0
LWPOLYLINE
  5
294
330
263
100
AcDbEntity
  8
经纬网
100
AcDbPolyline
 90
        2
 70
     0
 43
0.15
 10
0.0
 20
50.0
 10
0.0
 20
0.0
  0
LWPOLYLINE
  5
295
330
263
100
AcDbEntity
  8
经纬网
100
AcDbPolyline
 90
        2
 70
     0
 43
0.15
 10
6.252560853958127
 20
-12.52560853632167
 10
8.0
 20
-30.0
  0
LWPOLYLINE
  5
296
330
263
100
AcDbEntity
  8
经纬网
100
AcDbPolyline
 90
        2
 70
     0
 43
0.15
 10
3.092688124626873
 20
-11.59758046671049
 10
0.0
 20
0.0
  0
LWPOLYLINE
  5
297
330
263
100
AcDbEntity
  8
经纬网
100
AcDbPolyline
 90
        2
 70
     0
 43
0.15
 10
-3.092522961087523
 20
-11.59696110209916
 10
0.0
 20
0.0
  0
LWPOLYLINE
  5
298
330
263
100
AcDbEntity
  8
经纬网
100
AcDbPolyline
 90
        2
 70
     0
 43
0.15
 10
-3.811034922953695
 20
-11.38108654721873
 10
-2.368830914609134
 20
-8.883115929202176
  0
LWPOLYLINE
  5
299
330
263
100
AcDbEntity
  8
经纬网
100
AcDbPolyline
 90
        2
 70
     0
 43
0.15
 10
-4.757256763521581
 20
-11.01999085006537
 10
-1.377725684083997
 20
-5.166471313859799
  0
LWPOLYLINE
  5
29A
330
263
100
AcDbEntity
  8
经纬网
100
AcDbPolyline
 90
        2
 70
     0
 43
0.15
 10
-5.660604952834545
 20
-10.58463581139222
 10
-0.3866204530932009
 20
-1.449826698692049
  0
LWPOLYLINE
  5
29B
330
263
100
AcDbEntity
  8
经纬网
100
AcDbPolyline
 90
        2
 70
     0
 43
0.15
 10
-6.252563349902627
 20
-12.52563350257696
 10
-8.0
 20
-30.0
  0
HATCH
  5
29C
330
263
100
AcDbEntity
  8
经纬网
100
AcDbHatch
 10
0.0
 20
0.0
 30
0.0
210
0.0
220
0.0
230
1.0
  2
SOLID
 70
     1
 71
     0
 91
        1
 92
       19
 72
     0
 73
     1
 93
      660
 10
-3.648416659794747
 20
13.51626314676832
 10
-3.858944469131527
 20
13.45787861821009
 10
-4.093225353863089
 20
13.38848145853262
 10
-4.326259409077461
 20
13.31500610319199
 10
-4.557975649833678
 20
13.23747493344126
 10
-4.788303493522106
 20
13.15591156604932
 10
-5.017172781284898
 20
13.07034084602492
 10
-5.244513795711099
 20
12.98078883904963
 10
-5.470257286913692
 20
12.88728282338707
 10
-5.69433449069038
 20
12.78985128208296
 10
-5.916677151806652
 20
12.68852389359381
 10
-6.137217542622237
 20
12.58333152328851
 10
-6.3558884835802
 20
12.47430621372769
 10
-6.572623366955667
 20
12.36148117511766
 10
-6.78735617082566
 20
12.24489077506587
 10
-7.000021487474441
 20
12.12457052804529
 10
-7.210554536432027
 20
12.00055708491709
 10
-7.418891186825931
 20
11.87288822128903
 10
-7.624967977404593
 20
11.74160282628145
 10
-7.828722136560827
 20
11.60674089082749
 10
-8.030091596301645
 20
11.46834349510027
 10
-8.229015019722281
 20
11.32645279634744
 10
-8.425431811716407
 20
11.18111201567808
 10
-8.619282142259178
 20
11.03236542554805
 10
-8.810506962239742
 20
10.88025833544088
 10
-8.999048023018984
 20
10.72483707871288
 10
-9.184847893659023
 20
10.56614899821579
 10
-9.367849976755676
 20
10.40424243174493
 10
-9.547998527996242
 20
10.23916669777827
 10
-9.725238674320275
 20
10.07097207976039
 10
-9.899516423698511
 20
9.899709811725188
 10
-10.07077869260683
 20
9.725432061473835
 10
-10.2389733097516
 20
9.5481919159065
 10
-10.4040490440093
 20
9.36804336408386
 10
-10.56595561048016
 20
9.185041280929
 10
-10.72464369097724
 20
8.999241410638203
 10
-10.88006494799629
 20
8.810700349800754
 10
-11.03217203775421
 20
8.619475529587361
 10
-11.18091862788424
 20
8.425625199161004
 10
-11.32625940907746
 20
8.229208407166879
 10
-11.46815010765567
 20
8.03028498403728
 10
-11.60654750326648
 20
7.828915523656177
 10
-11.74140943866223
 20
7.625161365314851
 10
-11.87269483366981
 20
7.419084574386942
 10
-12.00036369729787
 20
7.210747923760209
 10
-12.12437714030966
 20
7.000214875093661
 10
-12.24469738733023
 20
6.787549558561295
 10
-12.36128778755665
 20
6.572816754051017
 10
-12.47411282593384
 20
6.356081871374044
 10
-12.58313813572749
 20
6.137410930183246
 10
-12.68833050597459
 20
5.916870539425872
 10
-12.78965789452195
 20
5.694527878134977
 10
-12.88708943594247
 20
5.470450673892625
 10
-12.98059545177966
 20
5.244707182864658
 10
-13.0701474584639
 20
5.017366168729495
 10
-13.15571817848831
 20
4.788496881606988
 10
-13.23728154599666
 20
4.558169037452898
 10
-13.31481271516532
 20
4.326452796347438
 10
-13.3882880709134
 20
4.093418741191271
 10
-13.45768523076549
 20
3.859137856459708
 10
-13.52298305556178
 20
3.623681506491265
 10
-13.58416165551171
 20
3.387121413426939
 10
-13.64120239485055
 20
3.149529635906219
 10
-13.69408789789304
 20
2.910978546540718
 10
-13.74280205601826
 20
2.671540810319128
 10
-13.78733002999797
 20
2.431289362430105
 10
-13.8276582560502
 20
2.190297385677693
 10
-13.86377445003018
 20
1.948638288478831
 10
-13.89566761022434
 20
1.706385682686232
 10
-13.92332802247256
 20
1.463613360829184
 10
-13.94674726063385
 20
1.220395273528992
 10
-13.9659181907773
 20
0.9768055074964648
 10
-13.98083497444168
 20
0.7329182624816895
 10
-13.99149306584149
 20
0.4888078289222906
 10
-13.99788921978325
 20
0.2445485652424395
 10
-14.00002148747444
 20
0.0002148750936612
 10
-13.99788921978325
 20
-0.2441188149969093
 10
-13.99149306584149
 20
-0.4883780787931756
 10
-13.98083497444168
 20
-0.7324885123525747
 10
-13.9659181907773
 20
-0.9763757573673499
 10
-13.94674726063385
 20
-1.219965523399878
 10
-13.92332802247256
 20
-1.463183610700069
 10
-13.89566761022434
 20
-1.705955932557117
 10
-13.86377445003018
 20
-1.948208538349715
 10
-13.8276582560502
 20
-2.189867635432165
 10
-13.78733002999797
 20
-2.43085961230099
 10
-13.74280205601826
 20
-2.67111106024822
 10
-13.69408789789304
 20
-2.910548796411603
 10
-13.64120239485055
 20
-3.149099885777103
 10
-13.58416165551171
 20
-3.386691663356031
 10
-13.52298305556178
 20
-3.623251756362151
 10
-13.45768523076549
 20
-3.858708106388803
 10
-13.3882880709134
 20
-4.092988991003948
 10
-13.31481271516532
 20
-4.32602304621832
 10
-13.23728154599666
 20
-4.557739287323784
 10
-13.15571817848831
 20
-4.788067131477871
 10
-13.0701474584639
 20
-5.01693641854217
 10
-12.98059545177966
 20
-5.244277432735541
 10
-12.88708943594247
 20
-5.47002092376351
 10
-12.78965789452195
 20
-5.694098128005862
 10
-12.68833050597459
 20
-5.916440789296758
 10
-12.58313813572749
 20
-6.13698117993772
 10
-12.47411282593384
 20
-6.355652121303137
 10
-12.36128778755665
 20
-6.572387003921901
 10
-12.24469738733023
 20
-6.787119808315762
 10
-12.12437714030966
 20
-6.999785124906338
 10
-12.00036369729787
 20
-7.210318173689302
 10
-11.87269483366981
 20
-7.418654824141412
 10
-11.74140943866223
 20
-7.624731615127529
 10
-11.60654750326648
 20
-7.828485773527061
 10
-11.46815010765567
 20
-8.029855233791749
 10
-11.32625940907746
 20
-8.228778657037763
 10
-11.18091862788424
 20
-8.425195449031887
 10
-11.03217203775421
 20
-8.619045779516453
 10
-10.88006494799629
 20
-8.810270599671639
 10
-10.72464369097724
 20
-8.99881166050909
 10
-10.56595561048016
 20
-9.184611530799882
 10
-10.4040490440093
 20
-9.367613614012952
 10
-10.2389733097516
 20
-9.547762165777383
 10
-10.07077869260683
 20
-9.725002311344724
 10
-9.899516423698511
 20
-9.899280061596071
 10
-9.725238674320275
 20
-10.07054232963128
 10
-9.547998527996242
 20
-10.23873694764916
 10
-9.367849976755676
 20
-10.40381268161582
 10
-9.184847893659023
 20
-10.56571924808668
 10
-8.999048023018984
 20
-10.72440732858376
 10
-8.810506962239742
 20
-10.87982858531177
 10
-8.619282142259178
 20
-11.03193567547714
 10
-8.425431811716407
 20
-11.18068226560717
 10
-8.229015019722281
 20
-11.32602304621832
 10
-8.030091596301645
 20
-11.46791374497115
 10
-7.828722136560827
 20
-11.60631114069838
 10
-7.624967977404593
 20
-11.74117307615233
 10
-7.418891186825931
 20
-11.87245847110171
 10
-7.210554536432027
 20
-12.00012733472977
 10
-7.000021487474441
 20
-12.12414077791618
 10
-6.78735617082566
 20
-12.24446102482034
 10
-6.572623366955667
 20
-12.36105142498854
 10
-6.3558884835802
 20
-12.47387646354036
 10
-6.137217542622237
 20
-12.58290177315939
 10
-5.916677151806652
 20
-12.68809414346469
 10
-5.69433449069038
 20
-12.78942153195385
 10
-5.470257286913692
 20
-12.88685307325795
 10
-5.244513795711099
 20
-12.9803590888041
 10
-5.017172781284898
 20
-13.0699110958958
 10
-4.788303493522106
 20
-13.15548181592021
 10
-4.557975649833678
 20
-13.23704518331215
 10
-4.326259409077461
 20
-13.31457635306287
 10
-4.093225353863089
 20
-13.38805170840351
 10
-3.858944469131527
 20
-13.45744886808097
 10
-3.623488119337707
 20
-13.52274669299368
 10
-3.386928025633096
 20
-13.58392529282719
 10
-3.149336248636245
 20
-13.64096603187499
 10
-2.91078515863046
 20
-13.69385153520852
 10
-2.671347422990943
 20
-13.74256569315912
 10
-2.431095974985509
 20
-13.78709366713883
 10
-2.190103997942058
 20
-13.82742189330747
 10
-1.948444900568573
 20
-13.86353808734566
 10
-1.706192295067012
 20
-13.89543124794727
 10
-1.463419972918925
 20
-13.92309166007908
 10
-1.220201885793356
 20
-13.94651089824037
 10
-0.9766121199354527
 20
-13.96568182855844
 10
-0.7327248752117157
 20
-13.98059861146612
 10
-0.4886144413612783
 20
-13.99125670315698
 10
-0.2443551779724657
 20
-13.99765285709873
 10
-0.0000214874744415
 20
-13.99978512490634
 10
0.2443122030235827
 20
-13.99765285709873
 10
0.4885714664123955
 20
-13.99125670315698
 10
0.7326819002628328
 20
-13.98059861146612
 10
0.9765691449865695
 20
-13.96568182855844
 10
1.220158910844475
 20
-13.94651089824037
 10
1.463376997970043
 20
-13.92309166007908
 10
1.706149320118129
 20
-13.89543124794727
 10
1.948401925619688
 20
-13.86353808734566
 10
2.190061022993174
 20
-13.82742189330747
 10
2.431053000036627
 20
-13.78709366713883
 10
2.671304448042064
 20
-13.74256569315912
 10
2.910742183681577
 20
-13.69385153520852
 10
3.14929327275604
 20
-13.64096603187499
 10
3.386885050684213
 20
-13.58392529282719
 10
3.623445144388823
 20
-13.52274669299368
 10
3.858901494182646
 20
-13.45744886808097
 10
4.093182378448545
 20
-13.38805170840351
 10
4.326216434128581
 20
-13.31457635306287
 10
4.557932674884796
 20
-13.23704518331215
 10
4.788260518573221
 20
-13.15548181592021
 10
5.017129806336011
 20
-13.0699110958958
 10
5.244470820762217
 20
-12.9803590888041
 10
5.470214311033487
 20
-12.88685307325795
 10
5.694291515741497
 20
-12.78942153195385
 10
5.916634176857766
 20
-12.68809414346469
 10
6.137174567673355
 20
-12.58290177315939
 10
6.355845508631317
 20
-12.47387646354036
 10
6.572580391075462
 20
-12.36105142498854
 10
6.787313195876777
 20
-12.24446102482034
 10
6.999978512525557
 20
-12.12414077791618
 10
7.210511561483142
 20
-12.00012733472977
 10
7.418848211877048
 20
-11.87245847110171
 10
7.624925002455711
 20
-11.74117307615233
 10
7.82867916068062
 20
-11.60631114069838
 10
8.030048621352761
 20
-11.46791374497115
 10
8.228972044773398
 20
-11.32602304621832
 10
8.425388836767522
 20
-11.18068226560717
 10
8.619239167310297
 20
-11.03193567547714
 10
8.810463987290859
 20
-10.87982858531177
 10
8.999005048070101
 20
-10.72440732858376
 10
9.184804918710142
 20
-10.56571924808668
 10
9.367807001806797
 20
-10.40381268161582
 10
9.547955553047355
 20
-10.23873694764916
 10
9.725195699371395
 20
-10.07054232963128
 10
9.899473448749633
 20
-9.899280061596071
 10
10.07073571765795
 20
-9.725002311344724
 10
10.23893033480272
 20
-9.547762165777383
 10
10.40400606906041
 20
-9.367613614012952
 10
10.56591263553127
 20
-9.184611530799882
 10
10.72460071602836
 20
-8.99881166050909
 10
10.8800219730474
 20
-8.810270599671639
 10
11.03212906280532
 20
-8.619045779516453
 10
11.18087565293535
 20
-8.425195449031887
 10
11.32621643412858
 20
-8.228778657037763
 10
11.46810713270679
 20
-8.029855233791749
 10
11.6065045283176
 20
-7.828485773527061
 10
11.74136646371334
 20
-7.624731615127529
 10
11.87265185872093
 20
-7.418654824141412
 10
12.00032072234899
 20
-7.210318173689302
 10
12.12433416536078
 20
-6.999785124906338
 10
12.24465441238135
 20
-6.787119808315762
 10
12.36124481260776
 20
-6.572387003921901
 10
12.47406985098496
 20
-6.355652121303137
 10
12.58309516077861
 20
-6.13698117993772
 10
12.68828753102571
 20
-5.916440789296758
 10
12.78961491957307
 20
-5.694098128005862
 10
12.88704646099359
 20
-5.47002092376351
 10
12.98055247683078
 20
-5.244277432735541
 10
13.07010448351502
 20
-5.01693641854217
 10
13.15567520353943
 20
-4.788067131477871
 10
13.23723857104778
 20
-4.557739287323784
 10
13.31476974021643
 20
-4.32602304621832
 10
13.38824509596452
 20
-4.092988991003948
 10
13.45764225581661
 20
-3.858708106388803
 10
13.5229400806129
 20
-3.623251756362151
 10
13.58411868056282
 20
-3.386691663356031
 10
13.64115941990167
 20
-3.149099885777103
 10
13.69404492294416
 20
-2.910548796411603
 10
13.74275908106938
 20
-2.67111106024822
 10
13.78728705504909
 20
-2.43085961230099
 10
13.82761528110131
 20
-2.189867635432165
 10
13.86373147508129
 20
-1.948208538349715
 10
13.89562463527545
 20
-1.705955932557117
 10
13.92328504752368
 20
-1.463183610700069
 10
13.94670428568497
 20
-1.219965523399878
 10
13.96587521582842
 20
-0.9763757573673499
 10
13.98079199949279
 20
-0.7324885123525747
 10
13.99145009089261
 20
-0.4883780787931756
 10
13.99784624483436
 20
-0.2441188149969093
 10
13.99997851252556
 20
0.0002148750936612
 10
13.99784624483436
 20
0.2445485652424395
 10
13.99145009089261
 20
0.4888078289222906
 10
13.98079199949279
 20
0.7329182624816895
 10
13.96587521582842
 20
0.9768055074964648
 10
13.94670428568497
 20
1.220395273528992
 10
13.92328504752368
 20
1.463613360829184
 10
13.89562463527545
 20
1.706385682686232
 10
13.86373147508129
 20
1.948638288478831
 10
13.82761528110131
 20
2.190297385677693
 10
13.78728705504909
 20
2.431289362430105
 10
13.74275908106938
 20
2.671540810319128
 10
13.69404492294416
 20
2.910978546540718
 10
13.64115941990167
 20
3.149529635906219
 10
13.58411868056282
 20
3.387121413426939
 10
13.5229400806129
 20
3.623681506491265
 10
13.45764225581661
 20
3.859137856459708
 10
13.38824509596452
 20
4.093418741191271
 10
13.31476974021643
 20
4.326452796347438
 10
13.23723857104778
 20
4.558169037452898
 10
13.15567520353943
 20
4.788496881606988
 10
13.07010448351502
 20
5.017366168729495
 10
12.98055247683078
 20
5.244707182864658
 10
12.88704646099359
 20
5.470450673892625
 10
12.78961491957307
 20
5.694527878134977
 10
12.68828753102571
 20
5.916870539425872
 10
12.58309516077861
 20
6.137410930183246
 10
12.47406985098496
 20
6.356081871374044
 10
12.36124481260776
 20
6.572816754051017
 10
12.24465441238135
 20
6.787549558561295
 10
12.12433416536078
 20
7.000214875093661
 10
12.00032072234899
 20
7.210747923760209
 10
11.87265185872093
 20
7.419084574386942
 10
11.74136646371334
 20
7.625161365314851
 10
11.6065045283176
 20
7.828915523656177
 10
11.46810713270679
 20
8.03028498403728
 10
11.32621643412858
 20
8.229208407166879
 10
11.18087565293535
 20
8.425625199161004
 10
11.03212906280532
 20
8.619475529587361
 10
10.8800219730474
 20
8.810700349800754
 10
10.72460071602836
 20
8.999241410638203
 10
10.56591263553127
 20
9.185041280929
 10
10.40400606906041
 20
9.36804336408386
 10
10.23893033480272
 20
9.5481919159065
 10
10.07073571765795
 20
9.725432061473835
 10
9.899473448749633
 20
9.899709811725188
 10
9.725195699371395
 20
10.07097207976039
 10
9.547955553047355
 20
10.23916669777827
 10
9.367807001806797
 20
10.40424243174493
 10
9.184804918710142
 20
10.56614899821579
 10
8.999005048070101
 20
10.72483707871288
 10
8.810463987290859
 20
10.88025833544088
 10
8.619239167310297
 20
11.03236542554805
 10
8.425388836767522
 20
11.18111201567808
 10
8.228972044773398
 20
11.32645279634744
 10
8.030048621352761
 20
11.46834349510027
 10
7.82867916068062
 20
11.60674089082749
 10
7.624925002455711
 20
11.74160282628145
 10
7.418848211877048
 20
11.87288822128903
 10
7.210511561483142
 20
12.00055708491709
 10
6.999978512525557
 20
12.12457052804529
 10
6.787313195876777
 20
12.24489077506587
 10
6.572580391075462
 20
12.36148117511766
 10
6.355845508631317
 20
12.47430621372769
 10
6.137174567673355
 20
12.58333152328851
 10
5.916634176857766
 20
12.68852389359381
 10
5.694291515741497
 20
12.78985128208296
 10
5.470214311033487
 20
12.88728282338707
 10
5.244470820762217
 20
12.98078883904963
 10
5.017129806336011
 20
13.07034084602492
 10
4.788260518573221
 20
13.15591156604932
 10
4.557932674884796
 20
13.23747493344126
 10
4.326216434128581
 20
13.31500610319199
 10
4.093182378448545
 20
13.38848145853262
 10
3.858901494182646
 20
13.45787861821009
 10
3.648373684845861
 20
13.51626314676832
 10
3.7554383398965
 20
12.44561660016188
 10
3.800810673739761
 20
12.43217670253943
 10
4.017199439462273
 20
12.36394958692835
 10
4.232364520430563
 20
12.29195635783253
 10
4.446240375749766
 20
12.21621894527925
 10
4.658761856611818
 20
12.13676041952567
 10
4.869864226784556
 20
12.05360498448135
 10
5.079483182635158
 20
11.96677796996664
 10
5.287554872687906
 20
11.87630582443671
 10
5.494015914853662
 20
11.78221610654145
 10
5.698803421109912
 20
11.68453747691819
 10
5.901855009142306
 20
11.58329968951875
 10
6.103108828421682
 20
11.47853358217981
 10
6.302503575570881
 20
11.37027106789173
 10
6.499978512525557
 20
11.25854512426303
 10
6.695473486091941
 20
11.14338978414889
 10
6.888928947504607
 20
11.02484012505738
 10
7.080285967793315
 20
10.90293225838104
 10
7.269486257340759
 20
10.77770331827923
 10
7.456472185440361
 20
10.64919145079329
 10
7.641186792403459
 20
10.51743580197217
 10
7.823573813773691
 20
10.38247650570702
 10
8.00357769196853
 20
10.24435467197327
 10
8.181143595837056
 20
10.10311237402493
 10
8.356217438820749
 20
9.958792635588904
 10
8.528745889663696
 20
9.811439417942892
 10
8.698676395229995
 20
9.66109760623658
 10
8.865957193076607
 20
9.507812996103892
 10
9.030537328217176
 20
9.351632279518526
 10
9.192366668023167
 20
9.192603030533064
 10
9.351395917125048
 20
9.030773691076319
 10
9.507576633244751
 20
8.866193555819336
 10
9.660861243959514
 20
8.69891275773989
 10
9.811203055083751
 20
8.528982251940758
 10
9.958556273020805
 20
8.356453801039606
 10
10.1028760112822
 20
8.181379958696197
 10
10.24411830911413
 20
8.003814054245593
 10
10.38224014360457
 20
7.823810176050756
 10
10.51719943946227
 20
7.641423154913352
 10
10.64895508810878
 20
7.456708547659218
 10
10.77746695559472
 20
7.269722620199901
 10
10.90269589563831
 20
7.080522330303206
 10
11.0246037626639
 20
6.889165310072712
 10
11.14315342158079
 20
6.695709848834668
 10
11.25830876175314
 20
6.500214875093661
 10
11.37003470491618
 20
6.302739938255395
 10
11.4782972196117
 20
6.103345191280822
 10
11.58306332677603
 20
5.902091371710412
 10
11.68430111417547
 20
5.699039783328771
 10
11.7819797443226
 20
5.494252277712798
 10
11.87606946146115
 20
5.287791235081383
 10
11.9665416078642
 20
5.079719545377884
 10
12.05336862197146
 20
4.870100589469075
 10
12.13652405655011
 20
4.658998219179919
 10
12.21598258242011
 20
4.446476738317869
 10
12.29171999543905
 20
4.232600882998664
 10
12.36371322441846
 20
4.017435801972165
 10
12.43194034043699
 20
3.801047036482485
 10
12.49638055916875
 20
3.583500500652006
 10
12.55701425438747
 20
3.364862461399751
 10
12.61382295424118
 20
3.145199517894068
 10
12.66678935429081
 20
2.924578581529202
 10
12.71589732170105
 20
2.703066855669021
 10
12.7611318975687
 20
2.480731814983298
 10
12.80247930157929
 20
2.257641184784002
 10
12.83992694038898
 20
2.033862920536193
 10
12.87346340622753
 20
1.809465187601745
 10
12.90307848388329
 20
1.584516339353284
 10
12.92876315210014
 20
1.359084897558204
 10
12.95050958776846
 20
1.133239530783612
 10
12.96831116592511
 20
0.9070490337908267
 10
12.98216246441006
 20
0.6805823062313721
 10
12.99205926340073
 20
0.4539083322160879
 10
12.99799854960292
 20
0.2270961587200873
 10
12.99997851252556
 20
0.0002148750936612
 10
12.99799854960292
 20
-0.2266664085909724
 10
12.99205926340073
 20
-0.4534785820287654
 10
12.98216246441006
 20
-0.6801525561022573
 10
12.96831116592511
 20
-0.9066192835452966
 10
12.95050958776846
 20
-1.132809780654497
 10
12.92876315210014
 20
-1.358655147429089
 10
12.90307848388329
 20
-1.584086589165963
 10
12.87346340622753
 20
-1.809035437356214
 10
12.83992694038898
 20
-2.033433170465285
 10
12.80247930157929
 20
-2.257211434596681
 10
12.7611318975687
 20
-2.480302064795977
 10
12.71589732170105
 20
-2.702637105539904
 10
12.66678935429081
 20
-2.924148831458296
 10
12.61382295424118
 20
-3.144769767706748
 10
12.55701425438747
 20
-3.364432711270636
 10
12.49638055916875
 20
-3.583070750522892
 10
12.43194034043699
 20
-3.800617286295161
 10
12.36371322441846
 20
-4.017006051843051
 10
12.29171999543905
 20
-4.232171132869551
 10
12.21598258242011
 20
-4.446046988130547
 10
12.13652405655011
 20
-4.658568468992596
 10
12.05336862197146
 20
-4.86967083933996
 10
11.9665416078642
 20
-5.079289795306972
 10
11.87606946146115
 20
-5.287361484894063
 10
11.7819797443226
 20
-5.493822527583688
 10
11.68430111417547
 20
-5.698610033199652
 10
11.58306332677603
 20
-5.901661621523089
 10
11.4782972196117
 20
-6.102915441151707
 10
11.37003470491618
 20
-6.302310188126282
 10
11.25830876175314
 20
-6.499785124906338
 10
11.14315342158079
 20
-6.69528009876376
 10
11.0246037626639
 20
-6.888735559943595
 10
10.90269589563831
 20
-7.080092580174093
 10
10.77746695559472
 20
-7.269292870070785
 10
10.64895508810878
 20
-7.456278797530102
 10
10.51719943946227
 20
-7.640993404784237
 10
10.38224014360457
 20
-7.823380425863432
 10
10.24411830911413
 20
-8.003384304174687
 10
10.1028760112822
 20
-8.180950208567081
 10
9.958556273020805
 20
-8.356024050794076
 10
9.811203055083751
 20
-8.528552501869851
 10
9.660861243959514
 20
-8.698483007610775
 10
9.507576633244751
 20
-8.865763805748429
 10
9.351395917125048
 20
-9.030343940888995
 10
9.192366668023167
 20
-9.192173280403947
 10
9.030537328217176
 20
-9.351202529331203
 10
8.865957193076607
 20
-9.507383245974779
 10
8.698676395229995
 20
-9.660667856165671
 10
8.528745889663696
 20
-9.811009667813776
 10
8.356217438820749
 20
-9.958362885459791
 10
8.181143595837056
 20
-10.10268262383761
 10
8.00357769196853
 20
-10.24392492184415
 10
7.823573813773691
 20
-10.38204675551969
 10
7.641186792403459
 20
-10.51700605184305
 10
7.456472185440361
 20
-10.64876170066418
 10
7.269486257340759
 20
-10.77727356815012
 10
7.080285967793315
 20
-10.90250250819372
 10
6.888928947504607
 20
-11.02441037492826
 10
6.695473486091941
 20
-11.14296003401978
 10
6.499978512525557
 20
-11.25811537413392
 10
6.302503575570881
 20
-11.36984131776261
 10
6.103108828421682
 20
-11.47810383205069
 10
5.901855009142306
 20
-11.58286993944784
 10
5.698803421109912
 20
-11.68410772684729
 10
5.494015914853662
 20
-11.78178635641234
 10
5.287554872687906
 20
-11.8758760743076
 10
5.079483182635158
 20
-11.96634821977932
 10
4.869864226784556
 20
-12.05317523435224
 10
4.658761856611818
 20
-12.13633066939656
 10
4.446240375749766
 20
-12.21578919515013
 10
4.232364520430563
 20
-12.29152660770342
 10
4.017199439462273
 20
-12.36351983679924
 10
3.800810673739761
 20
-12.43174695241032
 10
3.583264137618243
 20
-12.4961871720734
 10
3.364626099355518
 20
-12.55682086665183
 10
3.144963155034929
 20
-12.61362956650555
 10
2.924342218786478
 20
-12.66659596713725
 10
2.702830493450164
 20
-12.71570393443107
 10
2.480495451949536
 20
-12.76093850977486
 10
2.257404821924865
 20
-12.8022859141347
 10
2.033626557793466
 20
-12.83973355265334
 10
1.809228824917225
 20
-12.87327001860831
 10
1.58427997678518
 20
-12.90288509626407
 10
1.358848535455763
 20
-12.92856976477196
 10
1.133003168739376
 20
-12.95031620014924
 10
0.9068126706406474
 20
-12.96811777830589
 10
0.6803459436632693
 20
-12.98196907679084
 10
0.4536719694733621
 20
-12.99186587613076
 10
0.2268597958609462
 20
-12.9978051619837
 10
-0.0000214874744415
 20
-12.99978512490634
 10
-0.2269027708098292
 20
-12.9978051619837
 10
-0.4537149444222452
 20
-12.99186587613076
 10
-0.6803889186121525
 20
-12.98196907679084
 10
-0.906855646520853
 20
-12.96811777830589
 10
-1.133046143688259
 20
-12.95031620014924
 10
-1.358891510404646
 20
-12.92856976477196
 10
-1.584322951734066
 20
-12.90288509626407
 10
-1.80927179986611
 20
-12.87327001860831
 10
-2.033669532742349
 20
-12.83973355265334
 10
-2.257447796873746
 20
-12.8022859141347
 10
-2.480538426898418
 20
-12.76093850977486
 10
-2.702873468399046
 20
-12.71570393443107
 10
-2.924385193735361
 20
-12.66659596713725
 10
-3.145006130449473
 20
-12.61362956650555
 10
-3.364669074304401
 20
-12.55682086665183
 10
-3.583307113498447
 20
-12.4961871720734
 10
-3.800853648688642
 20
-12.43174695241032
 10
-4.017242414411156
 20
-12.36351983679924
 10
-4.232407495379447
 20
-12.29152660770342
 10
-4.446283350698648
 20
-12.21578919515013
 10
-4.658804831560701
 20
-12.13633066939656
 10
-4.86990720173344
 20
-12.05317523435224
 10
-5.07952615758404
 20
-11.96634821977932
 10
-5.287597847636789
 20
-11.8758760743076
 10
-5.494058889802545
 20
-11.78178635641234
 10
-5.698846396058797
 20
-11.68410772684729
 10
-5.901897984091192
 20
-11.58286993944784
 10
-6.103151803370565
 20
-11.47810383205069
 10
-6.302546550985423
 20
-11.36984131776261
 10
-6.500021487474441
 20
-11.25811537413392
 10
-6.695516461040824
 20
-11.14296003401978
 10
-6.888971922453491
 20
-11.02441037492826
 10
-7.080328942742197
 20
-10.90250250819372
 10
-7.269529232289642
 20
-10.77727356815012
 10
-7.456515160389244
 20
-10.64876170066418
 10
-7.641229767352342
 20
-10.51700605184305
 10
-7.823616788722574
 20
-10.38204675551969
 10
-8.003620666917411
 20
-10.24392492184415
 10
-8.181186570785937
 20
-10.10268262383761
 10
-8.356260413769632
 20
-9.958362885459791
 10
-8.528788864612579
 20
-9.811009667813776
 10
-8.698719370178878
 20
-9.660667856165671
 10
-8.866000168025491
 20
-9.507383245974779
 10
-9.030580303631722
 20
-9.351202529331203
 10
-9.192409642972053
 20
-9.192173280403947
 10
-9.351438892073927
 20
-9.030343940888995
 10
-9.507619608193637
 20
-8.865763805748429
 10
-9.660904218908401
 20
-8.698483007610775
 10
-9.811246030032632
 20
-8.528552501869851
 10
-9.958599247969683
 20
-8.356024050794076
 10
-10.10291898623109
 20
-8.180950208567081
 10
-10.24416128452867
 20
-8.003384304174687
 10
-10.38228311855346
 20
-7.823380425863432
 10
-10.51724241441116
 20
-7.640993404784237
 10
-10.64899806305766
 20
-7.456278797530102
 10
-10.7775099305436
 20
-7.269292870070785
 10
-10.9027388705872
 20
-7.080092580174093
 10
-11.02464673761278
 20
-6.888735559943595
 10
-11.14319639652967
 20
-6.69528009876376
 10
-11.25835173670202
 20
-6.499785124906338
 10
-11.37007767986506
 20
-6.302310188126282
 10
-11.47834019456059
 20
-6.102915441151707
 10
-11.58310630172491
 20
-5.901661621523089
 10
-11.68434408912435
 20
-5.698610033199652
 10
-11.78202271927148
 20
-5.493822527583688
 10
-11.87611243641004
 20
-5.287361484894063
 10
-11.96658458281308
 20
-5.079289795306972
 10
-12.05341159692034
 20
-4.86967083933996
 10
-12.13656703243032
 20
-4.658568468992596
 10
-12.21602555736899
 20
-4.446046988130547
 10
-12.29176297038793
 20
-4.232171132869551
 10
-12.36375619936734
 20
-4.017006051843051
 10
-12.43198331538588
 20
-3.800617286295161
 10
-12.49642353504896
 20
-3.583070750522892
 10
-12.55705722933635
 20
-3.364432711270636
 10
-12.61386592919007
 20
-3.144769767706748
 10
-12.66683233017102
 20
-2.924148831458296
 10
-12.71594029758125
 20
-2.702637105539904
 10
-12.76117487251758
 20
-2.480302064795977
 10
-12.80252227652818
 20
-2.257211434596681
 10
-12.83996991533786
 20
-2.033433170465285
 10
-12.87350638117641
 20
-1.809035437356214
 10
-12.90312145883217
 20
-1.584086589165963
 10
-12.92880612751469
 20
-1.358655147429089
 10
-12.95055256271735
 20
-1.132809780654497
 10
-12.968354140874
 20
-0.9066192835452966
 10
-12.98220543935895
 20
-0.6801525561022573
 10
-12.99210223834961
 20
-0.4534785820287654
 10
-12.99804152455181
 20
-0.2266664085909724
 10
-13.00002148747444
 20
0.0002148750936612
 10
-12.99804152455181
 20
0.2270961587200873
 10
-12.99210223834961
 20
0.4539083322160879
 10
-12.98220543935895
 20
0.6805823062313721
 10
-12.968354140874
 20
0.9070490337908267
 10
-12.95055256271735
 20
1.133239530783612
 10
-12.92880612751469
 20
1.359084897558204
 10
-12.90312145883217
 20
1.584516339353284
 10
-12.87350638117641
 20
1.809465187601745
 10
-12.83996991533786
 20
2.033862920536193
 10
-12.80252227652818
 20
2.257641184784002
 10
-12.76117487251758
 20
2.480731814983298
 10
-12.71594029758125
 20
2.703066855669021
 10
-12.66683233017102
 20
2.924578581529202
 10
-12.61386592919007
 20
3.145199517894068
 10
-12.55705722933635
 20
3.364862461399751
 10
-12.49642353504896
 20
3.583500500652006
 10
-12.43198331538588
 20
3.801047036482485
 10
-12.36375619936734
 20
4.017435801972165
 10
-12.29176297038793
 20
4.232600882998664
 10
-12.21602555736899
 20
4.446476738317869
 10
-12.13656703243032
 20
4.658998219179919
 10
-12.05341159692034
 20
4.870100589469075
 10
-11.96658458281308
 20
5.079719545377884
 10
-11.87611243641004
 20
5.287791235081383
 10
-11.78202271927148
 20
5.494252277712798
 10
-11.68434408912435
 20
5.699039783328771
 10
-11.58310630172491
 20
5.902091371710412
 10
-11.47834019456059
 20
6.103345191280822
 10
-11.37007767986506
 20
6.302739938255395
 10
-11.25835173670202
 20
6.500214875093661
 10
-11.14319639652967
 20
6.695709848834668
 10
-11.02464673761278
 20
6.889165310072712
 10
-10.9027388705872
 20
7.080522330303206
 10
-10.7775099305436
 20
7.269722620199901
 10
-10.64899806305766
 20
7.456708547659218
 10
-10.51724241441116
 20
7.641423154913352
 10
-10.38228311855346
 20
7.823810176050756
 10
-10.24416128452867
 20
8.003814054245593
 10
-10.10291898623109
 20
8.181379958696197
 10
-9.958599247969683
 20
8.356453801039606
 10
-9.811246030032632
 20
8.528982251940758
 10
-9.660904218908401
 20
8.69891275773989
 10
-9.507619608193637
 20
8.866193555819336
 10
-9.351438892073927
 20
9.030773691076319
 10
-9.192409642972053
 20
9.192603030533064
 10
-9.030580303631722
 20
9.351632279518526
 10
-8.866000168025491
 20
9.507812996103892
 10
-8.698719370178878
 20
9.66109760623658
 10
-8.528788864612579
 20
9.811439417942892
 10
-8.356260413769632
 20
9.958792635588904
 10
-8.181186570785937
 20
10.10311237402493
 10
-8.003620666917411
 20
10.24435467197327
 10
-7.823616788722574
 20
10.38247650570702
 10
-7.641229767352342
 20
10.51743580197217
 10
-7.456515160389244
 20
10.64919145079329
 10
-7.269529232289642
 20
10.77770331827923
 10
-7.080328942742197
 20
10.90293225838104
 10
-6.888971922453491
 20
11.02484012505738
 10
-6.695516461040824
 20
11.14338978414889
 10
-6.500021487474441
 20
11.25854512426303
 10
-6.302546550985423
 20
11.37027106789173
 10
-6.103151803370565
 20
11.47853358217981
 10
-5.901897984091192
 20
11.58329968951875
 10
-5.698846396058797
 20
11.68453747691819
 10
-5.494058889802545
 20
11.78221610654145
 10
-5.287597847636789
 20
11.87630582443671
 10
-5.07952615758404
 20
11.96677796996664
 10
-4.86990720173344
 20
12.05360498448135
 10
-4.658804831560701
 20
12.13676041952567
 10
-4.446283350698648
 20
12.21621894527925
 10
-4.232407495379447
 20
12.29195635783253
 10
-4.017242414411156
 20
12.36394958692835
 10
-3.800853648688642
 20
12.43217670253943
 10
-3.755481314845383
 20
12.44561660016188
 97
        0
 75
     0
 76
     1
 98
        1
 10
527.2645833333954
 20
437.5583333332906
  0
ENDBLK
  5
29D
330
263
100
AcDbEntity
  8
经纬网
100
AcDbBlockEnd
  0
BLOCK
  5
2BA
330
2B9
100
AcDbEntity
  8
0
  6
0a26剥蚀边界
100
AcDbBlockBegin
  2
zw$78B2
 70
     0
 10
0.0
 20
0.0
 30
0.0
  3
zw$78B2
  1

  0
HATCH
  5
2BB
330
2B9
100
AcDbEntity
  8
0
370
     0
100
AcDbHatch
 10
0.0
 20
0.0
 30
0.0
210
0.0
220
0.0
230
1.0
  2
SOLID
 70
     1
 71
     0
 91
        1
 92
        7
 72
     1
 73
     1
 93
       19
 10
-2.121320343559546
 20
-7.9449015729042
 42
0.0
 10
0.5303300858877265
 20
-5.293251143457155
 42
0.0
 10
3.181980515340001
 20
-7.944901572904428
 42
0.0
 10
10.24416083189044
 20
-0.8827212563512603
 42
0.0482480207399435
 10
7.627500259628503
 20
0.7432588584965743
 42
0.0
 10
3.18198051534182
 20
-3.702260885786698
 42
0.0
 10
2.651650429452272
 20
-3.171930799892833
 42
0.0
 10
6.903117822520473
 20
1.079536593175814
 42
0.0530433430143735
 10
3.672763588908308
 20
2.091823046677973
 42
0.0
 10
0.5303300858877265
 20
-1.0506104563392
 42
0.0
 10
0.0
 20
-0.5202803704453345
 42
0.0
 10
2.766669564046424
 20
2.246389193599497
 42
0.0660305455341636
 10
-1.440792975875409
 20
2.281567340798574
 42
0.0
 10
-4.242640687117726
 20
-0.5202803704451071
 42
0.0
 10
-1.590990257671363
 20
-3.171930799892606
 42
0.0
 10
-2.121320343559546
 20
-3.702260885786472
 42
0.0
 10
-5.303300858894997
 20
-0.5202803704453345
 42
0.0
 10
-2.711417831019388
 20
2.071602657440279
 42
0.1125725483798627
 10
-9.183500660113622
 20
-0.882721256349896
 42
0.0
 97
        0
 75
     1
 76
     1
 47
0.0
 98
        1
 10
-6.551465501202526
 20
-2.256121443962455
450
        1
451
        0
460
5.497787143782136
461
1.0
452
        0
462
1.0
453
        2
463
0.0
 63
   242
421
 12654880
463
1.0
 63
    40
421
 16231424
470
SPHERICAL
1001
ACAD
1010
0.0
1020
0.0
1030
0.0
  0
HATCH
  5
2BC
330
2B9
100
AcDbEntity
  8
0
 62
   242
420
 12654880
100
AcDbHatch
 10
0.0
 20
0.0
 30
0.0
210
0.0
220
0.0
230
1.0
  2
SOLID
 70
     1
 71
     0
 91
        4
 92
        7
 72
     1
 73
     1
 93
        5
 10
-9.54594154601864
 20
-0.5202803704451071
 42
0.0
 10
-9.183500660113622
 20
-0.882721256349896
 42
-0.1125725483798627
 10
-2.711417831007111
 20
2.071602657442781
 42
0.0
 10
0.0
 20
4.783020488448753
 42
0.0
 10
-2.121320343559546
 20
6.904340832013986
 42
0.0
 97
        0
 92
        7
 72
     1
 73
     1
 93
        4
 10
2.766669564046424
 20
2.24638919359927
 42
0.0
 10
5.303300858900001
 20
4.783020488449206
 42
0.0
 10
3.181980515340907
 20
6.904340832013756
 42
0.0
 10
-1.440792975875409
 20
2.281567340798574
 42
-0.0660305455341636
 97
        0
 92
        7
 72
     1
 73
     1
 93
        4
 10
6.903117822520473
 20
1.079536593175589
 42
0.0
 10
7.954951288346817
 20
2.131370059001937
 42
0.0
 10
5.833630944787727
 20
4.252690402554661
 42
0.0
 10
3.672763588908308
 20
2.091823046678424
 42
-0.0530433430143735
 97
        0
 92
        7
 72
     1
 73
     1
 93
        4
 10
10.60660171780091
 20
-0.5202803704453345
 42
0.0
 10
8.485281374240912
 20
1.601039973107615
 42
0.0
 10
7.627500259628503
 20
0.7432588584965743
 42
-0.0482480207399435
 10
10.24416083189226
 20
-0.8827212563528519
 42
0.0
 97
        0
 75
     1
 76
     1
 47
0.0
 98
        4
 10
-4.11737853394743
 20
3.501430420890301
 10
2.482741896492369
 20
3.361002326625337
 10
5.291303781786155
 20
2.705671220056272
 10
8.661578044138877
 20
0.8801059946163148
1001
ACAD
1010
0.0
1020
0.0
1030
0.0
  0
MTEXT
  5
2BD
330
2B9
100
AcDbEntity
  8
0
 62
     0
100
AcDbMText
 10
-11.80473751812906
 20
-10.44527352684553
 30
0.0
 40
3.0
 41
28.4148120833385
 46
5.549020541527369
 71
     1
 72
     1
  1
{\fSimHei|b1|i0|c134|p2;国家能源集团}
  7
黑体
 73
     1
 44
1.0
1001
ACAD
1000
MTEXTBEGIN
1070
    73
1070
     1
1070
    44
1040
1.0
1070
    74
1070
     0
1000
MTEXTEND
  0
MTEXT
  5
2BE
330
2B9
100
AcDbEntity
  8
0
 62
     0
100
AcDbMText
 10
-9.317245551237192
 20
-15.95841678038914
 30
0.0
 40
2.399999999999999
 41
22.77011877385375
 46
3.348546878507903
 71
     1
 72
     1
  1
{\fSimHei|b1|i0|c134|p2;\W1.2;CHN ENERGY}
  7
黑体
 73
     1
 44
1.0
1001
ACAD
1000
MTEXTBEGIN
1070
    73
1070
     1
1070
    44
1040
1.0
1070
    74
1070
     0
1000
MTEXTEND
  0
ENDBLK
  5
2BF
330
2B9
100
AcDbEntity
  8
0
  6
0a26剥蚀边界
100
AcDbBlockEnd
  0
BLOCK
  5
5B8
330
5B5
100
AcDbEntity
  8
0
 62
     2
 48
1.000000000000000E+16
100
AcDbBlockBegin
  2
A$C0F3E0099
 70
     0
 10
0.0
 20
0.0
 30
0.0
  3
A$C0F3E0099
  1

  0
LINE
  5
5B9
330
5B5
100
AcDbEntity
  8
风量风速
  6
ByBlock
 62
     0
370
     0
100
AcDbLine
 10
11.58116918706946
 20
2.744725000125979
 30
0.0
 11
-0.9106417548391616
 21
2.74115413120853
 31
0.0
  0
LINE
  5
5BA
330
5B5
100
AcDbEntity
  8
风量风速
  6
ByBlock
 62
     0
370
     0
100
AcDbLine
 10
-1.394390443900192
 20
-6.539673024968577
 30
0.0
 11
11.21909339459671
 21
-6.536067378010558
 31
0.0
  0
ENDBLK
  5
5BB
330
5B5
100
AcDbEntity
  8
0
 62
     2
 48
1.000000000000000E+16
100
AcDbBlockEnd
  0
ENDSEC
  0
SECTION
  2
ENTITIES
  0
INSERT
  5
43D
330
1F
100
AcDbEntity
  8
1000经纬网
 62
   253
100
AcDbBlockReference
  2
W指北针
 10
4607.434487358881
 20
4747.975254353241
 30
0.0
 41
5.000000001569024
 42
5.000000002472051
 43
5.0
 50
298.9999999914676
  0
INSERT
  5
43E
330
1F
100
AcDbEntity
  8
1000经纬网
 62
   253
100
AcDbBlockReference
  2
W指北针
 10
4607.434487358881
 20
4747.975254353241
 30
0.0
 41
5.000000002472051
 42
5.000000000931318
 43
5.0
 50
299.0000000101357
  0
LINE
  5
43F
330
1F
100
AcDbEntity
  8
图例及图签
 62
     7
370
    20
100
AcDbLine
 10
1940.409970285705
 20
510.0000002423838
 30
0.0
 11
3340.40997032726
 21
510.0000002423838
 31
0.0
  0
LINE
  5
440
330
1F
100
AcDbEntity
  8
图例及图签
 62
     7
370
    20
100
AcDbLine
 10
1940.409970285705
 20
330.000000242384
 30
0.0
 11
3340.40997032726
 21
330.000000242384
 31
0.0
  0
LWPOLYLINE
  5
441
330
1F
100
AcDbEntity
  8
图例及图签
 62
     7
370
    40
100
AcDbPolyline
 90
        2
 70
   128
 43
0.0
 10
1940.409970327258
 20
600.0000002423838
 10
3340.409970267661
 20
600.0000002870802
  0
LINE
  5
442
330
1F
100
AcDbEntity
  8
图例及图签
 62
     7
370
    20
100
AcDbLine
 10
1940.409970309403
 20
420.0000002423839
 30
0.0
 11
3340.409970350963
 21
420.0000002423839
 31
0.0
  0
LINE
  5
443
330
1F
100
AcDbEntity
  8
图例及图签
 62
     7
370
    20
100
AcDbLine
 10
1940.409970285705
 20
240.000000242384
 30
0.0
 11
3340.40997032726
 21
240.000000242384
 31
0.0
  0
LWPOLYLINE
  5
444
330
1F
100
AcDbEntity
  8
图例及图签
 62
     7
370
    40
100
AcDbPolyline
 90
        4
 70
   129
 43
0.0
 10
3340.40997032726
 20
150.0000002870802
 10
3340.409970342153
 20
900.0000002870802
 10
1940.409970327258
 20
900.0000003019888
 10
1940.409970304907
 20
150.0000003168898
  0
LWPOLYLINE
  5
445
330
1F
100
AcDbEntity
  8
图例及图签
 62
     7
370
    40
100
AcDbPolyline
 90
        4
 70
   129
 43
0.0
 10
1940.409970271437
 20
900.000000182772
 10
3340.409970152235
 20
900.000000242384
 10
3340.409970271437
 20
150.0000002870802
 10
1940.409970226733
 20
150.0000001976732
  0
LWPOLYLINE
  5
446
330
1F
100
AcDbEntity
  8
图例及图签
 62
     7
370
    40
100
AcDbPolyline
 90
        4
 70
   129
 43
0.0
 10
3340.409970271437
 20
150.0000002870802
 10
3340.409970286347
 20
900.0000002870802
 10
1940.409970271437
 20
900.0000003019888
 10
1940.4099702491
 20
150.0000003168898
  0
MTEXT
  5
447
330
1F
100
AcDbEntity
  8
图例及图签
 62
     7
370
     0
100
AcDbMText
 10
2017.832192095025
 20
347.880243500651
 30
0.0
 40
36.0
 41
756.6547673406602
 46
0.0
 71
     7
 72
     1
  1
{\fSimSun|b1|i0|c134|p2;通 风 办}
  7
HZ
 73
     1
 44
1.0
1001
ACAD
1000
MTEXTBEGIN
1070
    73
1070
     1
1070
    44
1040
1.0
1070
    74
1070
     0
1000
MTEXTEND
  0
MTEXT
  5
448
330
1F
100
AcDbEntity
  8
图例及图签
 62
     7
370
     0
100
AcDbMText
 10
2017.832192095025
 20
257.8802435006546
 30
0.0
 40
36.0
 41
756.6547673406602
 46
0.0
 71
     7
 72
     1
  1
{\fSimSun|b1|i0|c134|p2;通风副总}
  7
HZ
 73
     1
 44
1.0
1001
ACAD
1000
MTEXTBEGIN
1070
    73
1070
     1
1070
    44
1040
1.0
1070
    74
1070
     0
1000
MTEXTEND
  0
MTEXT
  5
449
330
1F
100
AcDbEntity
  8
图例及图签
 62
     7
370
     0
100
AcDbMText
 10
2017.832192095025
 20
527.8802435006507
 30
0.0
 40
36.0
 41
756.6547673406602
 46
0.0
 71
     7
 72
     1
  1
{\fSimSun|b1|i0|c134|p2;制    图}
  7
HZ
 73
     1
 44
1.0
1001
ACAD
1000
MTEXTBEGIN
1070
    73
1070
     1
1070
    44
1040
1.0
1070
    74
1070
     0
1000
MTEXTEND
  0
MTEXT
  5
44A
330
1F
100
AcDbEntity
  8
图例及图签
 62
     7
370
     0
100
AcDbMText
 10
2017.832192095025
 20
437.880243500651
 30
0.0
 40
36.0
 41
756.6547673406602
 46
0.0
 71
     7
 72
     1
  1
{\fSimSun|b1|i0|c134|p2;审    校}
  7
HZ
 73
     1
 44
1.0
1001
ACAD
1000
MTEXTBEGIN
1070
    73
1070
     1
1070
    44
1040
1.0
1070
    74
1070
     0
1000
MTEXTEND
  0
MTEXT
  5
44B
330
1F
100
AcDbEntity
  8
图例及图签
 62
     7
370
     0
100
AcDbMText
 10
2017.832192095025
 20
167.880243500651
 30
0.0
 40
36.0
 41
756.6547673406602
 46
0.0
 71
     7
 72
     1
  1
{\fSimSun|b1|i0|c134|p2;总工程师}
  7
HZ
 73
     1
 44
1.0
1001
ACAD
1000
MTEXTBEGIN
1070
    73
1070
     1
1070
    44
1040
1.0
1070
    74
1070
     0
1000
MTEXTEND
  0
MTEXT
  5
44C
330
1F
100
AcDbEntity
  8
图例及图签
 62
     7
370
     0
100
AcDbMText
 10
2717.832192095026
 20
167.880243500651
 30
0.0
 40
36.0
 41
756.6547673406602
 46
0.0
 71
     7
 72
     1
  1
{\fSimSun|b1|i0|c134|p2;制图日期}
  7
HZ
 73
     1
 44
1.0
1001
ACAD
1000
MTEXTBEGIN
1070
    73
1070
     1
1070
    44
1040
1.0
1070
    74
1070
     0
1000
MTEXTEND
  0
MTEXT
  5
44D
330
1F
100
AcDbEntity
  8
图例及图签
 62
     7
370
     0
100
AcDbMText
 10
2717.832192095026
 20
257.8802435006546
 30
0.0
 40
36.0
 41
756.6547673406602
 46
0.0
 71
     7
 72
     1
  1
{\fSimSun|b1|i0|c134|p2;资料来源}
  7
HZ
 73
     1
 44
1.0
1001
ACAD
1000
MTEXTBEGIN
1070
    73
1070
     1
1070
    44
1040
1.0
1070
    74
1070
     0
1000
MTEXTEND
  0
MTEXT
  5
44E
330
1F
100
AcDbEntity
  8
图例及图签
 62
     7
370
     0
100
AcDbMText
 10
2717.832192095026
 20
347.880243500651
 30
0.0
 40
36.0
 41
756.6547673406602
 46
0.0
 71
     7
 72
     1
  1
{\fSimSun|b1|i0|c134|p2;图    号}
  7
HZ
 73
     1
 44
1.0
1001
ACAD
1000
MTEXTBEGIN
1070
    73
1070
     1
1070
    44
1040
1.0
1070
    74
1070
     0
1000
MTEXTEND
  0
MTEXT
  5
44F
330
1F
100
AcDbEntity
  8
图例及图签
 62
     7
370
     0
100
AcDbMText
 10
2717.832192095026
 20
437.880243500651
 30
0.0
 40
36.0
 41
756.6547673406602
 46
0.0
 71
     7
 72
     1
  1
{\fSimSun|b1|i0|c134|p2;比 例 尺}
  7
HZ
 73
     1
 44
1.0
1001
ACAD
1000
MTEXTBEGIN
1070
    73
1070
     1
1070
    44
1040
1.0
1070
    74
1070
     0
1000
MTEXTEND
  0
MTEXT
  5
450
330
1F
100
AcDbEntity
  8
图例及图签
 62
     7
370
     0
100
AcDbMText
 10
2717.832192095026
 20
527.8802435006507
 30
0.0
 40
36.0
 41
756.6547673406602
 46
0.0
 71
     7
 72
     1
  1
{\fSimSun|b1|i0|c134|p2;矿    长}
  7
HZ
 73
     1
 44
1.0
1001
ACAD
1000
MTEXTBEGIN
1070
    73
1070
     1
1070
    44
1040
1.0
1070
    74
1070
     0
1000
MTEXTEND
  0
MTEXT
  5
451
330
1F
100
AcDbEntity
  8
图例及图签
 62
     7
370
     0
100
AcDbMText
 10
3080.137646726434
 20
437.880243500651
 30
0.0
 40
36.0
 41
756.6547673406602
 46
0.0
 71
     7
 72
     1
  1
\fSimSun|b1|i0|c134|p2;1:10000
  7
HZ
 73
     1
 44
1.0
1001
ACAD
1000
MTEXTBEGIN
1070
    73
1070
     1
1070
    44
1040
1.0
1070
    74
1070
     0
1000
MTEXTEND
  0
MTEXT
  5
452
330
1F
100
AcDbEntity
  8
图例及图签
 62
     7
370
     0
100
AcDbMText
 10
3000.398442716374
 20
257.8802435006546
 30
0.0
 40
36.0
 41
756.6547673406602
 46
0.0
 71
     7
 72
     1
  1
{\fSimSun|b1|i0|c134|p2;\W0.9;布尔台矿生产办}
  7
HZ
 73
     1
 44
1.0
1001
ACAD
1000
MTEXTBEGIN
1070
    73
1070
     1
1070
    44
1040
1.0
1070
    74
1070
     0
1000
MTEXTEND
  0
MTEXT
  5
453
330
1F
100
AcDbEntity
  8
图例及图签
 62
     0
370
     0
100
AcDbMText
 10
3004.376977700492
 20
167.8802435453581
 30
0.0
 40
36.0
 41
756.6547673406602
 46
0.0
 71
     7
 72
     1
  1
\fSimSun|b1|i0|c134|p2;\W0.9;2023年08月04日
  7
HZ
 73
     1
 44
1.0
1001
ACAD
1000
MTEXTBEGIN
1070
    73
1070
     1
1070
    44
1040
1.0
1070
    74
1070
     0
1000
MTEXTEND
  0
MTEXT
  5
454
330
1F
100
AcDbEntity
  8
图例及图签
 62
     7
370
     0
100
AcDbMText
 10
2438.118754988958
 20
766.2378084467599
 30
0.0
 40
50.0
 41
870.1716905467401
 46
0.0
 71
     7
 72
     1
  1
{\fSimSun|b1|i0|c134|p49;神东煤炭集团布尔台煤矿}
  7
HZ
 73
     1
 44
1.0
1001
ACAD
1000
MTEXTBEGIN
1070
    73
1070
     1
1070
    44
1040
1.0
1070
    74
1070
     0
1000
MTEXTEND
  0
LINE
  5
455
330
1F
100
AcDbEntity
  8
图例及图签
  6
ByBlock
 48
1.000000000000000E+16
370
    20
100
AcDbLine
 10
2990.534970436842
 20
600.1250002423837
 30
0.0
 11
2990.534970488211
 21
150.1250001976841
 31
0.0
  0
LINE
  5
456
330
1F
100
AcDbEntity
  8
图例及图签
  6
ByBlock
 48
1.000000000000000E+16
370
    20
100
AcDbLine
 10
2640.472470358654
 20
600.0625002423841
 30
0.0
 11
2640.472470410009
 21
150.0625001976841
 31
0.0
  0
LINE
  5
457
330
1F
100
AcDbEntity
  8
图例及图签
  6
ByBlock
 48
1.000000000000000E+16
370
    20
100
AcDbLine
 10
2290.409970280452
 20
600.0000002423838
 30
0.0
 11
2290.409970331835
 21
150.0000001976732
 31
0.0
  0
INSERT
  5
458
330
1F
100
AcDbEntity
  8
图例及图签
  6
0a26剥蚀边界
100
AcDbBlockReference
  2
zw$78B2
 10
2141.108682226695
 20
796.7191914023897
 30
0.0
 41
8.999999999999998
 42
8.999999999999998
 43
8.999999999999998
 50
359.9999999998371
  0
MTEXT
  5
459
330
1F
100
AcDbEntity
  8
图例及图签
 62
     7
370
     0
100
AcDbMText
 10
3027.914292748211
 20
352.1628788526541
 30
0.0
 40
36.0
 41
756.6547673406602
 46
0.0
 71
     7
 72
     1
  1
\fSimSun|b1|i0|c134|p2;J142-171·1
  7
HZ
 73
     1
 44
1.0
 90
        2
1001
ACAD
1000
MTEXTBEGIN
1070
    73
1070
     1
1070
    44
1040
1.0
1070
    74
1070
     0
1000
MTEXTEND
  0
TEXT
  5
45A
330
1F
100
AcDbEntity
  8
1000经纬网
 62
   253
370
     0
100
AcDbText
 10
-5709.600411213428
 20
4666.998570802916
 30
0.0
 40
30.0
  1
65000
 50
298.9999999914677
  7
经纬网
100
AcDbText
  0
TEXT
  5
45B
330
1F
100
AcDbEntity
  8
1000经纬网
 62
   253
370
     0
100
AcDbText
 10
-1672.526431165059
 20
-2523.475993467627
 30
0.0
 40
30.0
  1
65000
 50
298.9999999914677
  7
经纬网
100
AcDbText
  0
TEXT
  5
45C
330
1F
100
AcDbEntity
  8
1000经纬网
 62
   253
370
     0
100
AcDbText
 10
-4747.665388739242
 20
5116.542285828277
 30
0.0
 40
30.0
  1
66000
 50
298.9999999914677
  7
经纬网
100
AcDbText
  0
TEXT
  5
45D
330
1F
100
AcDbEntity
  8
1000经纬网
 62
   253
370
     0
100
AcDbText
 10
-530.3162377999068
 20
-2527.927394281502
 30
0.0
 40
30.0
  1
66000
 50
298.9999999914677
  7
经纬网
100
AcDbText
  0
TEXT
  5
45E
330
1F
100
AcDbEntity
  8
1000经纬网
 62
   253
370
     0
100
AcDbText
 10
-3602.032235390081
 20
5117.586837271583
 30
0.0
 40
30.0
  1
67000
 50
298.9999999914677
  7
经纬网
100
AcDbText
  0
TEXT
  5
45F
330
1F
100
AcDbEntity
  8
1000经纬网
 62
   253
370
     0
100
AcDbText
 10
610.938985511918
 20
-2527.383388558155
 30
0.0
 40
30.0
  1
67000
 50
298.9999999914677
  7
经纬网
100
AcDbText
  0
TEXT
  5
460
330
1F
100
AcDbEntity
  8
1000经纬网
 62
   253
370
     0
100
AcDbText
 10
-2455.668921171264
 20
5116.116520630556
 30
0.0
 40
30.0
  1
68000
 50
298.9999999914677
  7
经纬网
100
AcDbText
  0
TEXT
  5
461
330
1F
100
AcDbEntity
  8
1000经纬网
 62
   253
370
     0
100
AcDbText
 10
1784.201526592954
 20
-2528.440940267877
 30
0.0
 40
30.0
  1
68000
 50
298.9999999914677
  7
经纬网
100
AcDbText
  0
TEXT
  5
462
330
1F
100
AcDbEntity
  8
1000经纬网
 62
   253
370
     0
100
AcDbText
 10
-1316.537044009701
 20
5118.177968273296
 30
0.0
 40
30.0
  1
69000
 50
298.9999999914677
  7
经纬网
100
AcDbText
  0
TEXT
  5
463
330
1F
100
AcDbEntity
  8
1000经纬网
 62
   253
370
     0
100
AcDbText
 10
2899.180769835652
 20
-2523.796915813254
 30
0.0
 40
30.0
  1
69000
 50
298.9999999914677
  7
经纬网
100
AcDbText
  0
TEXT
  5
464
330
1F
100
AcDbEntity
  8
1000经纬网
 62
   253
370
     0
100
AcDbText
 10
-172.3185660602
 20
5116.496785054335
 30
0.0
 40
30.0
  1
70000
 50
298.9999999914677
  7
经纬网
100
AcDbText
  0
TEXT
  5
465
330
1F
100
AcDbEntity
  8
1000经纬网
 62
   253
370
     0
100
AcDbText
 10
1011.917983933071
 20
5113.240373391916
 30
0.0
 40
30.0
  1
71000
 50
298.9999999914677
  7
经纬网
100
AcDbText
  0
TEXT
  5
466
330
1F
100
AcDbEntity
  8
1000经纬网
 62
   253
370
     0
100
AcDbText
 10
-5725.008320984696
 20
1879.821986247275
 30
0.0
 40
30.0
  1
10000
 50
29.00000061339132
  7
经纬网
100
AcDbText
  0
TEXT
  5
467
330
1F
100
AcDbEntity
  8
1000经纬网
 62
   253
370
     0
100
AcDbText
 10
-64.26055026088191
 20
5016.797584294444
 30
0.0
 40
30.0
  1
10000
 50
29.00000061339132
  7
经纬网
100
AcDbText
  0
TEXT
  5
468
330
1F
100
AcDbEntity
  8
1000经纬网
 62
   253
370
     0
100
AcDbText
 10
-5719.765541796843
 20
739.3573886979815
 30
0.0
 40
30.0
  1
11000
 50
29.00000061339132
  7
经纬网
100
AcDbText
  0
TEXT
  5
469
330
1F
100
AcDbEntity
  8
1000经纬网
 62
   253
370
     0
100
AcDbText
 10
1998.404789514508
 20
5016.797584283277
 30
0.0
 40
30.0
  1
11000
 50
29.00000061339132
  7
经纬网
100
AcDbText
  0
TEXT
  5
46A
330
1F
100
AcDbEntity
  8
1000经纬网
 62
   253
370
     0
100
AcDbText
 10
-5722.903922354146
 20
-403.7606339785748
 30
0.0
 40
30.0
  1
12000
 50
29.00000061339132
  7
经纬网
100
AcDbText
  0
TEXT
  5
46B
330
1F
100
AcDbEntity
  8
1000经纬网
 62
   253
370
     0
100
AcDbText
 10
-5727.470667743382
 20
-1611.301190585907
 30
0.0
 40
30.0
  1
13000
 50
29.00000061339132
  7
经纬网
100
AcDbText
  0
TEXT
  5
46C
330
1F
100
AcDbEntity
  8
1000经纬网
 62
   253
370
     0
100
AcDbText
 10
-5588.215011826298
 20
-2601.956497781292
 30
0.0
 40
30.0
  1
14000
 50
29.00000061339132
  7
经纬网
100
AcDbText
  0
TEXT
  5
46D
330
1F
100
AcDbEntity
  8
1000经纬网
 62
   253
370
     0
100
AcDbText
 10
-1380.093011060748
 20
-2595.149537809459
 30
0.0
 40
30.0
  1
16000
 50
29.00000061339132
  7
经纬网
100
AcDbText
  0
TEXT
  5
46E
330
1F
100
AcDbEntity
  8
1000经纬网
 62
   253
370
     0
100
AcDbText
 10
686.4359396762112
 20
-2592.159626949707
 30
0.0
 40
30.0
  1
17000
 50
29.00000061339132
  7
经纬网
100
AcDbText
  0
TEXT
  5
46F
330
1F
100
AcDbEntity
  8
1000经纬网
 62
   253
370
     0
100
AcDbText
 10
2735.629959870648
 20
-2596.856167814357
 30
0.0
 40
30.0
  1
18000
 50
29.00000061339132
  7
经纬网
100
AcDbText
  0
TEXT
  5
470
330
1F
100
AcDbEntity
  8
1000经纬网
 62
   253
370
     0
100
AcDbText
 10
-5710.597338555415
 20
2696.932465397775
 30
0.0
 40
30.0
  1
64000
 50
298.9999999914677
  7
经纬网
100
AcDbText
  0
TEXT
  5
471
330
1F
100
AcDbEntity
  8
1000经纬网
 62
   253
370
     0
100
AcDbText
 10
-5719.862033461494
 20
3028.586372204545
 30
0.0
 40
30.0
  1
09000
 50
29.00000061339132
  7
经纬网
100
AcDbText
  0
TEXT
  5
472
330
1F
100
AcDbEntity
  8
1000经纬网
 62
   253
370
     0
100
AcDbText
 10
-5721.385634255863
 20
4170.094232988038
 30
0.0
 40
30.0
  1
08000
 50
29.00000061339132
  7
经纬网
100
AcDbText
  0
TEXT
  5
473
330
1F
100
AcDbEntity
  8
1000经纬网
 62
   253
370
     0
100
AcDbText
 10
-5709.700069187225
 20
633.3761931965334
 30
0.0
 40
30.0
  1
63000
 50
298.9999999914677
  7
经纬网
100
AcDbText
  0
TEXT
  5
474
330
1F
100
AcDbEntity
  8
1000经纬网
 62
   253
370
     0
100
AcDbText
 10
-5709.237268595051
 20
-1430.334408796379
 30
0.0
 40
30.0
  1
62000
 50
298.9999999914677
  7
经纬网
100
AcDbText
  0
TEXT
  5
475
330
1F
100
AcDbEntity
  8
1000经纬网
 62
   253
370
     0
100
AcDbText
 10
-2127.635695711104
 20
5016.797584767553
 30
0.0
 40
30.0
  1
09000
 50
29.00000061339132
  7
经纬网
100
AcDbText
  0
TEXT
  5
476
330
1F
100
AcDbEntity
  8
1000经纬网
 62
   253
370
     0
100
AcDbText
 10
-4228.372137220529
 20
5024.385153017894
 30
0.0
 40
30.0
  1
08000
 50
29.00000061339132
  7
经纬网
100
AcDbText
  0
TEXT
  5
477
330
1F
100
AcDbEntity
  8
1000经纬网
 62
   253
370
     0
100
AcDbText
 10
-2819.423191840146
 20
-2520.886298746022
 30
0.0
 40
30.0
  1
64000
 50
298.9999999914677
  7
经纬网
100
AcDbText
  0
TEXT
  5
478
330
1F
100
AcDbEntity
  8
1000经纬网
 62
   253
370
     0
100
AcDbText
 10
-3923.385016035903
 20
-2534.156133024154
 30
0.0
 40
30.0
  1
63000
 50
298.9999999914677
  7
经纬网
100
AcDbText
  0
TEXT
  5
479
330
1F
100
AcDbEntity
  8
1000经纬网
 62
   253
370
     0
100
AcDbText
 10
-5062.536664609486
 20
-2534.735502084852
 30
0.0
 40
30.0
  1
62000
 50
298.9999999914677
  7
经纬网
100
AcDbText
  0
TEXT
  5
47A
330
1F
100
AcDbEntity
  8
1000经纬网
 62
   253
370
     0
100
AcDbText
 10
-3518.059134814282
 20
-2595.823426776192
 30
0.0
 40
30.0
  1
15000
 50
29.00000061339132
  7
经纬网
100
AcDbText
  0
TEXT
  5
47B
330
1F
100
AcDbEntity
  8
1000经纬网
 62
   253
370
     0
100
AcDbText
 10
4872.31113997813
 20
4309.070645230927
 30
0.0
 40
30.0
  1
13000
 50
29.00000061339132
  7
经纬网
100
AcDbText
  0
TEXT
  5
47C
330
1F
100
AcDbEntity
  8
1000经纬网
 62
   253
370
     0
100
AcDbText
 10
4871.695820221768
 20
3127.969127957247
 30
0.0
 40
30.0
  1
14000
 50
29.00000061339132
  7
经纬网
100
AcDbText
  0
TEXT
  5
47D
330
1F
100
AcDbEntity
  8
1000经纬网
 62
   253
370
     0
100
AcDbText
 10
4869.344833470563
 20
2019.611283871447
 30
0.0
 40
30.0
  1
15000
 50
29.00000061339132
  7
经纬网
100
AcDbText
  0
TEXT
  5
47E
330
1F
100
AcDbEntity
  8
1000经纬网
 62
   253
370
     0
100
AcDbText
 10
4871.439985938046
 20
877.0034658565355
 30
0.0
 40
30.0
  1
16000
 50
29.00000061339132
  7
经纬网
100
AcDbText
  0
TEXT
  5
47F
330
1F
100
AcDbEntity
  8
1000经纬网
 62
   253
370
     0
100
AcDbText
 10
4869.70664965329
 20
-267.564821173336
 30
0.0
 40
30.0
  1
17000
 50
29.00000061339132
  7
经纬网
100
AcDbText
  0
TEXT
  5
480
330
1F
100
AcDbEntity
  8
1000经纬网
 62
   253
370
     0
100
AcDbText
 10
4896.959189893602
 20
-1426.68655004782
 30
0.0
 40
30.0
  1
18000
 50
29.00000061339132
  7
经纬网
100
AcDbText
  0
TEXT
  5
481
330
1F
100
AcDbEntity
  8
1000经纬网
 62
   253
370
     0
100
AcDbText
 10
4863.051569330859
 20
-1880.334225326005
 30
0.0
 40
30.0
  1
71000
 50
298.9999999914677
  7
经纬网
100
AcDbText
  0
TEXT
  5
482
330
1F
100
AcDbEntity
  8
1000经纬网
 62
   253
370
     0
100
AcDbText
 10
4862.617686964248
 20
162.2818798675361
 30
0.0
 40
30.0
  1
72000
 50
298.9999999914677
  7
经纬网
100
AcDbText
  0
TEXT
  5
483
330
1F
100
AcDbEntity
  8
1000经纬网
 62
   253
370
     0
100
AcDbText
 10
4862.617686934452
 20
2224.947219628013
 30
0.0
 40
30.0
  1
73000
 50
298.9999999914677
  7
经纬网
100
AcDbText
  0
TEXT
  5
484
330
1F
100
AcDbEntity
  8
1000经纬网
 62
   253
370
     0
100
AcDbText
 10
4866.615463233912
 20
3284.811397141087
 30
0.0
 40
30.0
  1
73500
 50
298.9999999914677
  7
经纬网
100
AcDbText
  0
TEXT
  5
485
330
1F
100
AcDbEntity
  8
1000经纬网
 62
   253
370
     0
100
AcDbText
 10
3259.138675996519
 20
5115.817811066637
 30
0.0
 40
30.0
  1
73000
 50
298.9999999914677
  7
经纬网
100
AcDbText
  0
TEXT
  5
486
330
1F
100
AcDbEntity
  8
1000经纬网
 62
   253
370
     0
100
AcDbText
 10
4061.070129312265
 20
5016.797584361504
 30
0.0
 40
30.0
  1
12000
 50
29.00000061339132
  7
经纬网
100
AcDbText
  0
TEXT
  5
487
330
1F
100
AcDbEntity
  8
1000经纬网
 62
   253
370
     0
100
AcDbText
 10
4875.270211397892
 20
4378.720178442603
 30
0.0
 40
30.0
  1
374
 50
29.00000061339132
  7
经纬网
100
AcDbText
  0
TEXT
  5
488
330
1F
100
AcDbEntity
  8
1000经纬网
 62
   253
370
     0
100
AcDbText
 10
-4711.328327435544
 20
5135.872773841578
 30
-0.0302031403215304
 40
30.0
  1
43
 50
298.9999999914677
  7
经纬网
100
AcDbText
  0
TEXT
  5
489
330
1F
100
AcDbEntity
  8
1000经纬网
 62
   253
370
     0
100
AcDbText
 10
-5676.598969203882
 20
4684.811503557122
 30
0.0
 40
30.0
  1
43
 50
298.9999999914677
  7
经纬网
100
AcDbText
  0
TEXT
  5
48A
330
1F
100
AcDbEntity
  8
1000经纬网
 62
   253
370
     0
100
AcDbText
 10
-5606.9510019416
 20
-2571.373327917504
 30
0.0
 40
30.0
  1
374
 50
29.00000061339132
  7
经纬网
100
AcDbText
  0
TEXT
  5
48B
330
1F
100
AcDbEntity
  8
1000经纬网
 62
   253
370
     0
100
AcDbText
 10
-5745.785004234682
 20
-1572.688295616358
 30
0.0
 40
30.0
  1
374
 50
29.00000061339132
  7
经纬网
100
AcDbText
  0
TEXT
  5
48C
330
1F
100
AcDbEntity
  8
1000经纬网
 62
   253
370
     0
100
AcDbText
 10
-5676.108481634712
 20
-1412.065168781323
 30
0.0
 40
30.0
  1
43
 50
298.9999999914677
  7
经纬网
100
AcDbText
  0
TEXT
  5
48D
330
1F
100
AcDbEntity
  8
1000经纬网
 62
   253
370
     0
100
AcDbText
 10
4046.092251339827
 20
5050.275546993212
 30
0.0
 40
30.0
  1
374
 50
29.00000061339132
  7
经纬网
100
AcDbText
  0
TEXT
  5
48E
330
1F
100
AcDbEntity
  8
1000经纬网
 62
   253
370
     0
100
AcDbText
 10
4895.076853250615
 20
-1861.969875276358
 30
0.0
 40
30.0
  1
43
 50
298.9999999914677
  7
经纬网
100
AcDbText
  0
TEXT
  5
48F
330
1F
100
AcDbEntity
  8
1000经纬网
 62
   253
370
     0
100
AcDbText
 10
4056.930549469808
 20
-2528.727646249256
 30
0.0
 40
30.0
  1
70000
 50
298.9999999914677
  7
经纬网
100
AcDbText
  0
TEXT
  5
490
330
1F
100
AcDbEntity
  8
1000经纬网
 62
   253
370
     0
100
AcDbText
 10
4092.799669242555
 20
-2514.59043447187
 30
0.0
 40
30.0
  1
43
 50
298.9999999914677
  7
经纬网
100
AcDbText
  0
TEXT
  5
491
330
1F
100
AcDbEntity
  8
1000经纬网
 62
   253
370
     0
100
AcDbText
 10
4859.971645730704
 20
4249.183350923191
 30
0.0
 40
30.0
  1
74000
 50
298.9999999914677
  7
经纬网
100
AcDbText
  0
TEXT
  5
492
330
1F
100
AcDbEntity
  8
1000经纬网
 62
   253
370
     0
100
AcDbText
 10
4894.546814849829
 20
4267.773357817953
 30
0.0
 40
30.0
  1
43
 50
298.9999999914677
  7
经纬网
100
AcDbText
  0
TEXT
  5
493
330
1F
100
AcDbEntity
  8
1000经纬网
 62
   253
370
     0
100
AcDbText
 10
4403.853727759286
 20
5117.289197607328
 30
0.0
 40
30.0
  1
74000
 50
298.9999999914677
  7
经纬网
100
AcDbText
  0
TEXT
  5
494
330
1F
100
AcDbEntity
  8
1000经纬网
 62
   253
370
     0
100
AcDbText
 10
4464.090127810614
 20
5079.143670993064
 30
0.0
 40
30.0
  1
43
 50
298.9999999914677
  7
经纬网
100
AcDbText
  0
TEXT
  5
49D
330
1F
100
AcDbEntity
  8
1000经纬网
 62
   253
370
     0
100
AcDbText
 10
2114.954278097906
 20
5115.358731473212
 30
0.0
 40
30.0
  1
72000
 50
298.9999999914677
  7
经纬网
100
AcDbText
  0
LWPOLYLINE
  5
49E
330
1F
100
AcDbEntity
  8
1000经纬网
 62
   253
370
   100
390
242
100
AcDbPolyline
 90
        5
 70
     0
 43
0.0
 10
-5765.538750091251
 20
5166.797584689327
 10
5012.61768685249
 20
5166.797584942644
 10
5012.61768699405
 20
-2658.202414736276
 10
-5765.538749963383
 20
-2658.202414855493
 10
-5765.538750147292
 20
5166.797584689327
  0
LWPOLYLINE
  5
4A5
330
1F
100
AcDbEntity
  8
1000经纬网
 62
   253
370
     5
100
AcDbPolyline
 90
        2
 70
     0
 43
0.0
 10
-5615.538750000629
 20
501.3884238965024
 10
-4261.402770005425
 20
-1941.537551462435
  0
LWPOLYLINE
  5
4A6
330
1F
100
AcDbEntity
  8
1000经纬网
 62
   253
370
     5
100
AcDbPolyline
 90
        2
 70
     0
 43
0.0
 10
-5615.538750030424
 20
2564.053763362684
 10
-3117.996400962806
 20
-1941.631905814287
  0
LWPOLYLINE
  5
4A7
330
1F
100
AcDbEntity
  8
1000经纬网
 62
   253
370
     5
390
242
100
AcDbPolyline
 90
        2
 70
     0
 43
0.0
 10
-5615.538750060228
 20
4226.381966888075
 10
-4189.591228887762
 20
5016.797584719139
  0
LWPOLYLINE
  5
4A8
330
1F
100
AcDbEntity
  8
1000经纬网
 62
   253
370
     5
390
242
100
AcDbPolyline
 90
        2
 70
     0
 43
0.0
 10
-5615.538750030424
 20
3083.027899063298
 10
-2126.925889052775
 20
5016.797584767553
  0
LWPOLYLINE
  5
4A9
330
1F
100
AcDbEntity
  8
1000经纬网
 62
   253
370
     5
390
242
100
AcDbPolyline
 90
        2
 70
     0
 43
0.0
 10
2861.602809620834
 20
-2508.202414761342
 10
3462.617687076601
 20
-2175.054428227006
  0
LWPOLYLINE
  5
4AA
330
1F
100
AcDbEntity
  8
1000经纬网
 62
   253
370
     5
390
242
100
AcDbPolyline
 90
        2
 70
     0
 43
0.0
 10
3462.617687076601
 20
-2175.054428227006
 10
4862.617686994048
 20
-1399.021756478476
  0
LWPOLYLINE
  5
4AB
330
1F
100
AcDbEntity
  8
1000经纬网
 62
   253
370
     5
390
242
100
AcDbPolyline
 90
        2
 70
     0
 43
0.0
 10
798.9374702364978
 20
-2508.202414783344
 10
4862.617686956783
 20
-255.6676885493949
  0
LWPOLYLINE
  5
4AC
330
1F
100
AcDbEntity
  8
1000经纬网
 62
   253
370
     5
390
242
100
AcDbPolyline
 90
        2
 70
     0
 43
0.0
 10
798.9374703355743
 20
-2508.202414783344
 10
4862.617686964248
 20
-255.6676884003869
  0
LWPOLYLINE
  5
4AD
330
1F
100
AcDbEntity
  8
1000经纬网
 62
   253
370
     5
390
242
100
AcDbPolyline
 90
        2
 70
     0
 43
0.0
 10
1147.424701131548
 20
-1171.678720527228
 10
4862.617686934452
 20
887.6863792232313
  0
LWPOLYLINE
  5
4AE
330
1F
100
AcDbEntity
  8
1000经纬网
 62
   253
370
     5
390
242
100
AcDbPolyline
 90
        2
 70
     0
 43
0.0
 10
-1263.727869920802
 20
-2508.202414805343
 10
120.9503615533569
 20
-1740.662737972143
  0
LWPOLYLINE
  5
4AF
330
1F
100
AcDbEntity
  8
1000经纬网
 62
   253
370
     5
390
242
100
AcDbPolyline
 90
        2
 70
     0
 43
0.0
 10
120.9503615533569
 20
-1740.662737972143
 10
4862.617686930168
 20
887.6863787000036
  0
LWPOLYLINE
  5
4B0
330
1F
100
AcDbEntity
  8
1000经纬网
 62
   253
370
     5
390
242
100
AcDbPolyline
 90
        2
 70
     0
 43
0.0
 10
-1147.24435164812
 20
-1300.28047862732
 10
4862.617686919537
 20
2031.040447066647
  0
LWPOLYLINE
  5
4B1
330
1F
100
AcDbEntity
  8
1000经纬网
 62
   253
370
     5
390
242
100
AcDbPolyline
 90
        2
 70
     0
 43
0.0
 10
-2966.639092269248
 20
-2308.78745147114
 10
-1147.24435164812
 20
-1300.28047862732
  0
LWPOLYLINE
  5
4B2
330
1F
100
AcDbEntity
  8
1000经纬网
 62
   253
370
     5
100
AcDbPolyline
 90
        2
 70
     0
 43
0.0
 10
-4369.418681073689
 20
-1941.528637946165
 10
4862.617686889741
 20
3174.312592200101
  0
LWPOLYLINE
  5
4B3
330
1F
100
AcDbEntity
  8
1000经纬网
 62
   253
370
     5
390
242
100
AcDbPolyline
 90
        2
 70
     0
 43
0.0
 10
-5615.53874997082
 20
-1490.388372287988
 10
4862.617686867389
 20
4317.748582768354
  0
LWPOLYLINE
  5
4B4
330
1F
100
AcDbEntity
  8
1000经纬网
 62
   253
370
     5
390
242
100
AcDbPolyline
 90
        2
 70
     0
 43
0.0
 10
-5615.53875002298
 20
1939.673831231064
 10
-64.26054926994106
 20
5016.797584823436
  0
LWPOLYLINE
  5
4B5
330
1F
100
AcDbEntity
  8
1000经纬网
 62
   253
370
     5
390
242
100
AcDbPolyline
 90
        2
 70
     0
 43
0.0
 10
4458.423827089052
 20
5016.797584927747
 10
4862.617686867389
 20
4287.612559399675
  0
LWPOLYLINE
  5
4B6
330
1F
100
AcDbEntity
  8
1000经纬网
 62
   253
370
     5
390
242
100
AcDbPolyline
 90
        2
 70
     0
 43
0.0
 10
-5615.53875000808
 20
796.3197633839372
 10
1998.404790557596
 20
5016.797584875589
  0
LWPOLYLINE
  5
4B7
330
1F
100
AcDbEntity
  8
1000经纬网
 62
   253
370
     5
390
242
100
AcDbPolyline
 90
        2
 70
     0
 43
0.0
 10
2171.715691379871
 20
5016.797584864416
 10
4862.617686964248
 20
162.2818798340049
  0
LWPOLYLINE
  5
4B8
330
1F
100
AcDbEntity
  8
1000经纬网
 62
   253
370
     5
390
242
100
AcDbPolyline
 90
        2
 70
     0
 43
0.0
 10
3315.069759241911
 20
5016.797584912845
 10
4862.617686919537
 20
2224.947219605664
  0
LWPOLYLINE
  5
4B9
330
1F
100
AcDbEntity
  8
1000经纬网
 62
   253
370
     5
390
242
100
AcDbPolyline
 90
        2
 70
     0
 43
0.0
 10
-114.9924442398878
 20
5016.797584815984
 10
4056.183167369811
 20
-2508.202414748606
  0
LWPOLYLINE
  5
4BA
330
1F
100
AcDbEntity
  8
1000经纬网
 62
   253
370
     5
390
242
100
AcDbPolyline
 90
        2
 70
     0
 43
0.0
 10
1073.508912160668
 20
-1252.646298953224
 10
1769.475031774086
 20
-2508.202414772993
  0
LWPOLYLINE
  5
4BB
330
1F
100
AcDbEntity
  8
1000经纬网
 62
   253
370
     5
390
242
100
AcDbPolyline
 90
        2
 70
     0
 43
0.0
 10
-2401.700579867091
 20
5016.797584767553
 10
1073.508912160668
 20
-1252.646298953224
  0
LWPOLYLINE
  5
4BC
330
1F
100
AcDbEntity
  8
1000经纬网
 62
   253
370
     5
390
242
100
AcDbPolyline
 90
        2
 70
     0
 43
0.0
 10
-3545.054646821375
 20
5016.797584731154
 10
-484.6284408325779
 20
-504.3574441755959
  0
LWPOLYLINE
  5
4BD
330
1F
100
AcDbEntity
  8
1000经纬网
 62
   253
370
     5
390
242
100
AcDbPolyline
 90
        2
 70
     0
 43
0.0
 10
199.7747878465919
 20
-1739.053552981474
 10
626.1209637185121
 20
-2508.202414785196
  0
LWPOLYLINE
  5
4BE
330
1F
100
AcDbEntity
  8
1000经纬网
 62
   253
370
     5
390
242
100
AcDbPolyline
 90
        2
 70
     0
 43
0.0
 10
-3545.054647729125
 20
5016.797584741485
 10
199.7747878465919
 20
-1739.053552981474
  0
LWPOLYLINE
  5
4BF
330
1F
100
AcDbEntity
  8
1000经纬网
 62
   253
370
     5
390
242
100
AcDbPolyline
 90
        2
 70
     0
 43
0.0
 10
-1198.38768231902
 20
-1279.367026635341
 10
-517.2331040139289
 20
-2508.202414797387
  0
LWPOLYLINE
  5
4C0
330
1F
100
AcDbEntity
  8
1000经纬网
 62
   253
370
     5
390
242
100
AcDbPolyline
 90
        2
 70
     0
 43
0.0
 10
-4688.408715546446
 20
5016.797584704224
 10
-1198.38768231902
 20
-1279.367026635341
  0
LWPOLYLINE
  5
4C1
330
1F
100
AcDbEntity
  8
1000经纬网
 62
   253
370
     5
390
242
100
AcDbPolyline
 90
        2
 70
     0
 43
0.0
 10
-5615.538750075129
 20
4626.719102657504
 10
-1660.587171827629
 20
-2508.202414809585
  0
LWPOLYLINE
  5
4C2
330
1F
100
AcDbEntity
  8
1000经纬网
 62
   253
370
     5
390
242
100
AcDbPolyline
 90
        2
 70
     0
 43
0.0
 10
-1258.346512087014
 20
5016.797584797365
 10
2912.829099605358
 20
-2508.202414760792
  0
LWPOLYLINE
  5
4C3
330
1F
100
AcDbEntity
  8
1000经纬网
 62
   253
370
     5
390
242
100
AcDbPolyline
 90
        2
 70
     0
 43
0.0
 10
-5615.538750000629
 20
-347.0343044632068
 10
4061.070130280824
 20
5016.797584912845
  0
LWPOLYLINE
  5
4C4
330
1F
100
AcDbEntity
  8
1000经纬网
 62
   253
370
     5
390
242
100
AcDbPolyline
 90
        2
 70
     0
 43
0.0
 10
1028.3616235998
 20
5016.797584849512
 10
4862.617686982614
 20
-1900.383459915494
  0
TEXT
  5
4C5
330
1F
100
AcDbEntity
  8
1000经纬网
 62
   253
370
     0
100
AcDbText
 10
-5743.268224714068
 20
4203.953474479512
 30
0.0
 40
30.0
  1
374
 50
29.00000061339132
  7
经纬网
100
AcDbText
  0
TEXT
  5
4C6
330
1F
100
AcDbEntity
  8
1000经纬网
 62
   253
370
     0
100
AcDbText
 10
-4252.717391618451
 20
5059.812141930676
 30
-0.0239078217115347
 40
30.0
  1
374
 50
29.00000061339132
  7
经纬网
100
AcDbText
  0
LWPOLYLINE
  5
4C7
330
1F
100
AcDbEntity
  8
1000经纬网
 62
   253
370
     5
100
AcDbPolyline
 90
        4
 70
     1
 43
0.0
 10
-5615.538750082578
 20
5016.797584678156
 10
4862.617686852489
 20
5016.797584946374
 10
4862.617686994048
 20
-2508.202414740005
 10
-5615.538749963382
 20
-2508.202414851768
  0
LWPOLYLINE
  5
4C8
330
1F
100
AcDbEntity
  8
1000经纬网
 62
   253
370
     5
100
AcDbPolyline
 90
        2
 70
     0
 43
0.0
 10
-5615.538749978383
 20
-1561.276916017789
 10
-5404.809139343477
 20
-1941.443197110566
  0
TEXT
  5
4C9
330
1F
100
AcDbEntity
  8
1000经纬网
 62
   253
370
     0
100
AcDbText
 10
4878.446422814228
 20
-1388.483522388106
 30
0.0
 40
30.0
  1
374
 50
29.00000061339132
  7
经纬网
100
AcDbText
  0
TEXT
  5
4CA
330
1F
100
AcDbEntity
  8
1000经纬网
 62
   253
370
     0
100
AcDbText
 10
2715.828639758949
 20
-2563.106777255908
 30
0.0
 40
30.0
  1
374
 50
29.00000061339132
  7
经纬网
100
AcDbText
  0
TEXT
  5
4CB
330
1F
100
AcDbEntity
  8
1000经纬网
 62
   253
370
     0
100
AcDbText
 10
-5031.320234745889
 20
-2518.904703730985
 30
0.0
 40
30.0
  1
43
 50
298.9999999914677
  7
经纬网
100
AcDbText
  0
LWPOLYLINE
  5
627
330
1F
100
AcDbEntity
  8
风量风速
 62
     7
 48
1.000000000000000E+16
370
    20
100
AcDbPolyline
 90
        4
 70
     1
 43
0.0
 10
-5615.538740707247
 20
-2508.202414557226
 10
-2966.639092267131
 20
-2508.202414528973
 10
-2966.639092273176
 20
-1941.644395880066
 10
-5615.538740707247
 20
-1941.425807619403
  0
LWPOLYLINE
  5
628
330
1F
100
AcDbEntity
  8
风量风速
 48
1.000000000000000E+16
100
AcDbPolyline
 90
        4
 70
     1
 43
0.0
 10
-5026.869460609876
 20
-2030.675675907605
 10
-4871.96226904378
 20
-2030.675675907605
 10
-4871.96226904378
 20
-2111.147342381853
 10
-5026.869460609876
 20
-2111.147342381853
  0
LWPOLYLINE
  5
629
330
1F
100
AcDbEntity
  8
风量风速
 48
1.000000000000000E+16
100
AcDbPolyline
 90
        4
 70
     1
 43
0.0
 10
-5026.869460609876
 20
-2180.675675907616
 10
-4871.96226904378
 20
-2180.675675907616
 10
-4871.96226904378
 20
-2261.147342381853
 10
-5026.869460609876
 20
-2261.147342381853
  0
LWPOLYLINE
  5
62A
330
1F
100
AcDbEntity
  8
风量风速
 48
1.000000000000000E+16
100
AcDbPolyline
 90
        4
 70
     1
 43
0.0
 10
-5026.869460609876
 20
-2330.675675907617
 10
-4871.96226904378
 20
-2330.675675907617
 10
-4871.96226904378
 20
-2411.147342381847
 10
-5026.869460609876
 20
-2411.147342381847
  0
LINE
  5
62B
330
1F
100
AcDbEntity
  8
风量风速
 62
     4
 48
1.000000000000000E+16
100
AcDbLine
 10
-4776.494734566214
 20
-2058.829406895654
 30
0.000000004715112
 11
-4763.530865568227
 21
-2066.395017505605
 31
0.000000004715112
  0
LINE
  5
62C
330
1F
100
AcDbEntity
  8
风量风速
 62
     4
 48
1.000000000000000E+16
100
AcDbLine
 10
-4763.530865568227
 20
-2066.395017505605
 30
0.000000004715112
 11
-4733.510906481522
 21
-2066.37309347744
 31
0.000000004715112
  0
LINE
  5
62D
330
1F
100
AcDbEntity
  8
风量风速
 62
     4
 48
1.000000000000000E+16
100
AcDbLine
 10
-4733.510906481522
 20
-2066.37309347744
 30
0.000000004715112
 11
-4720.54703748354
 21
-2058.807482889843
 31
0.000000004715112
  0
LINE
  5
62E
330
1F
100
AcDbEntity
  8
风量风速
 62
     4
 48
1.000000000000000E+16
100
AcDbLine
 10
-4776.45611148843
 20
-2098.276055828603
 30
0.000000004715112
 11
-4763.492242490424
 21
-2090.710445218659
 31
0.000000004715112
  0
LINE
  5
62F
330
1F
100
AcDbEntity
  8
风量风速
 62
     4
 48
1.000000000000000E+16
100
AcDbLine
 10
-4763.492242490424
 20
-2090.710445218659
 30
0.000000004715112
 11
-4733.472283403735
 21
-2090.688521212895
 31
0.000000004715112
  0
LINE
  5
630
330
1F
100
AcDbEntity
  8
风量风速
 62
     4
 48
1.000000000000000E+16
100
AcDbLine
 10
-4733.472283403735
 20
-2090.688521212895
 30
0.000000004715112
 11
-4720.508414405736
 21
-2098.254131800489
 31
0.000000004715112
  0
LINE
  5
631
330
1F
100
AcDbEntity
  8
风量风速
 62
     1
 48
1.000000000000000E+16
100
AcDbLine
 10
-4765.831603213828
 20
-2078.557606827271
 30
0.000000004715112
 11
-4731.197394822808
 21
-2078.555972481357
 31
0.000000004715112
  0
LINE
  5
632
330
1F
100
AcDbEntity
  8
风量风速
 62
     1
 48
1.000000000000000E+16
100
AcDbLine
 10
-4731.197394822808
 20
-2078.555972481357
 30
0.000000004715112
 11
-4741.529928406428
 21
-2076.005278980924
 31
0.000000004715112
  0
LINE
  5
633
330
1F
100
AcDbEntity
  8
风量风速
 62
     1
 48
1.000000000000000E+16
100
AcDbLine
 10
-4741.529928406428
 20
-2076.005278980924
 30
0.000000004715112
 11
-4739.692387465726
 21
-2078.55639576157
 31
0.000000004715112
  0
LINE
  5
634
330
1F
100
AcDbEntity
  8
风量风速
 62
     1
 48
1.000000000000000E+16
100
AcDbLine
 10
-4739.692387465726
 20
-2078.55639576157
 30
0.000000004715112
 11
-4741.529928406428
 21
-2081.106665979439
 31
0.000000004715112
  0
LINE
  5
635
330
1F
100
AcDbEntity
  8
风量风速
 62
     1
 48
1.000000000000000E+16
100
AcDbLine
 10
-4741.529928406428
 20
-2081.106665979439
 30
0.000000004715112
 11
-4731.197394822808
 21
-2078.555972479004
 31
0.000000004715112
  0
MTEXT
  5
636
330
1F
100
AcDbEntity
  8
风量风速
 62
     1
 48
1.000000000000000E+16
100
AcDbMText
 10
-4760.899702749699
 20
-2082.088334574993
 30
0.000000004715112
 40
11.39999999999999
 41
0.0
 46
0.0
 71
     1
 72
     5
  1
S
  7
HZ
 11
0.0
 21
1.0
 31
0.0
 73
     1
 44
1.0
1001
ACAD
1000
MTEXTBEGIN
1070
    73
1070
     1
1070
    44
1040
1.0
1070
    74
1070
     0
1000
MTEXTEND
  0
HATCH
  5
637
330
1F
100
AcDbEntity
  8
风量风速
 62
     1
 48
1.000000000000000E+16
100
AcDbHatch
 10
0.0
 20
0.0
 30
0.000000004715112
210
0.0
220
0.0
230
1.0
  2
SOLID
 70
     1
 71
     0
 91
        2
 92
      137
 93
        4
 72
     1
 10
-4725.1303249914
 20
-2072.432577193467
 11
-4743.129997467671
 21
-2072.323991988767
 72
     1
 10
-4743.129997467646
 20
-2072.323991988754
 11
-4743.207442781243
 21
-2085.161747218569
 72
     1
 10
-4743.207442781272
 20
-2085.161747218572
 11
-4725.207770304982
 21
-2085.270332423287
 72
     1
 10
-4725.207770304982
 20
-2085.270332423275
 11
-4725.130324991417
 21
-2072.432577193467
 97
        0
 92
       22
 72
     0
 73
     1
 93
        3
 10
-4731.197394822808
 20
-2078.555972481357
 10
-4741.529928406428
 20
-2076.005278980924
 10
-4739.692403608223
 20
-2078.556373350421
 97
        0
 75
     0
 76
     1
 47
0.0
 98
        1
 10
-4738.244364423236
 20
-2077.273211228589
1001
ACAD
1010
0.0
1020
0.0
1030
0.0
  0
HATCH
  5
638
330
1F
100
AcDbEntity
  8
风量风速
 62
     1
 48
1.000000000000000E+16
100
AcDbHatch
 10
0.0
 20
0.0
 30
0.000000004715112
210
0.0
220
0.0
230
1.0
  2
SOLID
 70
     1
 71
     0
 91
        2
 92
      137
 93
        4
 72
     1
 10
-4725.1303249914
 20
-2072.432577193467
 11
-4743.129997467671
 21
-2072.323991988767
 72
     1
 10
-4743.129997467646
 20
-2072.323991988754
 11
-4743.207442781243
 21
-2085.161747218569
 72
     1
 10
-4743.207442781272
 20
-2085.161747218572
 11
-4725.207770304982
 21
-2085.270332423287
 72
     1
 10
-4725.207770304982
 20
-2085.270332423275
 11
-4725.130324991417
 21
-2072.432577193467
 97
        0
 92
       22
 72
     0
 73
     1
 93
        3
 10
-4739.693333765045
 20
-2078.557709103174
 10
-4741.529928406428
 20
-2081.106665979439
 10
-4731.202715893592
 20
-2078.557286040737
 97
        0
 75
     0
 76
     1
 47
0.0
 98
        1
 10
-4736.491092213788
 20
-2079.436339279153
1001
ACAD
1010
0.0
1020
0.0
1030
0.0
  0
LINE
  5
639
330
1F
100
AcDbEntity
  8
风量风速
 62
     3
 48
1.000000000000000E+16
100
AcDbLine
 10
-4747.569834729944
 20
-2105.964758873041
 30
0.000000004715112
 11
-4747.570212360511
 21
-2090.688521202392
 31
0.000000004715112
  0
HATCH
  5
63A
330
1F
100
AcDbEntity
  8
风量风速
 62
     3
 48
1.000000000000000E+16
100
AcDbHatch
 10
0.0
 20
0.0
 30
0.000000004715112
210
0.0
220
0.0
230
1.0
  2
SOLID
 70
     1
 71
     0
 91
        2
 92
      137
 93
        4
 72
     1
 10
-4753.694864363725
 20
-2033.783718806903
 11
-4753.80344956843
 21
-2051.783391283167
 72
     1
 10
-4753.803449568408
 20
-2051.783391283146
 11
-4740.965694338589
 21
-2051.860836596756
 72
     1
 10
-4740.965694338596
 20
-2051.860836596756
 11
-4740.8571091339
 21
-2033.861164120474
 72
     1
 10
-4740.857109133928
 20
-2033.861164120474
 11
-4753.694864363735
 21
-2033.783718806903
 97
        0
 92
       22
 72
     0
 73
     1
 93
        3
 10
-4747.571469075853
 20
-2039.850788638291
 10
-4750.122162576252
 20
-2050.183322221925
 10
-4747.571068206762
 20
-2048.345797423724
 97
        0
 75
     0
 76
     1
 47
0.0
 98
        1
 10
-4748.854230328605
 20
-2046.897758238735
1001
ACAD
1010
0.0
1020
0.0
1030
0.0
  0
LINE
  5
63B
330
1F
100
AcDbEntity
  8
风量风速
 62
     3
 48
1.000000000000000E+16
100
AcDbLine
 10
-4747.571469075853
 20
-2039.850788638291
 30
0.000000004715112
 11
-4750.122162576252
 21
-2050.183322221925
 31
0.000000004715112
  0
LINE
  5
63C
330
1F
100
AcDbEntity
  8
风量风速
 62
     3
 48
1.000000000000000E+16
100
AcDbLine
 10
-4745.020775577748
 20
-2050.183322221925
 30
0.000000004715112
 11
-4747.571469078186
 21
-2039.850788638291
 31
0.000000004715112
  0
HATCH
  5
63D
330
1F
100
AcDbEntity
  8
风量风速
 62
     3
 48
1.000000000000000E+16
100
AcDbHatch
 10
0.0
 20
0.0
 30
0.000000004715112
210
0.0
220
0.0
230
1.0
  2
SOLID
 70
     1
 71
     0
 91
        2
 92
      137
 93
        4
 72
     1
 10
-4753.694864363725
 20
-2033.783718806903
 11
-4753.80344956843
 21
-2051.783391283167
 72
     1
 10
-4753.803449568408
 20
-2051.783391283146
 11
-4740.965694338589
 21
-2051.860836596756
 72
     1
 10
-4740.965694338596
 20
-2051.860836596756
 11
-4740.8571091339
 21
-2033.861164120474
 72
     1
 10
-4740.857109133928
 20
-2033.861164120474
 11
-4753.694864363735
 21
-2033.783718806903
 97
        0
 92
       22
 72
     0
 73
     1
 93
        3
 10
-4747.569732454011
 20
-2048.346727580542
 10
-4745.020775577748
 20
-2050.183322221925
 10
-4747.570155516469
 20
-2039.856109709072
 97
        0
 75
     0
 76
     1
 47
0.0
 98
        1
 10
-4746.691102278029
 20
-2045.144486029316
1001
ACAD
1010
0.0
1020
0.0
1030
0.0
  0
LINE
  5
63E
330
1F
100
AcDbEntity
  8
风量风速
 62
     3
 48
1.000000000000000E+16
100
AcDbLine
 10
-4747.570813187212
 20
-2066.383361639022
 30
0.000000004715112
 11
-4747.571469075853
 21
-2039.850788638291
 31
0.000000004715112
  0
LWPOLYLINE
  5
63F
330
1F
100
AcDbEntity
  8
风量风速
 48
1.000000000000000E+16
100
AcDbPolyline
 90
        4
 70
     1
 43
0.0
 10
-4826.869460609876
 20
-2030.675675907605
 10
-4671.96226904377
 20
-2030.675675907605
 10
-4671.96226904377
 20
-2111.147342381853
 10
-4826.869460609876
 20
-2111.147342381853
  0
TEXT
  5
640
330
1F
100
AcDbEntity
  8
风量风速
370
     0
100
AcDbText
 10
-4780.01286635057
 20
-2149.929457603637
 30
0.0
 40
20.0
  1
风桥
 50
359.9999997865572
  7
样式 3
100
AcDbText
1001
ZWMCAD_GENSCA_13_
1070
     1
1040
1.0
1001
ZWMCAD_GENSTANDARDFRAME_13_
1070
   410
1000
GB
1070
   411
1000
ZwmFrameMain_
  0
LWPOLYLINE
  5
641
330
1F
100
AcDbEntity
  8
风量风速
 48
1.000000000000000E+16
100
AcDbPolyline
 90
        4
 70
     1
 43
0.0
 10
-4826.869460609876
 20
-2180.675675907616
 10
-4671.96226904377
 20
-2180.675675907616
 10
-4671.96226904377
 20
-2261.147342381853
 10
-4826.869460609876
 20
-2261.147342381853
  0
LINE
  5
642
330
1F
100
AcDbEntity
  8
风量风速
 62
     4
370
    -3
100
AcDbLine
 10
-4721.045307560252
 20
-2222.991832423421
 30
0.0
 11
-4721.045307560252
 21
-2216.987828924724
 31
0.0
  0
LINE
  5
643
330
1F
100
AcDbEntity
  8
风量风速
 62
     4
370
    -3
100
AcDbLine
 10
-4721.045307560252
 20
-2222.991832423421
 30
0.0
 11
-4721.045307560252
 21
-2216.987828924724
 31
0.0
  0
LINE
  5
644
330
1F
100
AcDbEntity
  8
风量风速
 62
     4
370
    -3
100
AcDbLine
 10
-4752.345391061044
 20
-2219.989830674073
 30
0.0
 11
-4721.045307560252
 21
-2219.989830674073
 31
0.0
  0
LINE
  5
645
330
1F
100
AcDbEntity
  8
风量风速
 62
     4
370
    -3
100
AcDbLine
 10
-4752.345391061044
 20
-2219.989830674073
 30
0.0
 11
-4721.045307560252
 21
-2219.989830674073
 31
0.0
  0
LINE
  5
646
330
1F
100
AcDbEntity
  8
风量风速
 62
     4
370
    -3
100
AcDbLine
 10
-4752.345391061044
 20
-2222.991832423421
 30
0.0
 11
-4752.345391061044
 21
-2216.987828924724
 31
0.0
  0
LINE
  5
647
330
1F
100
AcDbEntity
  8
风量风速
 62
     4
370
    -3
100
AcDbLine
 10
-4752.345391061044
 20
-2222.991832423421
 30
0.0
 11
-4752.345391061044
 21
-2216.987828924724
 31
0.0
  0
LINE
  5
648
330
1F
100
AcDbEntity
  8
风量风速
 62
     4
370
    -3
100
AcDbLine
 10
-4757.524107237058
 20
-2222.961249052904
 30
0.0
 11
-4757.524107237058
 21
-2216.957245554204
 31
0.0
  0
LINE
  5
649
330
1F
100
AcDbEntity
  8
风量风速
 62
     4
370
    -3
100
AcDbLine
 10
-4757.524107237058
 20
-2222.961249052904
 30
0.0
 11
-4757.524107237058
 21
-2216.957245554204
 31
0.0
  0
LINE
  5
64A
330
1F
100
AcDbEntity
  8
风量风速
 62
     4
370
    -3
100
AcDbLine
 10
-4788.824190737865
 20
-2219.959247303556
 30
0.0
 11
-4757.524107237058
 21
-2219.959247303556
 31
0.0
  0
LINE
  5
64B
330
1F
100
AcDbEntity
  8
风量风速
 62
     4
370
    -3
100
AcDbLine
 10
-4788.824190737865
 20
-2219.959247303556
 30
0.0
 11
-4757.524107237058
 21
-2219.959247303556
 31
0.0
  0
LINE
  5
64C
330
1F
100
AcDbEntity
  8
风量风速
 62
     4
370
    -3
100
AcDbLine
 10
-4788.824190737865
 20
-2222.961249052904
 30
0.0
 11
-4788.824190737865
 21
-2216.957245554204
 31
0.0
  0
LINE
  5
64D
330
1F
100
AcDbEntity
  8
风量风速
 62
     4
370
    -3
100
AcDbLine
 10
-4788.824190737865
 20
-2222.961249052904
 30
0.0
 11
-4788.824190737865
 21
-2216.957245554204
 31
0.0
  0
LINE
  5
64E
330
1F
100
AcDbEntity
  8
风量风速
 62
     4
370
    -3
100
AcDbLine
 10
-4712.767004993987
 20
-2229.885935611925
 30
-0.0000000022890695
 11
-4792.473259745
 21
-2229.990600819195
 31
-0.0000000023167346
  0
LINE
  5
64F
330
1F
100
AcDbEntity
  8
风量风速
 62
     4
370
    -3
100
AcDbLine
 10
-4712.767004993987
 20
-2211.88595943527
 30
0.0
 11
-4792.473259745
 21
-2211.990624681607
 31
0.0
  0
TEXT
  5
650
330
1F
100
AcDbEntity
  8
风量风速
370
     0
100
AcDbText
 10
-4780.01286635057
 20
-2299.929457603637
 30
0.0
 40
20.0
  1
风筒
 50
359.9999997865572
  7
样式 3
100
AcDbText
1001
ZWMCAD_GENSCA_13_
1070
     1
1040
1.0
1001
ZWMCAD_GENSTANDARDFRAME_13_
1070
   410
1000
GB
1070
   411
1000
ZwmFrameMain_
  0
LINE
  5
651
330
1F
100
AcDbEntity
  8
风量风速
 62
     1
370
     0
100
AcDbLine
 10
-4791.097087893215
 20
-2369.349688293908
 30
0.0
 11
-4706.211859177225
 21
-2369.230650780516
 31
0.0
1001
AcDbBlockRepETag
1070
     1
1071
        1
1005
651
  0
LINE
  5
652
330
1F
100
AcDbEntity
  8
风量风速
 62
     1
370
     0
100
AcDbLine
 10
-4706.211859177225
 20
-2369.230650782389
 30
0.0
 11
-4723.475119302796
 21
-2373.306335291895
 31
0.0
1001
AcDbBlockRepETag
1070
     1
1071
        2
1005
652
  0
LINE
  5
653
330
1F
100
AcDbEntity
  8
风量风速
 62
     1
370
    35
100
AcDbLine
 10
-4706.211859177197
 20
-2369.230650778467
 30
0.0
 11
-4723.388594145438
 21
-2364.804463907766
 31
0.0
1001
AcDbBlockRepETag
1070
     1
1071
        4
1005
653
  0
LINE
  5
654
330
1F
100
AcDbEntity
  8
风量风速
  6
DASH
 62
     1
 48
1.000000000000000E+16
100
AcDbLine
 10
-4723.388594145438
 20
-2364.804463907766
 30
0.0
 11
-4720.254497972613
 21
-2369.250343262105
 31
0.0
1001
AcDbBlockRepETag
1070
     1
1071
        6
1005
0
  0
LINE
  5
655
330
1F
100
AcDbEntity
  8
风量风速
  6
DASH
 62
     1
 48
1.000000000000000E+16
100
AcDbLine
 10
-4720.254497972613
 20
-2369.250343262105
 30
0.0
 11
-4723.475119302802
 21
-2373.306335291883
 31
0.0
1001
AcDbBlockRepETag
1070
     1
1071
        7
1005
0
  0
HATCH
  5
656
330
1F
100
AcDbEntity
  8
风量风速
  6
DASH
 62
     1
 48
1.000000000000000E+16
100
AcDbHatch
 10
0.0
 20
0.0
 30
0.0
210
0.0
220
0.0
230
1.0
  2
SOLID
 70
     1
 71
     0
 91
        2
 92
        7
 72
     0
 73
     1
 93
        3
 10
-4723.388594145438
 20
-2364.804463907766
 10
-4706.211859177225
 20
-2369.230650780516
 10
-4720.254497972613
 20
-2369.250343262105
 97
        0
 92
        7
 72
     0
 73
     1
 93
        3
 10
-4720.254497972613
 20
-2369.250343262105
 10
-4723.475119302796
 20
-2373.306335291895
 10
-4706.211859177225
 20
-2369.230650780516
 97
        0
 75
     0
 76
     1
 47
0.0386104166187426
 98
        2
 10
-4716.392266479448
 20
-2368.999783394851
 10
-4717.32318618838
 20
-2369.415357792343
450
        0
451
        0
460
0.0
461
0.0
452
        1
462
1.0
453
        2
463
0.0
 63
     5
421
      255
463
1.0
 63
     7
421
 16777215
470
LINEAR
1001
ACAD
1010
0.0
1020
0.0
1030
0.0
1001
AcDbBlockRepETag
1070
     1
1071
        8
1005
0
  0
TEXT
  5
657
330
1F
100
AcDbEntity
  8
风量风速
 62
     1
 48
1.000000000000000E+16
100
AcDbText
 10
-4762.882815602529
 20
-2362.316237406166
 30
0.0
 40
20.0
  1
S
 50
270.0
  7
HZ
100
AcDbText
  0
LWPOLYLINE
  5
658
330
1F
100
AcDbEntity
  8
风量风速
 48
1.000000000000000E+16
100
AcDbPolyline
 90
        4
 70
     1
 43
0.0
 10
-4826.869460609876
 20
-2330.675675907617
 10
-4671.96226904377
 20
-2330.675675907617
 10
-4671.96226904377
 20
-2411.147342381847
 10
-4826.869460609876
 20
-2411.147342381847
  0
TEXT
  5
659
330
1F
100
AcDbEntity
  8
风量风速
370
     0
100
AcDbText
 10
-4806.021982869369
 20
-2449.929457603642
 30
0.0
 40
20.0
  1
回风风流
 50
359.9999997865572
  7
样式 3
100
AcDbText
1001
ZWMCAD_GENSCA_13_
1070
     1
1040
1.0
1001
ZWMCAD_GENSTANDARDFRAME_13_
1070
   410
1000
GB
1070
   411
1000
ZwmFrameMain_
  0
LWPOLYLINE
  5
65A
330
1F
100
AcDbEntity
  8
风量风速
 48
1.000000000000000E+16
100
AcDbPolyline
 90
        4
 70
     1
 43
0.0
 10
-4626.86946060987
 20
-2030.675675907605
 10
-4471.962269043779
 20
-2030.675675907605
 10
-4471.962269043779
 20
-2111.147342381853
 10
-4626.86946060987
 20
-2111.147342381853
  0
HATCH
  5
65B
330
1F
100
AcDbEntity
  8
风量风速
 62
    30
420
 16744192
370
    -3
100
AcDbHatch
 10
0.0
 20
0.0
 30
0.0
210
0.0
220
0.0
230
1.0
  2
SOLID
 70
     1
 71
     0
 91
        2
 92
        7
 72
     1
 73
     1
 93
        4
 10
-4542.9500164381
 20
-2062.793427226193
 42
0.5657727783232383
 10
-4557.036662510673
 20
-2069.08692937817
 42
0.1989123673740825
 10
-4555.187356754297
 20
-2075.722157565019
 42
0.0
 10
-4548.102580680594
 20
-2070.172233813504
 42
0.0
 97
        0
 92
        7
 72
     1
 73
     1
 93
        3
 10
-4541.017804718651
 20
-2064.622310006122
 42
0.0743128366356524
 10
-4542.9500164381
 20
-2062.793427226193
 42
0.0
 10
-4548.102580680594
 20
-2070.172233813504
 42
0.0
 97
        0
 75
     0
 76
     1
 47
0.0202471229033101
 98
        2
 10
-4553.086030460039
 20
-2069.06661859627
 10
-4543.5036848626
 20
-2065.824773230653
  0
LWPOLYLINE
  5
65C
330
1F
100
AcDbEntity
  8
风量风速
 62
    30
420
 16744192
370
    -3
100
AcDbPolyline
 90
        2
 70
     0
 43
0.0
 10
-4544.560192755493
 20
-2067.397271853934
 10
-4551.644968739785
 20
-2072.94719565014
  0
CIRCLE
  5
65D
330
1F
100
AcDbEntity
  8
风量风速
 62
    30
420
 16744192
370
    50
100
AcDbCircle
 10
-4548.102580680594
 20
-2070.172233813504
 30
0.0
 40
8.999761326329609
  0
CIRCLE
  5
65E
330
1F
100
AcDbEntity
  8
风量风速
 62
    30
420
 16744192
370
    50
100
AcDbCircle
 10
-4548.102580680594
 20
-2070.172233813504
 30
0.0
 40
31.10738621191905
  0
ARC
  5
65F
330
1F
100
AcDbEntity
  8
风量风速
 62
    30
420
 16744192
370
    50
100
AcDbCircle
 10
-4548.102580747651
 20
-2070.172233752041
 30
0.0
 40
15.0
100
AcDbArc
 50
280.1142061092022
 51
279.6037761179878
  0
TEXT
  5
660
330
1F
100
AcDbEntity
  8
风量风速
370
     0
100
AcDbText
 10
-4606.02198286937
 20
-2149.929457603637
 30
0.0
 40
20.0
  1
回风立井
 50
359.9999997865572
  7
样式 3
100
AcDbText
1001
ZWMCAD_GENSCA_13_
1070
     1
1040
1.0
1001
ZWMCAD_GENSTANDARDFRAME_13_
1070
   410
1000
GB
1070
   411
1000
ZwmFrameMain_
  0
LINE
  5
661
102
{ACAD_REACTORS
330
666
102
}
330
1F
100
AcDbEntity
  8
风量风速
 62
     3
 48
2.0
370
     0
100
AcDbLine
 10
-4595.956167558766
 20
-2221.071758984287
 30
0.0
 11
-4496.053867451252
 21
-2221.070524546188
 31
0.0
1001
AcDbBlockRepETag
1070
     1
1071
        1
1005
661
  0
LINE
  5
662
102
{ACAD_REACTORS
330
666
102
}
330
1F
100
AcDbEntity
  8
风量风速
 62
     3
 48
2.0
370
     0
100
AcDbLine
 10
-4595.956167543849
 20
-2221.070524546188
 30
0.0
 11
-4572.969438176635
 21
-2215.506811535342
 31
0.0
1001
AcDbBlockRepETag
1070
     1
1071
        2
1005
662
  0
LINE
  5
663
102
{ACAD_REACTORS
330
666
102
}
330
1F
100
AcDbEntity
  8
风量风速
 62
     3
 48
2.0
370
     0
100
AcDbLine
 10
-4595.956167543849
 20
-2221.070524546188
 30
0.0
 11
-4572.969438176635
 21
-2226.634237557016
 31
0.0
1001
AcDbBlockRepETag
1070
     1
1071
        4
1005
663
  0
LINE
  5
664
102
{ACAD_REACTORS
330
666
102
}
330
1F
100
AcDbEntity
  8
风量风速
  6
DASH
 62
     3
 48
1.000000000000000E+16
100
AcDbLine
 10
-4572.969438176635
 20
-2215.506811535342
 30
0.0
 11
-4577.331753155379
 21
-2221.071528852586
 31
0.0
1001
AcDbBlockRepETag
1070
     1
1071
        5
1005
664
  0
LINE
  5
665
102
{ACAD_REACTORS
330
666
102
}
330
1F
100
AcDbEntity
  8
风量风速
  6
DASH
 62
     3
 48
1.000000000000000E+16
100
AcDbLine
 10
-4577.331753155379
 20
-2221.071528852586
 30
0.0
 11
-4572.969438176635
 21
-2226.634237557016
 31
0.0
1001
AcDbBlockRepETag
1070
     1
1071
        6
1005
665
  0
HATCH
  5
666
330
1F
100
AcDbEntity
  8
风量风速
  6
DASH
 62
     3
 48
1.000000000000000E+16
100
AcDbHatch
 10
0.0
 20
0.0
 30
0.0
210
0.0
220
0.0
230
1.0
  2
SOLID
 70
     1
 71
     1
 91
        2
 92
        7
 72
     0
 73
     1
 93
        4
 10
-4577.331753155376
 20
-2221.071528852581
 10
-4572.969438176635
 20
-2215.506811535342
 10
-4595.956167543849
 20
-2221.070524546188
 10
-4595.951067667939
 20
-2221.07175892127
 97
        4
330
664
330
662
330
663
330
661
 92
        7
 72
     0
 73
     1
 93
        3
 10
-4572.969438176635
 20
-2226.634237557016
 10
-4577.331753155383
 20
-2221.071528852581
 10
-4595.951067667939
 20
-2221.07175892127
 97
        3
330
665
330
661
330
663
 75
     0
 76
     1
 47
0.0524821823897721
 98
        2
 10
-55103.44419748167
 20
10579.81752022173
 10
-55103.07653162372
 20
10577.56079626959
450
        0
451
        0
460
0.0
461
0.0
452
        1
462
1.0
453
        2
463
0.0
 63
     5
421
      255
463
1.0
 63
     7
421
 16777215
470
LINEAR
1001
ACAD
1010
0.0
1020
0.0
1030
0.0
1001
AcDbBlockRepETag
1070
     1
1071
        7
1005
666
  0
LWPOLYLINE
  5
667
330
1F
100
AcDbEntity
  8
风量风速
 48
1.000000000000000E+16
100
AcDbPolyline
 90
        4
 70
     1
 43
0.0
 10
-4626.86946060987
 20
-2180.675675907616
 10
-4471.962269043779
 20
-2180.675675907616
 10
-4471.962269043779
 20
-2261.147342381853
 10
-4626.86946060987
 20
-2261.147342381853
  0
TEXT
  5
668
330
1F
100
AcDbEntity
  8
风量风速
370
     0
100
AcDbText
 10
-4606.02198286937
 20
-2299.929457603637
 30
0.0
 40
20.0
  1
进风风流
 50
359.9999997865572
  7
样式 3
100
AcDbText
1001
ZWMCAD_GENSCA_13_
1070
     1
1040
1.0
1001
ZWMCAD_GENSTANDARDFRAME_13_
1070
   410
1000
GB
1070
   411
1000
ZwmFrameMain_
  0
TEXT
  5
669
330
1F
100
AcDbEntity
  8
风量风速
370
     0
100
AcDbText
 10
-4603.334073549924
 20
-2449.929457603642
 30
0.0
 40
20.0
  1
局部风机
 50
359.9999997865572
  7
样式 3
100
AcDbText
1001
ZWMCAD_GENSCA_13_
1070
     1
1040
1.0
1001
ZWMCAD_GENSTANDARDFRAME_13_
1070
   410
1000
GB
1070
   411
1000
ZwmFrameMain_
  0
LWPOLYLINE
  5
66A
330
1F
100
AcDbEntity
  8
风量风速
 48
1.000000000000000E+16
100
AcDbPolyline
 90
        4
 70
     1
 43
0.0
 10
-4626.86946060987
 20
-2330.675675907617
 10
-4471.962269043779
 20
-2330.675675907617
 10
-4471.962269043779
 20
-2411.147342381847
 10
-4626.86946060987
 20
-2411.147342381847
  0
LWPOLYLINE
  5
66B
330
1F
100
AcDbEntity
  8
风量风速
 48
1.000000000000000E+16
100
AcDbPolyline
 90
        4
 70
     1
 43
0.0
 10
-4426.869460609876
 20
-2030.675675907605
 10
-4271.962269043779
 20
-2030.675675907605
 10
-4271.962269043779
 20
-2111.147342381853
 10
-4426.869460609876
 20
-2111.147342381853
  0
LINE
  5
66C
330
1F
100
AcDbEntity
  8
风量风速
  6
ByBlock
 62
    30
370
    50
100
AcDbLine
 10
-4338.769184135792
 20
-2043.02326468179
 30
0.0
 11
-4289.208002486234
 21
-2043.023264681808
 31
0.0
  0
LINE
  5
66D
330
1F
100
AcDbEntity
  8
风量风速
  6
ByBlock
 62
    30
370
    50
100
AcDbLine
 10
-4414.290987380761
 20
-2088.992131486426
 30
0.0
 11
-4380.66017959359
 21
-2088.992131486426
 31
0.0
  0
LINE
  5
66E
330
1F
100
AcDbEntity
  8
风量风速
  6
ByBlock
 62
    30
370
    50
100
AcDbLine
 10
-4289.208002486234
 20
-2043.023264681808
 30
0.0
 11
-4318.118687131419
 21
-2071.901127843077
 31
0.0
  0
LINE
  5
66F
330
1F
100
AcDbEntity
  8
风量风速
  6
ByBlock
 62
    30
370
    50
100
AcDbLine
 10
-4342.899277948741
 20
-2066.007698085054
 30
0.0
 11
-4338.769184135792
 21
-2043.02326468179
 31
0.0
  0
ARC
  5
670
330
1F
100
AcDbEntity
  8
风量风速
  6
ByBlock
 62
    30
370
    50
100
AcDbCircle
 10
-4381.250181087274
 20
-2017.332434037592
 30
0.0
 40
83.44655696549727
100
AcDbArc
 50
270.0
 51
319.1609914701563
  0
ARC
  5
671
330
1F
100
AcDbEntity
  8
风量风速
  6
ByBlock
 62
    30
370
    50
100
AcDbCircle
 10
-4380.66017959359
 20
-2046.481406161456
 30
0.0
 40
42.51072532369508
100
AcDbArc
 50
270.0
 51
332.6563597521106
  0
LINE
  5
672
330
1F
100
AcDbEntity
  8
风量风速
  6
ByBlock
 62
    30
370
    50
100
AcDbLine
 10
-4381.250181087274
 20
-2100.778991002484
 30
0.0
 11
-4414.610148169351
 21
-2100.778991002484
 31
0.0
  0
TEXT
  5
673
330
1F
100
AcDbEntity
  8
风量风速
370
     0
100
AcDbText
 10
-4396.609699341485
 20
-2149.929457603637
 30
0.0
 40
20.0
  1
扩散器
 50
359.9999997865572
  7
样式 3
100
AcDbText
1001
ZWMCAD_GENSCA_13_
1070
     1
1040
1.0
1001
ZWMCAD_GENSTANDARDFRAME_13_
1070
   410
1000
GB
1070
   411
1000
ZwmFrameMain_
  0
LWPOLYLINE
  5
674
330
1F
100
AcDbEntity
  8
风量风速
 48
1.000000000000000E+16
100
AcDbPolyline
 90
        4
 70
     1
 43
0.0
 10
-4426.869460609876
 20
-2180.675675907616
 10
-4271.962269043779
 20
-2180.675675907616
 10
-4271.962269043779
 20
-2261.147342381853
 10
-4426.869460609876
 20
-2261.147342381853
  0
TEXT
  5
675
330
1F
100
AcDbEntity
  8
风量风速
370
     0
100
AcDbText
 10
-4434.511598463574
 20
-2299.929457603637
 30
0.0
 40
20.0
  1
临时单向风门
 50
359.9999997865572
  7
样式 3
100
AcDbText
1001
ZWMCAD_GENSCA_13_
1070
     1
1040
1.0
1001
ZWMCAD_GENSTANDARDFRAME_13_
1070
   410
1000
GB
1070
   411
1000
ZwmFrameMain_
  0
LWPOLYLINE
  5
676
330
1F
100
AcDbEntity
  8
风量风速
 48
1.000000000000000E+16
100
AcDbPolyline
 90
        4
 70
     1
 43
0.0
 10
-4426.869460609876
 20
-2330.675675907617
 10
-4271.962269043779
 20
-2330.675675907617
 10
-4271.962269043779
 20
-2411.147342381847
 10
-4426.869460609876
 20
-2411.147342381847
  0
TEXT
  5
677
330
1F
100
AcDbEntity
  8
风量风速
370
     0
100
AcDbText
 10
-4406.021982869371
 20
-2449.929457603642
 30
0.0
 40
20.0
  1
临时密闭
 50
359.9999997865572
  7
样式 3
100
AcDbText
1001
ZWMCAD_GENSCA_13_
1070
     1
1040
1.0
1001
ZWMCAD_GENSTANDARDFRAME_13_
1070
   410
1000
GB
1070
   411
1000
ZwmFrameMain_
  0
LWPOLYLINE
  5
678
330
1F
100
AcDbEntity
  8
风量风速
 48
1.000000000000000E+16
100
AcDbPolyline
 90
        4
 70
     1
 43
0.0
 10
-4226.86946060987
 20
-2030.675675907605
 10
-4071.962269043778
 20
-2030.675675907605
 10
-4071.962269043778
 20
-2111.147342381853
 10
-4226.86946060987
 20
-2111.147342381853
  0
ARC
  5
679
330
1F
100
AcDbEntity
  8
风量风速
 62
     4
 48
1.000000000000000E+16
100
AcDbCircle
 10
-4144.022230561048
 20
-2071.078537916871
 30
0.0
 40
19.92082388687595
100
AcDbArc
 50
270.0
 51
90.0
  0
LINE
  5
67A
330
1F
100
AcDbEntity
  8
风量风速
 62
     4
 48
1.000000000000000E+16
100
AcDbLine
 10
-4144.022230561048
 20
-2090.999361803727
 30
0.0
 11
-4144.022230561048
 21
-2110.892574480156
 31
0.0
  0
LINE
  5
67B
330
1F
100
AcDbEntity
  8
风量风速
 62
     4
 48
1.000000000000000E+16
100
AcDbLine
 10
-4144.022230561048
 20
-2031.264501353556
 30
0.0
 11
-4144.022230561048
 21
-2051.157714029986
 31
0.0
  0
TEXT
  5
67C
330
1F
100
AcDbEntity
  8
风量风速
370
     0
100
AcDbText
 10
-4233.572380367072
 20
-2149.929457603637
 30
0.0
 40
20.0
  1
临时调节风门
 50
359.9999997865572
  7
样式 3
100
AcDbText
1001
ZWMCAD_GENSCA_13_
1070
     1
1040
1.0
1001
ZWMCAD_GENSTANDARDFRAME_13_
1070
   410
1000
GB
1070
   411
1000
ZwmFrameMain_
  0
LINE
  5
67D
330
1F
100
AcDbEntity
  8
风量风速
  6
井田边界
 62
     4
 48
100.0
370
    -3
100
AcDbLine
 10
-4188.007085124551
 20
-2212.014682014459
 30
0.0
 11
-4104.970529595909
 21
-2211.637931131736
 31
0.0
  0
LWPOLYLINE
  5
67E
330
1F
100
AcDbEntity
  8
风量风速
  6
井田边界
 62
     4
 48
100.0
370
    -3
100
AcDbPolyline
 90
        4
 70
     0
 43
0.0
 10
-4122.357112387729
 20
-2211.705376331673
 10
-4134.048889810731
 20
-2229.644958042525
 10
-4158.652977863847
 20
-2229.73344973194
 10
-4170.443624461596
 20
-2211.923552789707
  0
LWPOLYLINE
  5
67F
330
1F
100
AcDbEntity
  8
风量风速
  6
井田边界
 62
     4
 48
100.0
370
    -3
100
AcDbPolyline
 90
        4
 70
     0
 43
0.0
 10
-4182.397060918218
 20
-2211.983063933422
 10
-4164.012729744022
 20
-2239.752791424267
 10
-4128.617205897866
 20
-2239.625486985766
 10
-4110.385410184561
 20
-2211.651058738105
  0
LINE
  5
680
330
1F
100
AcDbEntity
  8
风量风速
  6
井田边界
 62
     4
 48
100.0
370
    -3
100
AcDbLine
 10
-4188.007085147871
 20
-2212.014682014459
 30
0.0
 11
-4104.970529619237
 21
-2211.637931131736
 31
0.0
  0
LWPOLYLINE
  5
681
330
1F
100
AcDbEntity
  8
风量风速
  6
井田边界
 62
     4
 48
100.0
370
    -3
100
AcDbPolyline
 90
        4
 70
     0
 43
0.0
 10
-4122.357112411047
 20
-2211.705376331673
 10
-4134.048889834073
 20
-2229.644958042525
 10
-4158.65297788718
 20
-2229.73344973194
 10
-4170.443624484918
 20
-2211.923552789707
  0
LWPOLYLINE
  5
682
330
1F
100
AcDbEntity
  8
风量风速
  6
井田边界
 62
     4
 48
100.0
370
    -3
100
AcDbPolyline
 90
        4
 70
     0
 43
0.0
 10
-4182.397060941545
 20
-2211.983063933422
 10
-4164.012729767342
 20
-2239.752791424267
 10
-4128.617205921201
 20
-2239.625486985766
 10
-4110.385410207895
 20
-2211.651058738105
  0
LWPOLYLINE
  5
683
330
1F
100
AcDbEntity
  8
风量风速
 48
1.000000000000000E+16
100
AcDbPolyline
 90
        4
 70
     1
 43
0.0
 10
-4226.86946060987
 20
-2180.675675907616
 10
-4071.962269043778
 20
-2180.675675907616
 10
-4071.962269043778
 20
-2261.147342381853
 10
-4226.86946060987
 20
-2261.147342381853
  0
TEXT
  5
684
330
1F
100
AcDbEntity
  8
风量风速
370
     0
100
AcDbText
 10
-4180.012866350571
 20
-2299.929457603637
 30
0.0
 40
20.0
  1
水仓
 50
359.9999997865572
  7
样式 3
100
AcDbText
1001
ZWMCAD_GENSCA_13_
1070
     1
1040
1.0
1001
ZWMCAD_GENSTANDARDFRAME_13_
1070
   410
1000
GB
1070
   411
1000
ZwmFrameMain_
  0
LWPOLYLINE
  5
685
330
1F
100
AcDbEntity
  8
风量风速
 48
1.000000000000000E+16
100
AcDbPolyline
 90
        4
 70
     1
 43
0.0
 10
-4226.86946060987
 20
-2330.675675907617
 10
-4071.962269043778
 20
-2330.675675907617
 10
-4071.962269043778
 20
-2411.147342381847
 10
-4226.86946060987
 20
-2411.147342381847
  0
TEXT
  5
686
330
1F
100
AcDbEntity
  8
风量风速
370
     0
100
AcDbText
 10
-4206.021982869372
 20
-2449.929457603642
 30
0.0
 40
20.0
  1
调节风窗
 50
359.9999997865572
  7
样式 3
100
AcDbText
1001
ZWMCAD_GENSCA_13_
1070
     1
1040
1.0
1001
ZWMCAD_GENSTANDARDFRAME_13_
1070
   410
1000
GB
1070
   411
1000
ZwmFrameMain_
  0
TEXT
  5
687
330
1F
100
AcDbEntity
  8
风量风速
370
     0
100
AcDbText
 10
-4003.334073549924
 20
-2149.929457603637
 30
0.0
 40
20.0
  1
网络节点
 50
359.9999997865572
  7
样式 3
100
AcDbText
1001
ZWMCAD_GENSCA_13_
1070
     1
1040
1.0
1001
ZWMCAD_GENSTANDARDFRAME_13_
1070
   410
1000
GB
1070
   411
1000
ZwmFrameMain_
  0
CIRCLE
  5
688
330
1F
100
AcDbEntity
  8
风量风速
 62
     6
370
    -3
100
AcDbCircle
 10
-3948.684100335462
 20
-2070.593087871694
 30
348.0
 40
34.32009048847645
  0
LWPOLYLINE
  5
689
330
1F
100
AcDbEntity
  8
风量风速
 48
1.000000000000000E+16
100
AcDbPolyline
 90
        4
 70
     1
 43
0.0
 10
-4026.869460609876
 20
-2030.675675907605
 10
-3871.96226904378
 20
-2030.675675907605
 10
-3871.96226904378
 20
-2111.147342381853
 10
-4026.869460609876
 20
-2111.147342381853
  0
LWPOLYLINE
  5
68A
330
1F
100
AcDbEntity
  8
风量风速
 48
1.000000000000000E+16
100
AcDbPolyline
 90
        4
 70
     1
 43
0.0
 10
-4026.869460609876
 20
-2180.675675907616
 10
-3871.96226904378
 20
-2180.675675907616
 10
-3871.96226904378
 20
-2261.147342381853
 10
-4026.869460609876
 20
-2261.147342381853
  0
TEXT
  5
68B
330
1F
100
AcDbEntity
  8
风量风速
370
     0
100
AcDbText
 10
-4022.674484495643
 20
-2299.929457603637
 30
0.0
 40
20.0
  1
消防材料库
 50
359.9999997865572
  7
样式 3
100
AcDbText
1001
ZWMCAD_GENSCA_13_
1070
     1
1040
1.0
1001
ZWMCAD_GENSTANDARDFRAME_13_
1070
   410
1000
GB
1070
   411
1000
ZwmFrameMain_
  0
ARC
  5
68C
330
1F
100
AcDbEntity
  8
风量风速
 62
     4
370
     0
100
AcDbCircle
 10
-3949.560010303252
 20
-2224.880424919044
 30
0.0
 40
16.53915435355398
100
AcDbArc
 50
21.85456256475562
 51
152.4459081594826
1001
AcDbBlockRepETag
1000

  0
LINE
  5
68D
330
1F
100
AcDbEntity
  8
风量风速
 62
     4
 48
1.000000000000000E+16
370
    -3
100
AcDbLine
 10
-3964.223202969941
 20
-2217.229646687366
 30
0.0
 11
-3964.875815168929
 21
-2236.567500225024
 31
0.0
  0
LINE
  5
68E
330
1F
100
AcDbEntity
  8
风量风速
 62
     4
 48
1.000000000000000E+16
370
    -3
100
AcDbLine
 10
-3964.647926585374
 20
-2229.814828333994
 30
0.0
 11
-3957.242056332598
 21
-2230.266572733727
 31
0.0
  0
LINE
  5
68F
330
1F
100
AcDbEntity
  8
风量风速
 62
     4
 48
1.000000000000000E+16
370
    -3
100
AcDbLine
 10
-3957.242056332598
 20
-2230.266572733727
 30
0.0
 11
-3957.57799479923
 21
-2237.011979296884
 31
0.0
  0
LINE
  5
690
330
1F
100
AcDbEntity
  8
风量风速
 62
     4
 48
1.000000000000000E+16
370
    -3
100
AcDbLine
 10
-3964.875815168929
 20
-2236.567500225024
 30
0.0
 11
-3934.8201806076
 21
-2237.726888160974
 31
0.0
  0
LINE
  5
691
330
1F
100
AcDbEntity
  8
风量风速
 62
     4
 48
1.000000000000000E+16
370
    -3
100
AcDbLine
 10
-3934.8201806076
 20
-2237.726888160974
 30
0.0
 11
-3934.209495968801
 21
-2218.723693935906
 31
0.0
  0
LWPOLYLINE
  5
692
330
1F
100
AcDbEntity
  8
风量风速
 48
1.000000000000000E+16
100
AcDbPolyline
 90
        4
 70
     1
 43
0.0
 10
-4026.869460609876
 20
-2330.675675907617
 10
-3871.96226904378
 20
-2330.675675907617
 10
-3871.96226904378
 20
-2411.147342381847
 10
-4026.869460609876
 20
-2411.147342381847
  0
TEXT
  5
693
330
1F
100
AcDbEntity
  8
风量风速
370
     0
100
AcDbText
 10
-3980.012866350571
 20
-2449.929457603642
 30
0.0
 40
20.0
  1
斜井
 50
359.9999997865572
  7
样式 3
100
AcDbText
1001
ZWMCAD_GENSCA_13_
1070
     1
1040
1.0
1001
ZWMCAD_GENSTANDARDFRAME_13_
1070
   410
1000
GB
1070
   411
1000
ZwmFrameMain_
  0
TEXT
  5
694
330
1F
100
AcDbEntity
  8
风量风速
370
     0
100
AcDbText
 10
-3782.194141575227
 20
-2149.929457603637
 30
0.0
 40
20.0
  1
岩巷
 50
359.9999997865572
  7
样式 3
100
AcDbText
1001
ZWMCAD_GENSCA_13_
1070
     1
1040
1.0
1001
ZWMCAD_GENSTANDARDFRAME_13_
1070
   410
1000
GB
1070
   411
1000
ZwmFrameMain_
  0
LINE
  5
695
330
1F
100
AcDbEntity
  8
风量风速
 62
    30
370
    -3
100
AcDbLine
 10
-3693.753598224777
 20
-2063.150755131676
 30
0.0
 11
-3803.255708285815
 21
-2063.150755131676
 31
0.0
  0
LINE
  5
696
330
1F
100
AcDbEntity
  8
风量风速
 62
    30
370
    -3
100
AcDbLine
 10
-3693.753598224777
 20
-2077.770882968616
 30
0.0
 11
-3803.255708285815
 21
-2077.770882968616
 31
0.0
  0
LWPOLYLINE
  5
697
330
1F
100
AcDbEntity
  8
风量风速
 48
1.000000000000000E+16
100
AcDbPolyline
 90
        4
 70
     1
 43
0.0
 10
-3826.869460609869
 20
-2030.675675907605
 10
-3671.96226904378
 20
-2030.675675907605
 10
-3671.96226904378
 20
-2111.147342381853
 10
-3826.869460609869
 20
-2111.147342381853
  0
LINE
  5
698
330
1F
100
AcDbEntity
  8
风量风速
 62
     4
 48
1.000000000000000E+16
370
    -3
100
AcDbLine
 10
-3771.973013852699
 20
-2203.747895632085
 30
0.0
 11
-3771.973013852699
 21
-2242.362833084423
 31
0.0
  0
LINE
  5
699
330
1F
100
AcDbEntity
  8
风量风速
 62
     4
 48
1.000000000000000E+16
370
    -3
100
AcDbLine
 10
-3732.558693997158
 20
-2242.362833084423
 30
0.0
 11
-3771.973013852699
 21
-2242.362833084423
 31
0.0
  0
LINE
  5
69A
330
1F
100
AcDbEntity
  8
风量风速
 62
     4
 48
1.000000000000000E+16
370
    -3
100
AcDbLine
 10
-3732.558693997158
 20
-2203.747895632085
 30
0.0
 11
-3732.558693997158
 21
-2242.362833084423
 31
0.0
  0
ARC
  5
69B
330
1F
100
AcDbEntity
  8
风量风速
 62
     4
 48
1.000000000000000E+16
100
AcDbCircle
 10
-3752.265853924953
 20
-2210.451927474068
 30
0.0
 40
20.81624834970603
100
AcDbArc
 50
18.78740803694062
 51
161.2125919630594
  0
LINE
  5
69C
330
1F
100
AcDbEntity
  8
风量风速
 62
     4
 48
1.000000000000000E+16
370
    -3
100
AcDbLine
 10
-3727.506746522105
 20
-2248.703055850053
 30
0.0
 11
-3776.774646341503
 21
-2248.703055850053
 31
0.0
  0
LINE
  5
69D
330
1F
100
AcDbEntity
  8
风量风速
 62
     4
 48
1.000000000000000E+16
370
    -3
100
AcDbLine
 10
-3776.774646341503
 20
-2200.434384034624
 30
0.0
 11
-3776.774646341503
 21
-2248.703055850053
 31
0.0
  0
LINE
  5
69E
330
1F
100
AcDbEntity
  8
风量风速
 62
     4
 48
1.000000000000000E+16
370
    -3
100
AcDbLine
 10
-3727.506746522105
 20
-2200.434384034624
 30
0.0
 11
-3727.506746522105
 21
-2248.703055850053
 31
0.0
  0
ARC
  5
69F
330
1F
100
AcDbEntity
  8
风量风速
 62
     4
 48
1.000000000000000E+16
100
AcDbCircle
 10
-3752.140696431784
 20
-2208.814423837103
 30
0.0
 40
26.02031043713254
100
AcDbArc
 50
18.78740803694062
 51
161.2125919630594
  0
LWPOLYLINE
  5
6A0
330
1F
100
AcDbEntity
  8
风量风速
 48
1.000000000000000E+16
100
AcDbPolyline
 90
        4
 70
     1
 43
0.0
 10
-3826.869460609869
 20
-2180.675675907616
 10
-3671.96226904378
 20
-2180.675675907616
 10
-3671.96226904378
 20
-2261.147342381853
 10
-3826.869460609869
 20
-2261.147342381853
  0
TEXT
  5
6A1
330
1F
100
AcDbEntity
  8
风量风速
370
     0
100
AcDbText
 10
-3834.198525764729
 20
-2299.929457603637
 30
0.0
 40
20.0
  1
永久避难硐室
 50
359.9999997865572
  7
样式 3
100
AcDbText
1001
ZWMCAD_GENSCA_13_
1070
     1
1040
1.0
1001
ZWMCAD_GENSTANDARDFRAME_13_
1070
   410
1000
GB
1070
   411
1000
ZwmFrameMain_
  0
LWPOLYLINE
  5
6A2
330
1F
100
AcDbEntity
  8
风量风速
 48
1.000000000000000E+16
100
AcDbPolyline
 90
        4
 70
     1
 43
0.0
 10
-3826.869460609869
 20
-2330.675675907617
 10
-3671.96226904378
 20
-2330.675675907617
 10
-3671.96226904378
 20
-2411.147342381847
 10
-3826.869460609869
 20
-2411.147342381847
  0
TEXT
  5
6A3
330
1F
100
AcDbEntity
  8
风量风速
370
     0
100
AcDbText
 10
-3806.021982869369
 20
-2449.929457603642
 30
0.0
 40
20.0
  1
永久密闭
 50
359.9999997865572
  7
样式 3
100
AcDbText
1001
ZWMCAD_GENSCA_13_
1070
     1
1040
1.0
1001
ZWMCAD_GENSTANDARDFRAME_13_
1070
   410
1000
GB
1070
   411
1000
ZwmFrameMain_
  0
LWPOLYLINE
  5
6A4
330
1F
100
AcDbEntity
  8
风量风速
 48
1.000000000000000E+16
100
AcDbPolyline
 90
        4
 70
     1
 43
0.0
 10
-3626.869460609877
 20
-2030.675675907605
 10
-3471.962269043781
 20
-2030.675675907605
 10
-3471.962269043781
 20
-2111.147342381853
 10
-3626.869460609877
 20
-2111.147342381853
  0
TEXT
  5
6A5
330
1F
100
AcDbEntity
  8
风量风速
370
     0
100
AcDbText
 10
-3632.520464997764
 20
-2149.929457603637
 30
0.0
 40
20.0
  1
永久双向风门
 50
359.9999997865572
  7
样式 3
100
AcDbText
1001
ZWMCAD_GENSCA_13_
1070
     1
1040
1.0
1001
ZWMCAD_GENSTANDARDFRAME_13_
1070
   410
1000
GB
1070
   411
1000
ZwmFrameMain_
  0
LINE
  5
6A6
330
1F
100
AcDbEntity
  8
风量风速
 62
     4
 48
1.000000000000000E+16
370
    -3
100
AcDbLine
 10
-3543.674394781763
 20
-2247.249358690356
 30
0.0
 11
-3544.359222638899
 21
-2195.706982011834
 31
0.0
  0
ARC
  5
6A7
330
1F
100
AcDbEntity
  8
风量风速
 62
     4
 48
1.000000000000000E+16
100
AcDbCircle
 10
-3535.788739867105
 20
-2221.625053702493
 30
0.0
 40
19.92082388687595
100
AcDbArc
 50
270.7612267750188
 51
90.76122677543567
  0
LINE
  5
6A8
330
1F
100
AcDbEntity
  8
风量风速
 62
     4
 48
1.000000000000000E+16
100
AcDbLine
 10
-3535.524081308667
 20
-2241.544119448121
 30
0.0
 11
-3535.259789579581
 21
-2261.435576420204
 31
0.0
  0
LINE
  5
6A9
330
1F
100
AcDbEntity
  8
风量风速
 62
     4
 48
1.000000000000000E+16
100
AcDbLine
 10
-3536.3176901546
 20
-2181.814530984775
 30
0.0
 11
-3536.053398425527
 21
-2201.705987956845
 31
0.0
  0
LWPOLYLINE
  5
6AA
330
1F
100
AcDbEntity
  8
风量风速
 48
1.000000000000000E+16
100
AcDbPolyline
 90
        4
 70
     1
 43
0.0
 10
-3626.869460609877
 20
-2180.675675907616
 10
-3471.962269043781
 20
-2180.675675907616
 10
-3471.962269043781
 20
-2261.147342381853
 10
-3626.869460609877
 20
-2261.147342381853
  0
TEXT
  5
6AB
330
1F
100
AcDbEntity
  8
风量风速
370
     0
100
AcDbText
 10
-3632.946234969375
 20
-2299.929457603637
 30
0.0
 40
20.0
  1
永久调节风门
 50
359.9999997865572
  7
样式 3
100
AcDbText
1001
ZWMCAD_GENSCA_13_
1070
     1
1040
1.0
1001
ZWMCAD_GENSTANDARDFRAME_13_
1070
   410
1000
GB
1070
   411
1000
ZwmFrameMain_
  0
TEXT
  5
6AC
330
1F
100
AcDbEntity
  8
风量风速
370
     0
100
AcDbText
 10
-3606.02198286937
 20
-2449.929457603642
 30
0.0
 40
20.0
  1
主通风机
 50
359.9999997865572
  7
样式 3
100
AcDbText
1001
ZWMCAD_GENSCA_13_
1070
     1
1040
1.0
1001
ZWMCAD_GENSTANDARDFRAME_13_
1070
   410
1000
GB
1070
   411
1000
ZwmFrameMain_
  0
LWPOLYLINE
  5
6AD
330
1F
100
AcDbEntity
  8
风量风速
 48
1.000000000000000E+16
100
AcDbPolyline
 90
        4
 70
     1
 43
0.0
 10
-3626.869460609877
 20
-2330.675675907617
 10
-3471.962269043781
 20
-2330.675675907617
 10
-3471.962269043781
 20
-2411.147342381847
 10
-3626.869460609877
 20
-2411.147342381847
  0
HATCH
  5
6AE
330
1F
100
AcDbEntity
  8
风量风速
 62
     4
100
AcDbHatch
 10
0.0
 20
0.0
 30
0.0
210
0.0
220
0.0
230
1.0
  2
SOLID
 70
     1
 71
     0
 91
        6
 92
        7
 72
     1
 73
     1
 93
        3
 10
-3379.252491430376
 20
-2059.915724511157
 42
0.0
 10
-3379.24298997549
 20
-2069.725021563373
 42
0.5328313658465285
 10
-3374.708477695616
 20
-2062.962769450777
 42
0.3047749703989014
 97
        0
 92
        7
 72
     1
 73
     1
 93
        3
 10
-3379.252491430289
 20
-2059.915724511143
 42
0.5328313658502275
 10
-3383.78700371026
 20
-2066.677976623745
 42
0.3047749704027205
 10
-3379.242989975425
 20
-2069.725021563368
 42
0.0
 97
        0
 92
        7
 72
     1
 73
     1
 93
        3
 10
-3379.228082285668
 20
-2085.115712663686
 42
0.0
 10
-3379.223331558245
 20
-2090.020361184067
 42
0.0456552623281088
 10
-3374.808922741675
 20
-2087.882934139241
 42
0.2877823778379751
 97
        0
 92
        7
 72
     1
 73
     1
 93
        3
 10
-3379.228082285668
 20
-2085.115712663704
 42
0.4142135633055914
 10
-3384.127980099951
 20
-2090.025111917269
 42
0.0
 10
-3379.223331558224
 20
-2090.020361189826
 42
0.0
 97
        0
 92
        7
 72
     1
 73
     1
 93
        4
 10
-3374.684068566555
 20
-2088.162757603325
 42
0.0156223712422233
 10
-3374.808922741733
 20
-2087.882934139114
 42
-0.0456552624830197
 10
-3379.223331573852
 20
-2090.020361189826
 42
0.0
 10
-3374.318683047775
 20
-2090.015610462386
 42
0.0971714774831682
 97
        0
 92
        7
 72
     1
 73
     1
 93
        3
 10
-3374.318683047775
 20
-2090.015610462386
 42
0.0
 10
-3384.127980099951
 20
-2090.025111917269
 42
0.0971714774825364
 10
-3383.762594581163
 20
-2091.877964776319
 42
0.822869114844493
 97
        0
 75
     0
 76
     1
 47
0.0038336387745525
 98
        6
 10
-3377.271751468001
 20
-2063.496909999515
 10
-3381.072740028928
 20
-2065.052389373956
 10
-3377.164274381288
 20
-2087.033300543219
 10
-3381.357575192164
 20
-2088.424841705204
 10
-3375.217605615548
 20
-2089.006486038009
 10
-3379.386422509986
 20
-2092.12925822832
450
        0
451
        0
460
0.0
461
0.0
452
        1
462
1.0
453
        2
463
0.0
 63
     5
421
      255
463
1.0
 63
     7
421
 16777215
470
LINEAR
1001
ACAD
1010
0.0
1020
0.0
1030
0.0
1001
AcDbBlockRepETag
1070
     1
1071
        0
1005
6AE
  0
LINE
  5
6AF
330
1F
100
AcDbEntity
  8
风量风速
 62
     4
100
AcDbLine
 10
-3379.272149847547
 20
-2039.620384890438
 30
0.0
 11
-3379.223331558245
 21
-2090.020361184067
 31
0.0
1001
AcDbBlockRepETag
1070
     1
1071
        1
1005
6AF
  0
ARC
  5
6B0
330
1F
100
AcDbEntity
  8
风量风速
 62
     4
100
AcDbCircle
 10
-3388.695896779933
 20
-2064.829524684686
 30
0.0
 40
26.91296593487618
100
AcDbArc
 50
290.6078761094227
 51
69.50311922338268
1001
AcDbBlockRepETag
1070
     1
1071
        2
1005
6B0
  0
CIRCLE
  5
6B1
330
1F
100
AcDbEntity
  8
风量风速
 62
     4
100
AcDbCircle
 10
-3379.247740702925
 20
-2064.820373037271
 30
0.0
 40
4.904650826929247
1001
AcDbBlockRepETag
1070
     1
1071
        3
1005
6B1
  0
CIRCLE
  5
6B2
330
1F
100
AcDbEntity
  8
风量风速
 62
     4
100
AcDbCircle
 10
-3379.223331573852
 20
-2090.020361189826
 30
0.0
 40
4.904650826929247
1001
AcDbBlockRepETag
1070
     1
1071
        4
1005
6B2
  0
HATCH
  5
6B3
330
1F
100
AcDbEntity
  8
风量风速
 62
     4
100
AcDbHatch
 10
0.0
 20
0.0
 30
0.0
210
0.0
220
0.0
230
1.0
  2
SOLID
 70
     1
 71
     0
 91
        6
 92
        7
 72
     1
 73
     1
 93
        3
 10
-3334.978933527013
 20
-2060.680436116243
 42
0.0
 10
-3334.969432072128
 20
-2070.489733168467
 42
0.5328313658465285
 10
-3330.434919792275
 20
-2063.72748105587
 42
0.3047749703989014
 97
        0
 92
        7
 72
     1
 73
     1
 93
        3
 10
-3334.978933526957
 20
-2060.680436116243
 42
0.5328313658502275
 10
-3339.51344580689
 20
-2067.442688228835
 42
0.3047749704027205
 10
-3334.969432072064
 20
-2070.489733168455
 42
0.0
 97
        0
 92
        7
 72
     1
 73
     1
 93
        3
 10
-3334.954524382297
 20
-2085.880424268788
 42
0.0
 10
-3334.949773654886
 20
-2090.785072789154
 42
0.0456552623281088
 10
-3330.535364838306
 20
-2088.647645744347
 42
0.2877823778379751
 97
        0
 92
        7
 72
     1
 73
     1
 93
        3
 10
-3334.954524382297
 20
-2085.880424268796
 42
0.4142135633055914
 10
-3339.854422196626
 20
-2090.789823522365
 42
0.0
 10
-3334.949773654855
 20
-2090.785072794915
 42
0.0
 97
        0
 92
        7
 72
     1
 73
     1
 93
        4
 10
-3330.41051066321
 20
-2088.927469208423
 42
0.0156223712422233
 10
-3330.535364838365
 20
-2088.647645744218
 42
-0.0456552624830197
 10
-3334.949773670484
 20
-2090.785072794915
 42
0.0
 10
-3330.045125144401
 20
-2090.780322067484
 42
0.0971714774831682
 97
        0
 92
        7
 72
     1
 73
     1
 93
        3
 10
-3330.045125144401
 20
-2090.780322067484
 42
0.0
 10
-3339.854422196626
 20
-2090.789823522365
 42
0.0971714774825364
 10
-3339.489036677802
 20
-2092.642676381405
 42
0.822869114844493
 97
        0
 75
     0
 76
     1
 47
0.0038336387745525
 98
        6
 10
-3332.998193564641
 20
-2064.26162160462
 10
-3336.799182125567
 20
-2065.817100979042
 10
-3332.890716477921
 20
-2087.79801214832
 10
-3337.084017288832
 20
-2089.189553310291
 10
-3330.944047712179
 20
-2089.771197643095
 10
-3335.112864606631
 20
-2092.893969833408
450
        0
451
        0
460
0.0
461
0.0
452
        1
462
1.0
453
        2
463
0.0
 63
     5
421
      255
463
1.0
 63
     7
421
 16777215
470
LINEAR
1001
ACAD
1010
0.0
1020
0.0
1030
0.0
1001
AcDbBlockRepETag
1070
     1
1071
        0
1005
6B3
  0
LINE
  5
6B4
330
1F
100
AcDbEntity
  8
风量风速
 62
     4
100
AcDbLine
 10
-3334.99859194418
 20
-2040.385096495521
 30
0.0
 11
-3334.949773654886
 21
-2090.785072789154
 31
0.0
1001
AcDbBlockRepETag
1070
     1
1071
        1
1005
6B4
  0
ARC
  5
6B5
330
1F
100
AcDbEntity
  8
风量风速
 62
     4
100
AcDbCircle
 10
-3344.422338876571
 20
-2065.594236289774
 30
0.0
 40
26.91296593487618
100
AcDbArc
 50
290.6078761094227
 51
69.50311922338268
1001
AcDbBlockRepETag
1070
     1
1071
        2
1005
6B5
  0
CIRCLE
  5
6B6
330
1F
100
AcDbEntity
  8
风量风速
 62
     4
100
AcDbCircle
 10
-3334.974182799573
 20
-2065.585084642353
 30
0.0
 40
4.904650826929247
1001
AcDbBlockRepETag
1070
     1
1071
        3
1005
6B6
  0
CIRCLE
  5
6B7
330
1F
100
AcDbEntity
  8
风量风速
 62
     4
100
AcDbCircle
 10
-3334.949773670484
 20
-2090.785072794915
 30
0.0
 40
4.904650826929247
1001
AcDbBlockRepETag
1070
     1
1071
        4
1005
6B7
  0
LWPOLYLINE
  5
6B8
330
1F
100
AcDbEntity
  8
风量风速
 48
1.000000000000000E+16
100
AcDbPolyline
 90
        4
 70
     1
 43
0.0
 10
-3426.869460609869
 20
-2028.687254356469
 10
-3271.962269043779
 20
-2028.687254356469
 10
-3271.962269043779
 20
-2109.158920830709
 10
-3426.869460609869
 20
-2109.158920830709
  0
TEXT
  5
6B9
330
1F
100
AcDbEntity
  8
风量风速
370
     0
100
AcDbText
 10
-3406.021982869371
 20
-2147.941036052493
 30
0.0
 40
20.0
  1
自动风门
 50
359.9999997865572
  7
样式 3
100
AcDbText
1001
ZWMCAD_GENSCA_13_
1070
     1
1040
1.0
1001
ZWMCAD_GENSTANDARDFRAME_13_
1070
   410
1000
GB
1070
   411
1000
ZwmFrameMain_
  0
LINE
  5
6BA
330
1F
100
AcDbEntity
  8
风量风速
 62
    30
370
    -3
100
AcDbLine
 10
-3904.645580056783
 20
-2362.911344895489
 30
0.0
 11
-4004.568698320627
 21
-2364.020423617437
 31
0.0
  0
LINE
  5
6BB
330
1F
100
AcDbEntity
  8
风量风速
 62
    30
370
    -3
100
AcDbLine
 10
-3904.401292785737
 20
-2379.109631250089
 30
0.0
 11
-4004.568698320627
 21
-2380.221421412974
 31
0.0
  0
LWPOLYLINE
  5
6BC
330
1F
100
AcDbEntity
  8
风量风速
 62
    30
370
    -3
100
AcDbPolyline
 90
        2
 70
     0
 43
0.0
 10
-3920.594423643979
 20
-2379.289363997425
 10
-3920.471138756449
 20
-2387.464180158794
  0
LWPOLYLINE
  5
6BD
330
1F
100
AcDbEntity
  8
风量风速
 62
    30
370
    -3
100
AcDbPolyline
 90
        2
 70
     0
 43
0.0
 10
-3912.497858192498
 20
-2379.199497545505
 10
-3912.191913183522
 20
-2399.486201832435
  0
LWPOLYLINE
  5
6BE
330
1F
100
AcDbEntity
  8
风量风速
 62
    30
370
    -3
100
AcDbPolyline
 90
        2
 70
     0
 43
0.0
 10
-3903.918130069087
 20
-2411.147342381847
 10
-3904.401292785737
 20
-2379.109631250089
  0
LWPOLYLINE
  5
6BF
330
1F
100
AcDbEntity
  8
风量风速
 62
    30
370
    -3
100
AcDbPolyline
 90
        2
 70
     0
 43
0.0
 10
-3920.838710970903
 20
-2363.09107762052
 10
-3920.959528617288
 20
-2355.079862663886
  0
LWPOLYLINE
  5
6C0
330
1F
100
AcDbEntity
  8
风量风速
 62
    30
370
    -3
100
AcDbPolyline
 90
        2
 70
     0
 43
0.0
 10
-3912.742145508255
 20
-2363.001211235645
 10
-3913.046595386888
 20
-2342.813646177216
  0
LWPOLYLINE
  5
6C1
330
1F
100
AcDbEntity
  8
风量风速
 62
    30
370
    -3
100
AcDbPolyline
 90
        2
 70
     0
 43
0.0
 10
-3905.13172815683
 20
-2330.675675907617
 10
-3904.645580056783
 20
-2362.911344895489
  0
LWPOLYLINE
  5
6C2
330
1F
100
AcDbEntity
  8
风量风速
 62
    30
370
    -3
100
AcDbPolyline
 90
        2
 70
     0
 43
0.0
 10
-3920.594423643979
 20
-2379.289363997407
 10
-3920.471138756449
 20
-2387.464180158794
  0
LWPOLYLINE
  5
6C3
330
1F
100
AcDbEntity
  8
风量风速
 62
    30
370
    -3
100
AcDbPolyline
 90
        2
 70
     0
 43
0.0
 10
-3912.497858192498
 20
-2379.199497545441
 10
-3912.191913183522
 20
-2399.486201832417
  0
LWPOLYLINE
  5
6C4
330
1F
100
AcDbEntity
  8
风量风速
 62
    30
370
    -3
100
AcDbPolyline
 90
        2
 70
     0
 43
0.0
 10
-3903.918130069087
 20
-2411.147342381847
 10
-3904.401292785737
 20
-2379.109631250023
  0
LWPOLYLINE
  5
6C5
330
1F
100
AcDbEntity
  8
风量风速
 62
    30
370
    -3
100
AcDbPolyline
 90
        2
 70
     0
 43
0.0
 10
-3920.838710970903
 20
-2363.091077620506
 10
-3920.959528617288
 20
-2355.079862663886
  0
LWPOLYLINE
  5
6C6
330
1F
100
AcDbEntity
  8
风量风速
 62
    30
370
    -3
100
AcDbPolyline
 90
        2
 70
     0
 43
0.0
 10
-3912.742145508255
 20
-2363.001211235645
 10
-3913.046595386888
 20
-2342.813646177216
  0
LWPOLYLINE
  5
6C7
330
1F
100
AcDbEntity
  8
风量风速
 62
    30
370
    -3
100
AcDbPolyline
 90
        2
 70
     0
 43
0.0
 10
-3905.13172815683
 20
-2330.675675907617
 10
-3904.645580056783
 20
-2362.911344895489
  0
LWPOLYLINE
  5
6C8
330
1F
100
AcDbEntity
  8
风量风速
 62
    30
370
    -3
100
AcDbPolyline
 90
        2
 70
     0
 43
0.0
 10
-3920.594423643979
 20
-2379.289363997407
 10
-3920.471138756449
 20
-2387.464180158753
  0
LWPOLYLINE
  5
6C9
330
1F
100
AcDbEntity
  8
风量风速
 62
    30
370
    -3
100
AcDbPolyline
 90
        2
 70
     0
 43
0.0
 10
-3912.497858192498
 20
-2379.199497545441
 10
-3912.191913183522
 20
-2399.486201832417
  0
LWPOLYLINE
  5
6CA
330
1F
100
AcDbEntity
  8
风量风速
 62
    30
370
    -3
100
AcDbPolyline
 90
        2
 70
     0
 43
0.0
 10
-3903.918130069087
 20
-2411.147342381847
 10
-3904.401292785737
 20
-2379.109631249983
  0
LWPOLYLINE
  5
6CB
330
1F
100
AcDbEntity
  8
风量风速
 62
    30
370
    -3
100
AcDbPolyline
 90
        2
 70
     0
 43
0.0
 10
-3920.838710970903
 20
-2363.091077620506
 10
-3920.959528617288
 20
-2355.079862663886
  0
LWPOLYLINE
  5
6CC
330
1F
100
AcDbEntity
  8
风量风速
 62
    30
370
    -3
100
AcDbPolyline
 90
        2
 70
     0
 43
0.0
 10
-3912.742145508255
 20
-2363.001211235645
 10
-3913.046595386888
 20
-2342.813646177173
  0
LWPOLYLINE
  5
6CD
330
1F
100
AcDbEntity
  8
风量风速
 62
    30
370
    -3
100
AcDbPolyline
 90
        2
 70
     0
 43
0.0
 10
-3905.13172815683
 20
-2330.675675907617
 10
-3904.645580056783
 20
-2362.911344895489
  0
MTEXT
  5
6CE
330
1F
100
AcDbEntity
  8
风量风速
 62
     6
370
    -3
100
AcDbMText
 10
-3919.023571998126
 20
-2091.253655327269
 30
348.0
 40
45.0
 41
0.0
 46
0.0
 71
     9
 72
     1
  1
25
  7
HZ
 73
     1
 44
1.0
1001
ACAD
1000
MTEXTBEGIN
1070
    73
1070
     1
1070
    44
1040
1.0
1070
    74
1070
     0
1000
MTEXTEND
  0
MTEXT
  5
6CF
330
1F
100
AcDbEntity
  8
风量风速
 62
     4
370
    -3
100
AcDbMText
 10
-4716.908887550355
 20
-2222.547114845966
 30
0.0
 40
4.5
 41
0.0
 46
0.0
 71
     9
 72
     1
  1
F
  7
HZ
 73
     1
 44
1.0
 90
        2
1001
ACAD
1000
MTEXTBEGIN
1070
    73
1070
     1
1070
    44
1040
1.0
1070
    74
1070
     0
1000
MTEXTEND
  0
MTEXT
  5
6D0
330
1F
100
AcDbEntity
  8
风量风速
 62
     4
370
    -3
100
AcDbMText
 10
-4753.387687227161
 20
-2222.516531475446
 30
0.0
 40
4.5
 41
0.0
 46
0.0
 71
     9
 72
     1
  1
F
  7
HZ
 73
     1
 44
1.0
 90
        2
1001
ACAD
1000
MTEXTBEGIN
1070
    73
1070
     1
1070
    44
1040
1.0
1070
    74
1070
     0
1000
MTEXTEND
  0
LWPOLYLINE
  5
6D1
330
1F
100
AcDbEntity
  8
风量风速
 48
1.000000000000000E+16
100
AcDbPolyline
 90
        4
 70
     1
 43
0.0
 10
-5426.869460609876
 20
-2030.675675907605
 10
-5271.962269043779
 20
-2030.675675907605
 10
-5271.962269043779
 20
-2111.147342381853
 10
-5426.869460609876
 20
-2111.147342381853
  0
LINE
  5
6D2
330
1F
100
AcDbEntity
  8
风量风速
 62
     4
370
    -3
100
AcDbLine
 10
-5287.616056155743
 20
-2073.728319453465
 30
0.0
 11
-5397.118166216762
 21
-2073.872110724085
 31
0.0
  0
LINE
  5
6D3
330
1F
100
AcDbEntity
  8
风量风速
 62
     4
370
    -3
100
AcDbLine
 10
-5287.616056155743
 20
-2057.528303213044
 30
0.0
 11
-5397.118166216762
 21
-2057.672094442118
 31
0.0
  0
TEXT
  5
6D4
330
1F
100
AcDbEntity
  8
风量风速
370
     0
100
AcDbText
 10
-5406.021982869372
 20
-2149.929457603637
 30
0.0
 40
20.0
  1
42煤巷道
 50
359.9999997865572
  7
样式 3
100
AcDbText
1001
ZWMCAD_GENSCA_13_
1070
     1
1040
1.0
1001
ZWMCAD_GENSTANDARDFRAME_13_
1070
   410
1000
GB
1070
   411
1000
ZwmFrameMain_
  0
LWPOLYLINE
  5
6D5
330
1F
100
AcDbEntity
  8
风量风速
 48
1.000000000000000E+16
100
AcDbPolyline
 90
        4
 70
     1
 43
0.0
 10
-5426.869460609876
 20
-2180.675675907616
 10
-5271.962269043779
 20
-2180.675675907616
 10
-5271.962269043779
 20
-2261.147342381853
 10
-5426.869460609876
 20
-2261.147342381853
  0
TEXT
  5
6D6
330
1F
100
AcDbEntity
  8
风量风速
370
     0
100
AcDbText
 10
-5399.505786580824
 20
-2299.929457603637
 30
0.0
 40
20.0
  1
采空区
 50
359.9999997865572
  7
样式 3
100
AcDbText
1001
ZWMCAD_GENSCA_13_
1070
     1
1040
1.0
1001
ZWMCAD_GENSTANDARDFRAME_13_
1070
   410
1000
GB
1070
   411
1000
ZwmFrameMain_
  0
LWPOLYLINE
  5
6D7
330
1F
100
AcDbEntity
  8
风量风速
 48
1.000000000000000E+16
100
AcDbPolyline
 90
        4
 70
     1
 43
0.0
 10
-5426.869460609876
 20
-2330.675675907617
 10
-5271.962269043779
 20
-2330.675675907617
 10
-5271.962269043779
 20
-2411.147342381847
 10
-5426.869460609876
 20
-2411.147342381847
  0
INSERT
  5
6D8
330
1F
100
AcDbEntity
  8
风量风速
 62
     7
 48
1.000000000000000E+16
100
AcDbBlockReference
 66
     1
  2
A$C0F3E0099
 10
-5339.530809294429
 20
-2375.563911971437
 30
0.0
 41
3.0
 42
3.0
 43
3.0
 50
179.6781498592954
  0
SEQEND
  5
6D9
330
6D8
100
AcDbEntity
  8
0
 48
1.000000000000000E+16
  0
TEXT
  5
6DA
330
1F
100
AcDbEntity
  8
风量风速
370
     0
100
AcDbText
 10
-5392.764107562584
 20
-2449.929457603642
 30
0.0
 40
20.0
  1
测风站
 50
359.9999997865572
  7
样式 3
100
AcDbText
1001
ZWMCAD_GENSCA_13_
1070
     1
1040
1.0
1001
ZWMCAD_GENSTANDARDFRAME_13_
1070
   410
1000
GB
1070
   411
1000
ZwmFrameMain_
  0
LWPOLYLINE
  5
6DB
330
1F
100
AcDbEntity
  8
风量风速
 62
     1
 48
1.000000000000000E+16
370
    -3
100
AcDbPolyline
 90
        2
 70
     0
 43
0.0
 10
-5178.499359727281
 20
-2052.750635635894
 10
-5152.171614474045
 20
-2052.750635635894
  0
CIRCLE
  5
6DC
330
1F
100
AcDbEntity
  8
风量风速
 62
     1
 48
1.000000000000000E+16
100
AcDbCircle
 10
-5146.020929415255
 20
-2052.750635635894
 30
0.0
 40
6.1506850587769
  0
LWPOLYLINE
  5
6DD
330
1F
100
AcDbEntity
  8
风量风速
 62
     1
 48
1.000000000000000E+16
370
    -3
100
AcDbPolyline
 90
        5
 70
     0
 43
0.0
 10
-5139.870065564299
 20
-2052.750635635894
 10
-5113.602145533547
 20
-2052.750635635894
 10
-5113.602145533547
 20
-2093.852204625241
 10
-5178.499359727281
 20
-2093.852204625241
 10
-5178.499359727281
 20
-2052.750635635894
  0
LWPOLYLINE
  5
6DE
330
1F
100
AcDbEntity
  8
风量风速
 48
1.000000000000000E+16
100
AcDbPolyline
 90
        4
 70
     1
 43
0.0
 10
-5226.869460609876
 20
-2030.675675907605
 10
-5071.962269043771
 20
-2030.675675907605
 10
-5071.962269043771
 20
-2111.147342381853
 10
-5226.869460609876
 20
-2111.147342381853
  0
TEXT
  5
6DF
330
1F
100
AcDbEntity
  8
风量风速
370
     0
100
AcDbText
 10
-5232.069631412652
 20
-2149.929457603637
 30
0.0
 40
20.0
  1
抽采瓦斯泵站
 50
359.9999997865572
  7
样式 3
100
AcDbText
1001
ZWMCAD_GENSCA_13_
1070
     1
1040
1.0
1001
ZWMCAD_GENSTANDARDFRAME_13_
1070
   410
1000
GB
1070
   411
1000
ZwmFrameMain_
  0
LINE
  5
6E0
330
1F
100
AcDbEntity
  8
风量风速
 62
     6
370
    -3
100
AcDbLine
 10
-5138.589507181622
 20
-2222.838320838553
 30
0.0
 11
-5138.589507181622
 21
-2245.239754235467
 31
0.0
  0
LINE
  5
6E1
330
1F
100
AcDbEntity
  8
风量风速
 62
     6
370
    -3
100
AcDbLine
 10
-5155.992273622196
 20
-2222.838320838553
 30
0.0
 11
-5155.992273622196
 21
-2245.239754235467
 31
0.0
  0
ARC
  5
6E2
330
1F
100
AcDbEntity
  8
风量风速
 62
     6
370
    -3
100
AcDbCircle
 10
-5148.011856016781
 20
-2222.564574859017
 30
0.0
 40
19.19011783952273
100
AcDbArc
 50
359.1826511226775
 51
180.8173488773225
  0
LINE
  5
6E3
330
1F
100
AcDbEntity
  8
风量风速
 62
     6
370
    -3
100
AcDbLine
 10
-5175.915270939043
 20
-2222.838320838553
 30
0.0
 11
-5119.633983726973
 21
-2222.838320838553
 31
0.0
  0
LWPOLYLINE
  5
6E4
330
1F
100
AcDbEntity
  8
风量风速
 48
1.000000000000000E+16
100
AcDbPolyline
 90
        4
 70
     1
 43
0.0
 10
-5226.869460609876
 20
-2180.675675907616
 10
-5071.962269043771
 20
-2180.675675907616
 10
-5071.962269043771
 20
-2261.147342381853
 10
-5226.869460609876
 20
-2261.147342381853
  0
TEXT
  5
6E5
330
1F
100
AcDbEntity
  8
风量风速
370
     0
100
AcDbText
 10
-5188.114224495865
 20
-2299.929457603637
 30
0.0
 40
20.0
  1
防爆盖
 50
359.9999997865572
  7
样式 3
100
AcDbText
1001
ZWMCAD_GENSCA_13_
1070
     1
1040
1.0
1001
ZWMCAD_GENSTANDARDFRAME_13_
1070
   410
1000
GB
1070
   411
1000
ZwmFrameMain_
  0
ELLIPSE
  5
6E6
330
1F
100
AcDbEntity
  8
风量风速
  6
ByBlock
 62
    30
100
AcDbEllipse
 10
-5166.391697353148
 20
-2370.745748577877
 30
0.0
 11
14.5776474143317
 21
-15.68140772683316
 31
0.0
210
0.0
220
0.0
230
-1.0
 40
0.9999999999999992
 41
2.711279077216973
 42
5.1135412453815
  0
LINE
  5
6E7
330
1F
100
AcDbEntity
  8
风量风速
  6
ByBlock
 62
    30
370
    -3
100
AcDbLine
 10
-5186.181963663903
 20
-2362.575087022953
 30
0.0
 11
-5199.706019595194
 21
-2362.414903546942
 31
0.0
  0
LINE
  5
6E8
330
1F
100
AcDbEntity
  8
风量风速
  6
ByBlock
 62
    30
370
    -3
100
AcDbLine
 10
-5106.343915386347
 20
-2364.322238662207
 30
0.0
 11
-5093.472748354185
 21
-2364.474689173604
 31
0.0
  0
ELLIPSE
  5
6E9
330
1F
100
AcDbEntity
  8
风量风速
  6
ByBlock
 62
    30
100
AcDbEllipse
 10
-5126.472673223984
 20
-2371.619324430805
 30
0.0
 11
14.5776474143317
 21
-15.68140772683316
 31
0.0
210
0.0
220
0.0
230
-1.0
 40
0.9999999999999992
 41
2.711279077223361
 42
5.113541245370802
  0
LINE
  5
6EA
330
1F
100
AcDbEntity
  8
风量风速
 62
    30
370
    -3
100
AcDbLine
 10
-5093.478999771174
 20
-2370.45835684022
 30
0.0
 11
-5199.714307010977
 21
-2370.347367855757
 31
0.0
  0
ELLIPSE
  5
6EB
330
1F
100
AcDbEntity
  8
风量风速
  6
ByBlock
 62
    30
100
AcDbEllipse
 10
-5166.390937683093
 20
-2370.018615298727
 30
0.0
 11
14.61038175301261
 21
15.65091363029618
 31
0.0
210
0.0
220
0.0
230
1.0
 40
1.0
 41
2.711279077224395
 42
5.113541245377255
  0
LINE
  5
6EC
330
1F
100
AcDbEntity
  8
风量风速
  6
ByBlock
 62
    30
370
    -3
100
AcDbLine
 10
-5186.198233316176
 20
-2378.147907432405
 30
0.0
 11
-5199.722594426702
 21
-2378.279832164518
 31
0.0
  0
LINE
  5
6ED
330
1F
100
AcDbEntity
  8
风量风速
  6
ByBlock
 62
    30
370
    -3
100
AcDbLine
 10
-5106.35670866654
 20
-2376.567580496518
 30
0.0
 11
-5093.485251188051
 21
-2376.442024506614
 31
0.0
  0
ELLIPSE
  5
6EE
330
1F
100
AcDbEntity
  8
风量风速
  6
ByBlock
 62
    30
100
AcDbEllipse
 10
-5126.470175367775
 20
-2369.228451797569
 30
0.0
 11
14.61038175301261
 21
15.65091363029618
 31
0.0
210
0.0
220
0.0
230
1.0
 40
1.0
 41
2.711279077224187
 42
5.113541245378455
  0
LWPOLYLINE
  5
6EF
330
1F
100
AcDbEntity
  8
风量风速
 48
1.000000000000000E+16
100
AcDbPolyline
 90
        4
 70
     1
 43
0.0
 10
-5226.869460609876
 20
-2330.675675907617
 10
-5071.962269043771
 20
-2330.675675907617
 10
-5071.962269043771
 20
-2411.147342381847
 10
-5226.869460609876
 20
-2411.147342381847
  0
TEXT
  5
6F0
330
1F
100
AcDbEntity
  8
风量风速
370
     0
100
AcDbText
 10
-5188.114224495865
 20
-2449.929457603642
 30
0.0
 40
20.0
  1
防爆门
 50
359.9999997865572
  7
样式 3
100
AcDbText
1001
ZWMCAD_GENSCA_13_
1070
     1
1040
1.0
1001
ZWMCAD_GENSTANDARDFRAME_13_
1070
   410
1000
GB
1070
   411
1000
ZwmFrameMain_
  0
ARC
  5
6F1
330
1F
100
AcDbEntity
  8
风量风速
 62
     4
 48
1.000000000000000E+16
100
AcDbCircle
 10
-4943.897852416927
 20
-2073.239101948745
 30
0.0
 40
29.40163518002032
100
AcDbArc
 50
0.0
 51
180.0
  0
LINE
  5
6F2
330
1F
100
AcDbEntity
  8
风量风速
 62
     4
 48
1.000000000000000E+16
100
AcDbLine
 10
-4885.135334123236
 20
-2073.239101948745
 30
0.0
 11
-4914.496217236894
 21
-2073.239101948745
 31
0.0
  0
LINE
  5
6F3
330
1F
100
AcDbEntity
  8
风量风速
 62
     4
 48
1.000000000000000E+16
100
AcDbLine
 10
-4973.299487596949
 20
-2073.239101948745
 30
0.0
 11
-5002.660370710646
 21
-2073.239101948745
 31
0.0
  0
LINE
  5
6F4
330
1F
100
AcDbEntity
  8
风量风速
 62
     4
 48
1.000000000000000E+16
370
    -3
100
AcDbLine
 10
-4885.135334123236
 20
-2058.558660391904
 30
0.0
 11
-4885.135334123236
 21
-2087.919543505577
 31
0.0
  0
LINE
  5
6F5
330
1F
100
AcDbEntity
  8
风量风速
 62
     4
 48
1.000000000000000E+16
100
AcDbLine
 10
-5002.660370710646
 20
-2058.558660391904
 30
0.0
 11
-5002.660370710646
 21
-2087.919543505577
 31
0.0
  0
TEXT
  5
6F6
330
1F
100
AcDbEntity
  8
风量风速
370
     0
100
AcDbText
 10
-4988.11422449585
 20
-2149.929457603637
 30
0.0
 40
20.0
  1
防火门
 50
359.9999997865572
  7
样式 3
100
AcDbText
1001
ZWMCAD_GENSCA_13_
1070
     1
1040
1.0
1001
ZWMCAD_GENSTANDARDFRAME_13_
1070
   410
1000
GB
1070
   411
1000
ZwmFrameMain_
  0
TEXT
  5
6F7
330
1F
100
AcDbEntity
  8
风量风速
370
     0
100
AcDbText
 10
-5006.021982869372
 20
-2299.929457603637
 30
0.0
 40
20.0
  1
防火门硐
 50
359.9999997865572
  7
样式 3
100
AcDbText
1001
ZWMCAD_GENSCA_13_
1070
     1
1040
1.0
1001
ZWMCAD_GENSTANDARDFRAME_13_
1070
   410
1000
GB
1070
   411
1000
ZwmFrameMain_
  0
TEXT
  5
6F8
330
1F
100
AcDbEntity
  8
风量风速
370
     0
100
AcDbText
 10
-5006.021982869372
 20
-2449.929457603642
 30
0.0
 40
20.0
  1
防火密闭
 50
359.9999997865572
  7
样式 3
100
AcDbText
1001
ZWMCAD_GENSCA_13_
1070
     1
1040
1.0
1001
ZWMCAD_GENSTANDARDFRAME_13_
1070
   410
1000
GB
1070
   411
1000
ZwmFrameMain_
  0
MTEXT
  5
6F9
330
1F
100
AcDbEntity
  8
风量风速
 62
     1
370
    -3
100
AcDbMText
 10
-5150.175974593429
 20
-2046.849115470308
 30
0.0
 40
12.0
 41
782.2600059540469
 46
74.44417949326717
 71
     1
 72
     5
  1
G
 11
0.9999993481957808
 21
-0.0011417565471901
 31
0.0
 73
     1
 44
1.0
1001
ACAD
1000
MTEXTBEGIN
1070
    73
1070
     1
1070
    44
1040
1.0
1070
    74
1070
     0
1000
MTEXTEND
  0
MTEXT
  5
6FA
330
1F
100
AcDbEntity
  8
风量风速
100
AcDbMText
 10
-5539.279270471033
 20
-2172.142267367904
 30
0.0
 40
29.99999999999998
 41
52.10596427970809
 46
540.9404201908373
 71
     1
 72
     5
  1
{\C256;图\P\P例}
  7
HZ
 73
     1
 44
1.0
1001
ACAD
1000
MTEXTBEGIN
1070
    73
1070
     1
1070
    44
1040
1.0
1070
    74
1070
     0
1000
MTEXTEND
  0
LINE
  5
6FB
330
1F
100
AcDbEntity
  8
风量风速
 62
     4
370
    -3
100
AcDbLine
 10
-4892.899043484966
 20
-2359.193420561722
 30
0.0
 11
-5002.401153546026
 21
-2359.337211790789
 31
0.0
  0
LINE
  5
6FC
330
1F
100
AcDbEntity
  8
风量风速
 62
     4
370
    -3
100
AcDbLine
 10
-4892.899043484966
 20
-2375.393436802136
 30
0.0
 11
-5002.401153546026
 21
-2375.537228072769
 31
0.0
  0
LINE
  5
6FD
330
1F
100
AcDbEntity
  8
风量风速
 62
     4
370
    -3
100
AcDbLine
 10
-5289.438302274907
 20
-2376.267535955937
 30
0.0
 11
-5398.94041233593
 21
-2376.411327226569
 31
0.0
  0
LINE
  5
6FE
330
1F
100
AcDbEntity
  8
风量风速
 62
     4
370
    -3
100
AcDbLine
 10
-4289.460346180724
 20
-2374.447822160274
 30
0.0
 11
-4398.962456241776
 21
-2374.591613430915
 31
0.0
  0
LINE
  5
6FF
330
1F
100
AcDbEntity
  8
风量风速
 62
     4
370
    -3
100
AcDbLine
 10
-4289.460346180724
 20
-2358.247805919865
 30
0.0
 11
-4398.962456241776
 21
-2358.391597148933
 31
0.0
  0
LINE
  5
700
330
1F
100
AcDbEntity
  8
风量风速
  6
ByBlock
 62
     4
370
    -3
100
AcDbLine
 10
-4346.357336947698
 20
-2339.037375495584
 30
0.0
 11
-4346.357336947698
 21
-2393.334002376357
 31
0.0
1001
AcDbBlockRepETag
1000

  0
LINE
  5
701
330
1F
100
AcDbEntity
  8
风量风速
 62
     4
370
    -3
100
AcDbLine
 10
-3699.057540175081
 20
-2380.268225208188
 30
0.0
 11
-3808.559650236147
 21
-2380.412016478805
 31
0.0
  0
LINE
  5
702
330
1F
100
AcDbEntity
  8
风量风速
 62
     4
370
    -3
100
AcDbLine
 10
-3699.057540175081
 20
-2364.068208967772
 30
0.0
 11
-3808.559650236147
 21
-2364.212000196825
 31
0.0
  0
LINE
  5
703
330
1F
100
AcDbEntity
  8
风量风速
 62
     4
 48
1.000000000000000E+16
100
AcDbLine
 10
-3757.035368670575
 20
-2349.371892510037
 30
0.0
 11
-3757.128408060099
 21
-2389.213431649467
 31
0.0
  0
LINE
  5
704
330
1F
100
AcDbEntity
  8
风量风速
 62
     4
 48
1.000000000000000E+16
100
AcDbLine
 10
-3738.648620229749
 20
-2349.414823098727
 30
0.0
 11
-3738.741659619281
 21
-2389.256362238154
 31
0.0
  0
LINE
  5
705
330
1F
100
AcDbEntity
  8
风量风速
 62
     4
370
    -3
100
AcDbLine
 10
-4198.205884163316
 20
-2358.970281626054
 30
0.0
 11
-4088.703774102298
 21
-2358.826490355406
 31
0.0
  0
LINE
  5
706
330
1F
100
AcDbEntity
  8
风量风速
 62
     4
370
    -3
100
AcDbLine
 10
-4198.205884163316
 20
-2375.170297866444
 30
0.0
 11
-4088.703774102298
 21
-2375.026506637388
 31
0.0
  0
LINE
  5
707
330
1F
100
AcDbEntity
  8
风量风速
 62
     4
 48
1.000000000000000E+16
100
AcDbLine
 10
-4137.574979241876
 20
-2347.210555445939
 30
-0.0000000041892671
 11
-4137.567758374144
 21
-2390.42199705937
 31
-0.0000000041892671
  0
LINE
  5
708
330
1F
100
AcDbEntity
  8
风量风速
 62
     4
 48
1.000000000000000E+16
100
AcDbLine
 10
-4153.798719089468
 20
-2347.210555445957
 30
-0.0000000041892671
 11
-4153.791498221701
 21
-2390.42199705937
 31
-0.0000000041892671
  0
LINE
  5
709
330
1F
100
AcDbEntity
  8
风量风速
 62
     4
 48
1.000000000000000E+16
100
AcDbLine
 10
-4137.573479832837
 20
-2356.183386375757
 30
-0.0000000041892671
 11
-4153.804494718603
 21
-2356.183386377394
 31
-0.0000000041892671
  0
LINE
  5
70A
330
1F
100
AcDbEntity
  8
风量风速
 62
     4
 48
1.000000000000000E+16
100
AcDbLine
 10
-4137.574979241876
 20
-2361.722312613788
 30
-0.0000000041892671
 11
-4141.747516249608
 21
-2358.783867217739
 31
-0.0000000041892671
  0
LINE
  5
70B
330
1F
100
AcDbEntity
  8
风量风速
 62
     4
 48
1.000000000000000E+16
100
AcDbLine
 10
-4141.747516249608
 20
-2358.783867217739
 30
-0.0000000041892671
 11
-4153.79678404843
 21
-2358.790315126495
 31
-0.0000000041892671
  0
LINE
  5
70C
330
1F
100
AcDbEntity
  8
风量风速
 62
     4
 48
1.000000000000000E+16
100
AcDbLine
 10
-4153.79678404843
 20
-2358.790315126495
 30
-0.0000000041892671
 11
-4149.633402949426
 21
-2361.722312613788
 31
-0.0000000041892671
  0
LINE
  5
70D
330
1F
100
AcDbEntity
  8
风量风速
 62
     4
 48
1.000000000000000E+16
100
AcDbLine
 10
-4149.633402949426
 20
-2361.722312613788
 30
-0.0000000041892671
 11
-4137.574979241876
 21
-2361.722312613788
 31
-0.0000000041892671
  0
LINE
  5
70E
330
1F
100
AcDbEntity
  8
风量风速
 62
     4
 48
1.000000000000000E+16
100
AcDbLine
 10
-4149.633402949426
 20
-2367.431103504969
 30
-0.0000000041892671
 11
-4137.574979241876
 21
-2367.431103505006
 31
-0.0000000041892671
  0
LINE
  5
70F
330
1F
100
AcDbEntity
  8
风量风速
 62
     4
 48
1.000000000000000E+16
100
AcDbLine
 10
-4137.574979241876
 20
-2367.431103505006
 30
-0.0000000041892671
 11
-4141.747516249608
 21
-2364.492658108916
 31
-0.0000000041892671
  0
LINE
  5
710
330
1F
100
AcDbEntity
  8
风量风速
 62
     4
 48
1.000000000000000E+16
100
AcDbLine
 10
-4141.747516249608
 20
-2364.492658108916
 30
-0.0000000041892671
 11
-4153.79678404843
 21
-2364.499106017676
 31
-0.0000000041892671
  0
LINE
  5
711
330
1F
100
AcDbEntity
  8
风量风速
 62
     4
 48
1.000000000000000E+16
100
AcDbLine
 10
-4153.79678404843
 20
-2364.499106017676
 30
-0.0000000041892671
 11
-4149.633402949426
 21
-2367.431103504969
 31
-0.0000000041892671
  0
LINE
  5
712
330
1F
100
AcDbEntity
  8
风量风速
 62
     4
 48
1.000000000000000E+16
100
AcDbLine
 10
-4149.629070355262
 20
-2373.137860373773
 30
-0.0000000041892671
 11
-4137.570646647697
 21
-2373.137860373773
 31
-0.0000000041892671
  0
LINE
  5
713
330
1F
100
AcDbEntity
  8
风量风速
 62
     4
 48
1.000000000000000E+16
100
AcDbLine
 10
-4137.570646647697
 20
-2373.137860373773
 30
-0.0000000041892671
 11
-4141.743183655449
 21
-2370.199414977725
 31
-0.0000000041892671
  0
LINE
  5
714
330
1F
100
AcDbEntity
  8
风量风速
 62
     4
 48
1.000000000000000E+16
100
AcDbLine
 10
-4141.743183655449
 20
-2370.199414977725
 30
-0.0000000041892671
 11
-4153.792451454227
 21
-2370.205862886487
 31
-0.0000000041892671
  0
LINE
  5
715
330
1F
100
AcDbEntity
  8
风量风速
 62
     4
 48
1.000000000000000E+16
100
AcDbLine
 10
-4153.792451454227
 20
-2370.205862886487
 30
-0.0000000041892671
 11
-4149.629070355262
 21
-2373.137860373773
 31
-0.0000000041892671
  0
LINE
  5
716
330
1F
100
AcDbEntity
  8
风量风速
 62
     4
 48
1.000000000000000E+16
100
AcDbLine
 10
-4149.653996409632
 20
-2378.848685287568
 30
-0.0000000041892671
 11
-4137.595572702109
 21
-2378.848685287568
 31
-0.0000000041892671
  0
LINE
  5
717
330
1F
100
AcDbEntity
  8
风量风速
 62
     4
 48
1.000000000000000E+16
100
AcDbLine
 10
-4137.595572702109
 20
-2378.848685287568
 30
-0.0000000041892671
 11
-4141.768109709834
 21
-2375.910239891517
 31
-0.0000000041892671
  0
LINE
  5
718
330
1F
100
AcDbEntity
  8
风量风速
 62
     4
 48
1.000000000000000E+16
100
AcDbLine
 10
-4141.768109709834
 20
-2375.910239891517
 30
-0.0000000041892671
 11
-4153.817377508607
 21
-2375.916687800269
 31
-0.0000000041892671
  0
LINE
  5
719
330
1F
100
AcDbEntity
  8
风量风速
 62
     4
 48
1.000000000000000E+16
100
AcDbLine
 10
-4153.817377508607
 20
-2375.916687800269
 30
-0.0000000041892671
 11
-4149.653996409632
 21
-2378.848685287568
 31
-0.0000000041892671
  0
LINE
  5
71A
330
1F
100
AcDbEntity
  8
风量风速
 62
     4
 48
1.000000000000000E+16
100
AcDbLine
 10
-4137.569117282413
 20
-2382.289956932392
 30
-0.0000000041892671
 11
-4153.800132168213
 21
-2382.289956934037
 31
-0.0000000041892671
  0
HATCH
  5
71B
330
1F
100
AcDbEntity
  8
风量风速
 62
     4
370
     0
100
AcDbHatch
 10
0.0
 20
0.0
 30
0.0
210
0.0
220
0.0
230
1.0
  2
SOLID
 70
     1
 71
     0
 91
        1
 92
        7
 72
     0
 73
     1
 93
        4
 10
-4953.556456053567
 20
-2376.095468604344
 10
-4943.776098950728
 20
-2375.997114862036
 10
-4943.944704166749
 20
-2359.230908087627
 10
-4953.725061278828
 20
-2359.329261833787
 97
        0
 75
     0
 76
     1
 47
0.4108958283621086
 98
        1
 10
-4945.473350882577
 20
-2369.706678407874
450
        0
451
        0
460
0.0
461
0.0
452
        1
462
1.0
453
        2
463
0.0
 63
     5
421
      255
463
1.0
 63
     7
421
 16777215
470
LINEAR
1001
ACAD
1010
0.0
1020
0.0
1030
0.0
  0
LINE
  5
71C
330
1F
100
AcDbEntity
  8
风量风速
 62
     4
370
    -3
100
AcDbLine
 10
-5289.438302274907
 20
-2360.067519715522
 30
0.0
 11
-5398.94041233593
 21
-2360.211310944586
 31
0.0
  0
LINE
  5
71D
330
1F
100
AcDbEntity
  8
风量风速
  6
井田边界
370
   100
100
AcDbLine
 10
-3403.448428022861
 20
-2368.836934755604
 30
0.0
 11
-3302.204504489802
 21
-2368.836934755604
 31
0.0
  0
TEXT
  5
71E
330
1F
100
AcDbEntity
  8
风量风速
370
     0
100
AcDbText
 10
-3405.016876753343
 20
-2449.929457603642
 30
0.0
 40
20.0
  1
井田边界
 50
359.9999997865572
  7
样式 3
100
AcDbText
1001
ZWMCAD_GENSCA_13_
1070
     1
1040
1.0
1001
ZWMCAD_GENSTANDARDFRAME_13_
1070
   410
1000
GB
1070
   411
1000
ZwmFrameMain_
  0
LWPOLYLINE
  5
71F
330
1F
100
AcDbEntity
  8
风量风速
 48
1.000000000000000E+16
100
AcDbPolyline
 90
        4
 70
     1
 43
0.0
 10
-3426.869460609869
 20
-2182.277736499393
 10
-3271.962269043779
 20
-2182.277736499393
 10
-3271.962269043779
 20
-2262.749402973637
 10
-3426.869460609869
 20
-2262.749402973637
  0
LINE
  5
720
330
1F
100
AcDbEntity
  8
风量风速
  6
CENTER
370
    50
100
AcDbLine
 10
-3404.45175073374
 20
-2222.330340373065
 30
0.0
 11
-3293.607110313929
 21
-2222.330340373065
 31
0.0
  0
TEXT
  5
721
330
1F
100
AcDbEntity
  8
风量风速
370
     0
100
AcDbText
 10
-3406.021982869371
 20
-2301.531518195425
 30
0.0
 40
20.0
  1
盘区边界
 50
359.9999997865572
  7
样式 3
100
AcDbText
1001
ZWMCAD_GENSCA_13_
1070
     1
1040
1.0
1001
ZWMCAD_GENSTANDARDFRAME_13_
1070
   410
1000
GB
1070
   411
1000
ZwmFrameMain_
  0
LWPOLYLINE
  5
722
330
1F
100
AcDbEntity
  8
风量风速
 48
1.000000000000000E+16
100
AcDbPolyline
 90
        4
 70
     1
 43
0.0
 10
-3426.869460609869
 20
-2330.675675907617
 10
-3271.962269043779
 20
-2330.675675907617
 10
-3271.962269043779
 20
-2411.147342381847
 10
-3426.869460609869
 20
-2411.147342381847
  0
HATCH
  5
723
330
1F
100
AcDbEntity
  8
风量风速
  6
井田边界
 62
     4
 48
1.000000000000000E+16
370
     0
100
AcDbHatch
 10
0.0
 20
0.0
 30
0.0
210
0.0
220
0.0
230
1.0
  2
ANSI31
 70
     0
 71
     0
 91
        1
 92
        7
 72
     0
 73
     1
 93
        4
 10
-5426.869460609876
 20
-2261.147342381853
 10
-5426.869460609876
 20
-2180.675675907616
 10
-5271.962269043779
 20
-2180.675675907616
 10
-5271.962269043779
 20
-2261.147342381853
 97
        0
 75
     0
 76
     1
 52
0.0
 41
200.0
 77
     0
 78
     1
 53
45.0
 43
-42439.79739626018
 44
10425.72471634046
 45
-17.67766952966368
 46
17.67766952966369
 79
     0
 47
0.0
 98
        1
 10
-5336.461419864212
 20
-2203.572185689715
1001
ACAD
1010
0.0
1020
0.0
1030
0.0
  0
SPLINE
  5
724
330
1F
100
AcDbEntity
  8
风量风速
  6
DASH
 62
     4
 48
1.000000000000000E+16
370
     0
100
AcDbSpline
210
0.0
220
0.0
230
1.0
 70
     8
 71
     3
 72
     9
 73
     5
 74
     0
 42
0.000000001
 43
0.0000000001
 40
0.0
 40
0.0
 40
0.0
 40
0.0
 40
23.3540276333111
 40
57.94036313952496
 40
57.94036313952496
 40
57.94036313952496
 40
57.94036313952496
 10
-3204.891427229199
 20
-2064.492365486378
 30
0.0
 10
-3199.650064880513
 20
-2071.753188219271
 30
0.0
 10
-3186.646464705078
 20
-2089.766984915987
 30
0.0
 10
-3168.782114050042
 20
-2075.351269735694
 30
0.0
 10
-3157.915841933663
 20
-2067.372005437217
 30
0.0
  0
LWPOLYLINE
  5
725
330
1F
100
AcDbEntity
  8
风量风速
 48
1.000000000000000E+16
100
AcDbPolyline
 90
        4
 70
     1
 43
0.0
 10
-3227.841423576351
 20
-2029.822103494316
 10
-3072.934232010263
 20
-2029.822103494316
 10
-3072.934232010263
 20
-2110.293769968543
 10
-3227.841423576351
 20
-2110.293769968543
  0
TEXT
  5
726
330
1F
100
AcDbEntity
  8
风量风速
 62
     4
100
AcDbText
 10
-3154.804294657176
 20
-2071.467613019887
 30
0.0
 40
12.5
  1
985
 50
27.11643097572459
  7
宋体
100
AcDbText
  0
TEXT
  5
727
330
1F
100
AcDbEntity
  8
风量风速
370
     0
100
AcDbText
 10
-3271.173405329701
 20
-2149.039562798568
 30
0.0
 40
20.0
  1
42煤煤层底板等高线
 50
359.9999997865572
  7
样式 3
100
AcDbText
1001
ZWMCAD_GENSCA_13_
1070
     1
1040
1.0
1001
ZWMCAD_GENSTANDARDFRAME_13_
1070
   410
1000
GB
1070
   411
1000
ZwmFrameMain_
  0
SPLINE
  5
728
330
1F
100
AcDbEntity
  8
风量风速
  6
DASH
 62
     4
 48
1.000000000000000E+16
370
     0
100
AcDbSpline
210
0.0
220
0.0
230
1.0
 70
     8
 71
     3
 72
     8
 73
     4
 74
     0
 42
0.000000001
 43
0.0000000001
 40
84.19734838517394
 40
84.19734838517394
 40
84.19734838517394
 40
84.19734838517394
 40
124.4355322222021
 40
124.4355322222021
 40
124.4355322222021
 40
124.4355322222021
 10
-3133.486231147286
 20
-2055.606107494042
 30
0.0
 10
-3121.501572905599
 20
-2055.503858007723
 30
0.0
 10
-3110.621980802596
 20
-2067.075450878857
 30
0.0
 10
-3099.742388699615
 20
-2078.647043749985
 30
0.0
  0
TEXT
  5
729
330
1F
100
AcDbEntity
  8
风量风速
370
     0
100
AcDbText
 10
-3233.012218508458
 20
-2301.338337715741
 30
0.0
 40
20.0
  1
临时双向风门
 50
359.9999997865572
  7
样式 3
100
AcDbText
1001
ZWMCAD_GENSCA_13_
1070
     1
1040
1.0
1001
ZWMCAD_GENSTANDARDFRAME_13_
1070
   410
1000
GB
1070
   411
1000
ZwmFrameMain_
  0
LWPOLYLINE
  5
72A
330
1F
100
AcDbEntity
  8
风量风速
 48
1.000000000000000E+16
100
AcDbPolyline
 90
        4
 70
     1
 43
0.0
 10
-3227.36121412057
 20
-2182.084556019717
 10
-3072.454022554473
 20
-2182.084556019717
 10
-3072.454022554473
 20
-2262.556222493953
 10
-3227.36121412057
 20
-2262.556222493953
  0
LINE
  5
72B
330
1F
100
AcDbEntity
  8
风量风速
 62
     4
370
    -3
100
AcDbLine
 10
-3207.797183684063
 20
-2213.906894343006
 30
0.0
 11
-3098.295073623001
 21
-2213.763103072372
 31
0.0
  0
LINE
  5
72C
330
1F
100
AcDbEntity
  8
风量风速
 62
     4
370
    -3
100
AcDbLine
 10
-3207.797183684063
 20
-2230.106910583407
 30
0.0
 11
-3098.295073623001
 21
-2229.963119354335
 31
0.0
  0
LINE
  5
72D
330
1F
100
AcDbEntity
  8
风量风速
 62
     4
370
    -3
100
AcDbLine
 10
-4198.529836228099
 20
-2062.036533454124
 30
0.0000000041892671
 11
-4089.027726167029
 21
-2061.892742183486
 31
0.0000000041892671
  0
LINE
  5
72E
330
1F
100
AcDbEntity
  8
风量风速
 62
     4
370
    -3
100
AcDbLine
 10
-4198.529836228099
 20
-2078.236549694525
 30
0.0000000041892671
 11
-4089.027726167029
 21
-2078.092758465468
 31
0.0000000041892671
  0
LINE
  5
72F
330
1F
100
AcDbEntity
  8
风量风速
 62
     4
370
    -3
100
AcDbLine
 10
-3599.858266460175
 20
-2061.845050274242
 30
0.0000000041892671
 11
-3490.35615639915
 21
-2061.701259003604
 31
0.0000000041892671
  0
LINE
  5
730
330
1F
100
AcDbEntity
  8
风量风速
 62
     4
370
    -3
100
AcDbLine
 10
-3599.858266460175
 20
-2078.045066514643
 30
0.0000000041892671
 11
-3490.35615639915
 21
-2077.901275285585
 31
0.0000000041892671
  0
LINE
  5
731
330
1F
100
AcDbEntity
  8
风量风速
 62
     4
370
    -3
100
AcDbLine
 10
-3601.296027626819
 20
-2215.722946921408
 30
0.0000000041892671
 11
-3491.793917565792
 21
-2215.579155650765
 31
0.0000000041892671
  0
LINE
  5
732
330
1F
100
AcDbEntity
  8
风量风速
 62
     4
370
    -3
100
AcDbLine
 10
-3601.296027626819
 20
-2231.922963161808
 30
0.0000000041892671
 11
-3491.793917565792
 21
-2231.779171932743
 31
0.0000000041892671
  0
LINE
  5
733
330
1F
100
AcDbEntity
  8
风量风速
 62
     4
370
    -3
100
AcDbLine
 10
-3298.074547749418
 20
-2056.495549849756
 30
0.0
 11
-3407.576657810441
 21
-2056.639341078819
 31
0.0
  0
LINE
  5
734
330
1F
100
AcDbEntity
  8
风量风速
 62
     4
370
    -3
100
AcDbLine
 10
-3298.074547749418
 20
-2072.695566090155
 30
0.0
 11
-3407.576657810441
 21
-2072.839357360786
 31
0.0
  0
LINE
  5
735
330
1F
100
AcDbEntity
  8
风量风速
 62
     4
 48
1.000000000000000E+16
370
    -3
100
AcDbLine
 10
-3582.845090778402
 20
-2248.663618099887
 30
0.0
 11
-3583.529918635501
 21
-2197.121241421378
 31
0.0
  0
ARC
  5
736
330
1F
100
AcDbEntity
  8
风量风速
 62
     4
 48
1.000000000000000E+16
100
AcDbCircle
 10
-3574.959435863724
 20
-2223.039313112026
 30
0.0
 40
19.92082388687595
100
AcDbArc
 50
270.7612267750188
 51
90.76122677501874
  0
LINE
  5
737
330
1F
100
AcDbEntity
  8
风量风速
 62
     4
 48
1.000000000000000E+16
100
AcDbLine
 10
-3574.694777305307
 20
-2242.958378857657
 30
0.0
 11
-3574.453106088007
 21
-2261.147342381853
 31
0.0
  0
LINE
  5
738
330
1F
100
AcDbEntity
  8
风量风速
 62
     4
 48
1.000000000000000E+16
100
AcDbLine
 10
-3575.488386151211
 20
-2183.228790394315
 30
0.0
 11
-3575.224094422132
 21
-2203.120247366388
 31
0.0
  0
ARC
  5
739
330
1F
100
AcDbEntity
  8
风量风速
 62
     4
 48
1.000000000000000E+16
100
AcDbCircle
 10
-4163.943054447894
 20
-2071.078537916871
 30
0.0
 40
19.92082388687595
100
AcDbArc
 50
270.0
 51
90.0
  0
LINE
  5
73A
330
1F
100
AcDbEntity
  8
风量风速
 62
     4
 48
1.000000000000000E+16
100
AcDbLine
 10
-4163.943054447894
 20
-2090.999361803727
 30
0.0
 11
-4163.943054447894
 21
-2110.892574480156
 31
0.0
  0
LINE
  5
73B
330
1F
100
AcDbEntity
  8
风量风速
 62
     4
 48
1.000000000000000E+16
100
AcDbLine
 10
-4163.943054447894
 20
-2031.264501353556
 30
0.0
 11
-4163.943054447894
 21
-2051.157714029986
 31
0.0
  0
LINE
  5
73C
330
1F
100
AcDbEntity
  8
风量风速
 62
     4
370
    -3
100
AcDbLine
 10
-4298.507514374864
 20
-2230.069824115024
 30
0.0
 11
-4408.009624435889
 21
-2230.213615385645
 31
0.0
  0
LINE
  5
73D
330
1F
100
AcDbEntity
  8
风量风速
 62
     4
370
    -3
100
AcDbLine
 10
-4298.507514374864
 20
-2213.869807874619
 30
0.0
 11
-4408.009624435889
 21
-2214.013599103677
 31
0.0
  0
ARC
  5
73E
330
1F
100
AcDbEntity
  8
风量风速
 62
     4
 48
1.000000000000000E+16
100
AcDbCircle
 10
-4144.022230561048
 20
-2071.078537916871
 30
0.0
 40
19.92082388687595
100
AcDbArc
 50
270.0
 51
90.0
  0
LINE
  5
73F
330
1F
100
AcDbEntity
  8
风量风速
 62
     4
 48
1.000000000000000E+16
100
AcDbLine
 10
-4144.022230561048
 20
-2090.999361803727
 30
0.0
 11
-4144.022230561048
 21
-2110.892574480156
 31
0.0
  0
LINE
  5
740
330
1F
100
AcDbEntity
  8
风量风速
 62
     4
 48
1.000000000000000E+16
100
AcDbLine
 10
-4144.022230561048
 20
-2031.264501353556
 30
0.0
 11
-4144.022230561048
 21
-2051.157714029986
 31
0.0
  0
ARC
  5
741
330
1F
100
AcDbEntity
  8
风量风速
 62
     4
 48
1.000000000000000E+16
100
AcDbCircle
 10
-4163.943054447894
 20
-2071.078537916871
 30
0.0
 40
19.92082388687595
100
AcDbArc
 50
270.0
 51
90.0
  0
LINE
  5
742
330
1F
100
AcDbEntity
  8
风量风速
 62
     4
 48
1.000000000000000E+16
100
AcDbLine
 10
-4163.943054447894
 20
-2090.999361803727
 30
0.0
 11
-4163.943054447894
 21
-2110.892574480156
 31
0.0
  0
LINE
  5
743
330
1F
100
AcDbEntity
  8
风量风速
 62
     4
 48
1.000000000000000E+16
100
AcDbLine
 10
-4163.943054447894
 20
-2031.264501353556
 30
0.0
 11
-4163.943054447894
 21
-2051.157714029986
 31
0.0
  0
ENDSEC
  0
SECTION
  2
OBJECTS
  0
DICTIONARY
  5
C
330
0
100
AcDbDictionary
281
     1
  3
ACAD_CIP_PREVIOUS_PRODUCT_INFO
350
164
  3
ACAD_COLOR
350
6C
  3
ACAD_DETAILVIEWSTYLE
350
1D7
  3
ACAD_GROUP
350
D
  3
ACAD_LAYOUT
350
1A
  3
ACAD_MATERIAL
350
6B
  3
ACAD_MLEADERSTYLE
350
DE
  3
ACAD_MLINESTYLE
350
17
  3
ACAD_PLOTSETTINGS
350
19
  3
ACAD_PLOTSTYLENAME
350
E
  3
ACAD_SCALELIST
350
B7
  3
ACAD_SECTIONVIEWSTYLE
350
1D5
  3
ACAD_TABLESTYLE
350
92
  3
ACAD_VISUALSTYLE
350
145
  3
AcDbVariableDictionary
350
59
  0
DICTIONARY
  5
FA
330
2
100
AcDbDictionary
280
     1
281
     1
  3
ACAD_LAYERSTATES
360
FB
  0
DICTIONARY
  5
22E
330
22D
100
AcDbDictionary
280
     1
281
     1
  3
ADSK_XREC_LAYER_RECONCILED
360
22F
  0
DICTIONARY
  5
5B6
330
5B5
100
AcDbDictionary
280
     1
281
     1
  3
ACAD_SORTENTS
360
5B7
  0
XRECORD
  5
164
102
{ACAD_REACTORS
330
C
102
}
330
C
100
AcDbXrecord
280
     1
300
ACD
300
2013
300
ACD_F_S
  0
DICTIONARY
  5
6C
102
{ACAD_REACTORS
330
C
102
}
330
C
100
AcDbDictionary
281
     1
  0
DICTIONARY
  5
1D7
102
{ACAD_REACTORS
330
C
102
}
330
C
100
AcDbDictionary
281
     1
  3
Metric50
350
1D8
  0
DICTIONARY
  5
D
102
{ACAD_REACTORS
330
C
102
}
330
C
100
AcDbDictionary
281
     1
  0
DICTIONARY
  5
1A
102
{ACAD_REACTORS
330
C
102
}
330
C
100
AcDbDictionary
281
     1
  3
Model
350
22
  3
布局1
350
1C8
  3
布局2
350
1CD
  0
DICTIONARY
  5
6B
102
{ACAD_REACTORS
330
C
102
}
330
C
100
AcDbDictionary
281
     1
  3
ByBlock
350
135
  3
ByLayer
350
12D
  3
Global
350
13D
  0
DICTIONARY
  5
DE
102
{ACAD_REACTORS
330
C
102
}
330
C
100
AcDbDictionary
281
     1
  3
Annotative
350
228
  3
Standard
350
E1
  0
DICTIONARY
  5
17
102
{ACAD_REACTORS
330
C
102
}
330
C
100
AcDbDictionary
281
     1
  3
Standard
350
18
  0
DICTIONARY
  5
19
102
{ACAD_REACTORS
330
C
102
}
330
C
100
AcDbDictionary
281
     1
  0
ACDBDICTIONARYWDFLT
  5
E
102
{ACAD_REACTORS
330
C
102
}
330
C
100
AcDbDictionary
281
     1
  3
Color_7
350
242
  3
Normal
350
F
100
AcDbDictionaryWithDefault
340
F
  0
DICTIONARY
  5
B7
102
{ACAD_REACTORS
330
C
102
}
330
C
100
AcDbDictionary
281
     1
  3
A0
350
B8
  3
A1
350
204
  3
A2
350
205
  3
A3
350
206
  3
A4
350
207
  3
A5
350
208
  3
A6
350
209
  3
A7
350
20A
  3
A8
350
20B
  3
A9
350
20C
  3
B0
350
20D
  3
B1
350
20E
  3
B2
350
20F
  3
B3
350
210
  3
B4
350
211
  3
B5
350
212
  3
B6
350
213
  0
DICTIONARY
  5
1D5
102
{ACAD_REACTORS
330
C
102
}
330
C
100
AcDbDictionary
281
     1
  3
Metric50
350
1D6
  0
DICTIONARY
  5
92
102
{ACAD_REACTORS
330
C
102
}
330
C
100
AcDbDictionary
281
     1
  3
Standard
350
93
  0
DICTIONARY
  5
145
102
{ACAD_REACTORS
330
C
102
}
330
C
100
AcDbDictionary
281
     1
  3
2dWireframe
350
14B
  3
Basic
350
14A
  3
Brighten
350
151
  3
ColorChange
350
155
  3
Conceptual
350
14E
  3
Dim
350
150
  3
EdgeColorOff
350
15D
  3
Facepattern
350
154
  3
Flat
350
146
  3
FlatWithEdges
350
147
  3
Gouraud
350
148
  3
GouraudWithEdges
350
149
  3
Hidden
350
14D
  3
JitterOff
350
15B
  3
Linepattern
350
153
  3
OverhangOff
350
15C
  3
Realistic
350
14F
  3
Shaded
350
15A
  3
Shaded with edges
350
159
  3
Shades of Gray
350
156
  3
Sketchy
350
157
  3
Thicken
350
152
  3
Wireframe
350
14C
  3
X-Ray
350
158
  0
DICTIONARY
  5
59
102
{ACAD_REACTORS
330
C
102
}
330
C
100
AcDbDictionary
281
     1
  3
CANNOSCALE
350
DD
  3
CMLEADERSTYLE
350
E9
  3
CTABLESTYLE
350
98
  3
CVIEWDETAILSTYLE
350
1EE
  3
CVIEWSECTIONSTYLE
350
1EF
  3
DIMASSOC
350
43
  3
HIDETEXT
350
5E
  3
PROJECTNAME
350
B6
  3
XCLIPFRAME
350
E2
  0
DICTIONARY
  5
FB
102
{ACAD_REACTORS
330
FA
102
}
330
FA
100
AcDbDictionary
281
     1
  0
XRECORD
  5
22F
102
{ACAD_REACTORS
330
22E
102
}
330
22E
100
AcDbXrecord
280
     1
290
     1
  0
SORTENTSTABLE
  5
5B7
102
{ACAD_REACTORS
330
5B6
102
}
330
5B6
100
AcDbSortentsTable
330
5B5
  0
ACDBDETAILVIEWSTYLE
  5
1D8
102
{ACAD_REACTORS
330
1D7
102
}
330
1D7
100
AcDbModelDocViewStyle
 70
     0
  3
Metric50
290
     1
300
Metric50
 90
        0
100
AcDbDetailViewStyle
 70
     0
 71
     0
 90
        3
 71
     1
340
11
 62
   256
 40
5.0
340
0
 62
   256
 40
5.0
300

 40
0.0
280
     1
 71
     2
340
16
 90
       25
 62
   256
 71
     3
340
11
 62
   256
 40
5.0
 90
        0
 40
15.0
 90
        1
300
%<\AcVar ViewDetailId>% (%<\AcVar ViewScale \f "%sn">%)
 71
     4
340
16
 90
       25
 62
   256
340
16
 90
       25
 62
   256
280
     0
  0
LAYOUT
  5
22
102
{ACAD_REACTORS
330
1A
102
}
330
1A
100
AcDbPlotSettings
  1

  2
none_device
  4
none_user_media
  6

 40
6.349999904632567
 41
6.349999904632567
 42
6.350006103515625
 43
6.350006103515625
 44
215.8999938964844
 45
279.3999938964844
 46
0.0
 47
81.57875845973331
 48
0.0
 49
0.0
140
0.0
141
0.0
142
1.0
143
3.583704046179819
 70
 11445
 72
     1
 73
     0
 74
     0
  7

 75
     0
 76
     0
 77
     2
 78
   300
147
0.2790408993359779
148
154.1043093895605
149
1.549288692994196
100
AcDbLayout
  1
Model
 70
     1
 71
     0
 10
0.0
 20
0.0
 11
420.0
 21
297.0
 12
0.0
 22
0.0
 32
0.0
 14
1.000000000000000E+20
 24
1.000000000000000E+20
 34
1.000000000000000E+20
 15
-1.000000000000000E+20
 25
-1.000000000000000E+20
 35
-1.000000000000000E+20
146
0.0
 13
0.0
 23
0.0
 33
0.0
 16
1.0
 26
0.0
 36
0.0
 17
0.0
 27
1.0
 37
0.0
 76
     0
330
1F
331
1BA
1001
ACAD_PSEXT
1000
无
1000
无
1000
不可用
1000
在选择新的绘图仪配置名称之前，不能打印该布局。
1070
     0
  0
LAYOUT
  5
1C8
102
{ACAD_REACTORS
330
1A
102
}
330
1A
100
AcDbPlotSettings
  1

  2
Microsoft XPS Document Writer#:1
  4

  6

 40
0.0
 41
0.0
 42
0.0
 43
0.0
 44
0.0
 45
0.0
 46
0.0
 47
0.0
 48
0.0
 49
0.0
140
0.0
141
0.0
142
1.0
143
1.0
 70
   688
 72
     0
 73
     0
 74
     5
  7

 75
    16
 76
     0
 77
     2
 78
   300
147
1.0
148
0.0
149
0.0
100
AcDbLayout
  1
布局1
 70
     1
 71
     1
 10
0.0
 20
0.0
 11
12.0
 21
9.0
 12
0.0
 22
0.0
 32
0.0
 14
0.0
 24
0.0
 34
0.0
 15
0.0
 25
0.0
 35
0.0
146
0.0
 13
0.0
 23
0.0
 33
0.0
 16
1.0
 26
0.0
 36
0.0
 17
0.0
 27
1.0
 37
0.0
 76
     0
330
1C7
  0
LAYOUT
  5
1CD
102
{ACAD_REACTORS
330
1A
102
}
330
1A
100
AcDbPlotSettings
  1

  2
Microsoft XPS Document Writer#:1
  4

  6

 40
0.0
 41
0.0
 42
0.0
 43
0.0
 44
0.0
 45
0.0
 46
0.0
 47
0.0
 48
0.0
 49
0.0
140
0.0
141
0.0
142
1.0
143
1.0
 70
   688
 72
     0
 73
     0
 74
     5
  7

 75
    16
 76
     0
 77
     2
 78
   300
147
1.0
148
0.0
149
0.0
100
AcDbLayout
  1
布局2
 70
     1
 71
     2
 10
0.0
 20
0.0
 11
12.0
 21
9.0
 12
0.0
 22
0.0
 32
0.0
 14
0.0
 24
0.0
 34
0.0
 15
0.0
 25
0.0
 35
0.0
146
0.0
 13
0.0
 23
0.0
 33
0.0
 16
1.0
 26
0.0
 36
0.0
 17
0.0
 27
1.0
 37
0.0
 76
     0
330
1CC
  0
MATERIAL
  5
135
102
{ACAD_REACTORS
330
6B
102
}
330
6B
100
AcDbMaterial
  1
ByBlock
 72
     0
 73
     2
 43
0.0008202099737533
 43
0.0
 43
0.0
 43
0.0
 43
0.0
 43
0.0008202099737533
 43
0.0
 43
0.0
 43
0.0
 43
0.0
 43
1.0
 43
0.0
 43
0.0
 43
0.0
 43
0.0
 43
1.0
 77
     0
 78
     2
 47
0.0008202099737533
 47
0.0
 47
0.0
 47
0.0
 47
0.0
 47
0.0008202099737533
 47
0.0
 47
0.0
 47
0.0
 47
0.0
 47
1.0
 47
0.0
 47
0.0
 47
0.0
 47
0.0
 47
1.0
171
     0
172
     2
 49
0.0008202099737533
 49
0.0
 49
0.0
 49
0.0
 49
0.0
 49
0.0008202099737533
 49
0.0
 49
0.0
 49
0.0
 49
0.0
 49
1.0
 49
0.0
 49
0.0
 49
0.0
 49
0.0
 49
1.0
175
     0
176
     2
142
0.0008202099737533
142
0.0
142
0.0
142
0.0
142
0.0
142
0.0008202099737533
142
0.0
142
0.0
142
0.0
142
0.0
142
1.0
142
0.0
142
0.0
142
0.0
142
0.0
142
1.0
179
     0
270
     2
144
0.0008202099737533
144
0.0
144
0.0
144
0.0
144
0.0
144
0.0008202099737533
144
0.0
144
0.0
144
0.0
144
0.0
144
1.0
144
0.0
144
0.0
144
0.0
144
0.0
144
1.0
274
     2
147
0.0008202099737533
147
0.0
147
0.0
147
0.0
147
0.0
147
0.0008202099737533
147
0.0
147
0.0
147
0.0
147
0.0
147
1.0
147
0.0
147
0.0
147
0.0
147
0.0
147
1.0
 94
      127
  0
MATERIAL
  5
12D
102
{ACAD_REACTORS
330
6B
102
}
330
6B
100
AcDbMaterial
  1
ByLayer
 72
     0
 73
     2
 43
0.0008202099737533
 43
0.0
 43
0.0
 43
0.0
 43
0.0
 43
0.0008202099737533
 43
0.0
 43
0.0
 43
0.0
 43
0.0
 43
1.0
 43
0.0
 43
0.0
 43
0.0
 43
0.0
 43
1.0
 77
     0
 78
     2
 47
0.0008202099737533
 47
0.0
 47
0.0
 47
0.0
 47
0.0
 47
0.0008202099737533
 47
0.0
 47
0.0
 47
0.0
 47
0.0
 47
1.0
 47
0.0
 47
0.0
 47
0.0
 47
0.0
 47
1.0
171
     0
172
     2
 49
0.0008202099737533
 49
0.0
 49
0.0
 49
0.0
 49
0.0
 49
0.0008202099737533
 49
0.0
 49
0.0
 49
0.0
 49
0.0
 49
1.0
 49
0.0
 49
0.0
 49
0.0
 49
0.0
 49
1.0
175
     0
176
     2
142
0.0008202099737533
142
0.0
142
0.0
142
0.0
142
0.0
142
0.0008202099737533
142
0.0
142
0.0
142
0.0
142
0.0
142
1.0
142
0.0
142
0.0
142
0.0
142
0.0
142
1.0
179
     0
270
     2
144
0.0008202099737533
144
0.0
144
0.0
144
0.0
144
0.0
144
0.0008202099737533
144
0.0
144
0.0
144
0.0
144
0.0
144
1.0
144
0.0
144
0.0
144
0.0
144
0.0
144
1.0
274
     2
147
0.0008202099737533
147
0.0
147
0.0
147
0.0
147
0.0
147
0.0008202099737533
147
0.0
147
0.0
147
0.0
147
0.0
147
1.0
147
0.0
147
0.0
147
0.0
147
0.0
147
1.0
 94
      127
  0
MATERIAL
  5
13D
102
{ACAD_REACTORS
330
6B
102
}
330
6B
100
AcDbMaterial
  1
Global
 72
     0
 73
     2
 43
0.0008202099737533
 43
0.0
 43
0.0
 43
0.0
 43
0.0
 43
0.0008202099737533
 43
0.0
 43
0.0
 43
0.0
 43
0.0
 43
1.0
 43
0.0
 43
0.0
 43
0.0
 43
0.0
 43
1.0
 77
     0
 78
     2
 47
0.0008202099737533
 47
0.0
 47
0.0
 47
0.0
 47
0.0
 47
0.0008202099737533
 47
0.0
 47
0.0
 47
0.0
 47
0.0
 47
1.0
 47
0.0
 47
0.0
 47
0.0
 47
0.0
 47
1.0
171
     0
172
     2
 49
0.0008202099737533
 49
0.0
 49
0.0
 49
0.0
 49
0.0
 49
0.0008202099737533
 49
0.0
 49
0.0
 49
0.0
 49
0.0
 49
1.0
 49
0.0
 49
0.0
 49
0.0
 49
0.0
 49
1.0
175
     0
176
     2
142
0.0008202099737533
142
0.0
142
0.0
142
0.0
142
0.0
142
0.0008202099737533
142
0.0
142
0.0
142
0.0
142
0.0
142
1.0
142
0.0
142
0.0
142
0.0
142
0.0
142
1.0
179
     0
270
     2
144
0.0008202099737533
144
0.0
144
0.0
144
0.0
144
0.0
144
0.0008202099737533
144
0.0
144
0.0
144
0.0
144
0.0
144
1.0
144
0.0
144
0.0
144
0.0
144
0.0
144
1.0
274
     2
147
0.0008202099737533
147
0.0
147
0.0
147
0.0
147
0.0
147
0.0008202099737533
147
0.0
147
0.0
147
0.0
147
0.0
147
1.0
147
0.0
147
0.0
147
0.0
147
0.0
147
1.0
 94
      127
  0
MLEADERSTYLE
  5
228
102
{ACAD_REACTORS
330
DE
102
}
330
DE
100
AcDbMLeaderStyle
179
     2
170
     2
171
     1
172
     0
 90
        2
 40
0.0
 41
0.0
173
     1
 91
-1056964608
340
14
 92
       -2
290
     1
 42
2.0
291
     1
 43
8.0
  3
Standard
 44
4.0
300

342
11
174
     1
178
     1
175
     1
176
     0
 93
-1056964608
 45
4.0
292
     0
297
     0
 46
0.18
 94
-1056964608
 47
1.0
 49
1.0
140
1.0
293
     1
141
0.0
294
     1
177
     0
142
1.0
295
     0
296
     1
143
3.75
271
     0
272
     9
273
     9
298
     0
  0
MLEADERSTYLE
  5
E1
102
{ACAD_REACTORS
330
DE
102
}
330
DE
100
AcDbMLeaderStyle
179
     2
170
     2
171
     1
172
     0
 90
        2
 40
0.0
 41
0.0
173
     1
 91
-1056964608
340
14
 92
       -2
290
     1
 42
2.0
291
     1
 43
8.0
  3
Standard
 44
4.0
300

342
11
174
     1
178
     1
175
     1
176
     0
 93
-1056964608
 45
4.0
292
     0
297
     0
 46
0.18
 94
-1056964608
 47
1.0
 49
1.0
140
1.0
293
     1
141
0.0
294
     1
177
     0
142
1.0
295
     0
296
     0
143
3.75
271
     0
272
     9
273
     9
298
     0
  0
MLINESTYLE
  5
18
102
{ACAD_REACTORS
330
17
102
}
330
17
100
AcDbMlineStyle
  2
STANDARD
 70
     0
  3

 62
   256
 51
90.0
 52
90.0
 71
     2
 49
0.5
 62
   256
  6
BYLAYER
 49
-0.5
 62
   256
  6
BYLAYER
  0
ACDBPLACEHOLDER
  5
242
102
{ACAD_REACTORS
330
E
102
}
330
E
  0
ACDBPLACEHOLDER
  5
F
102
{ACAD_REACTORS
330
E
102
}
330
E
  0
SCALE
  5
B8
102
{ACAD_REACTORS
330
B7
102
}
330
B7
100
AcDbScale
 70
     0
300
1:1
140
1.0
141
1.0
290
     1
  0
SCALE
  5
204
102
{ACAD_REACTORS
330
B7
102
}
330
B7
100
AcDbScale
 70
     0
300
1:2
140
1.0
141
2.0
290
     0
  0
SCALE
  5
205
102
{ACAD_REACTORS
330
B7
102
}
330
B7
100
AcDbScale
 70
     0
300
1:4
140
1.0
141
4.0
290
     0
  0
SCALE
  5
206
102
{ACAD_REACTORS
330
B7
102
}
330
B7
100
AcDbScale
 70
     0
300
1:5
140
1.0
141
5.0
290
     0
  0
SCALE
  5
207
102
{ACAD_REACTORS
330
B7
102
}
330
B7
100
AcDbScale
 70
     0
300
1:8
140
1.0
141
8.0
290
     0
  0
SCALE
  5
208
102
{ACAD_REACTORS
330
B7
102
}
330
B7
100
AcDbScale
 70
     0
300
1:10
140
1.0
141
10.0
290
     0
  0
SCALE
  5
209
102
{ACAD_REACTORS
330
B7
102
}
330
B7
100
AcDbScale
 70
     0
300
1:16
140
1.0
141
16.0
290
     0
  0
SCALE
  5
20A
102
{ACAD_REACTORS
330
B7
102
}
330
B7
100
AcDbScale
 70
     0
300
1:20
140
1.0
141
20.0
290
     0
  0
SCALE
  5
20B
102
{ACAD_REACTORS
330
B7
102
}
330
B7
100
AcDbScale
 70
     0
300
1:30
140
1.0
141
30.0
290
     0
  0
SCALE
  5
20C
102
{ACAD_REACTORS
330
B7
102
}
330
B7
100
AcDbScale
 70
     0
300
1:40
140
1.0
141
40.0
290
     0
  0
SCALE
  5
20D
102
{ACAD_REACTORS
330
B7
102
}
330
B7
100
AcDbScale
 70
     0
300
1:50
140
1.0
141
50.0
290
     0
  0
SCALE
  5
20E
102
{ACAD_REACTORS
330
B7
102
}
330
B7
100
AcDbScale
 70
     0
300
1:100
140
1.0
141
100.0
290
     0
  0
SCALE
  5
20F
102
{ACAD_REACTORS
330
B7
102
}
330
B7
100
AcDbScale
 70
     0
300
2:1
140
2.0
141
1.0
290
     0
  0
SCALE
  5
210
102
{ACAD_REACTORS
330
B7
102
}
330
B7
100
AcDbScale
 70
     0
300
4:1
140
4.0
141
1.0
290
     0
  0
SCALE
  5
211
102
{ACAD_REACTORS
330
B7
102
}
330
B7
100
AcDbScale
 70
     0
300
8:1
140
8.0
141
1.0
290
     0
  0
SCALE
  5
212
102
{ACAD_REACTORS
330
B7
102
}
330
B7
100
AcDbScale
 70
     0
300
10:1
140
10.0
141
1.0
290
     0
  0
SCALE
  5
213
102
{ACAD_REACTORS
330
B7
102
}
330
B7
100
AcDbScale
 70
     0
300
100:1
140
100.0
141
1.0
290
     0
  0
ACDBSECTIONVIEWSTYLE
  5
1D6
102
{ACAD_REACTORS
330
1D5
102
}
330
1D5
100
AcDbModelDocViewStyle
 70
     0
  3
Metric50
290
     1
300
Metric50
 90
        0
100
AcDbSectionViewStyle
 70
     0
 71
     0
 90
      102
 71
     1
340
11
 62
   256
 40
5.0
340
0
340
0
 62
   256
 40
5.0
300
I, O, Q, S, X, Z
 40
10.0
 90
        0
 40
2.5
 90
        0
 71
     2
340
16
 90
       25
 62
   256
340
16
 90
       50
 62
   256
 40
5.0
 40
2.5
 40
5.0
 71
     3
340
11
 62
   256
 40
5.0
 90
        0
 40
15.0
 90
        1
300
%<\AcVar ViewSectionStartId>%-%<\AcVar ViewSectionEndId>% (%<\AcVar ViewScale \f "%sn">%)
 71
     4
 62
   256
 62
   257
300
ANSI31
 40
1.0
 90
        0
290
     0
290
     0
 90
        6
 40
0.0
 40
1.570796326794896
 40
0.2617993877991494
 40
1.308996938995747
 40
-0.2617993877991494
 40
1.832595714594044
  0
TABLESTYLE
  5
93
102
{ACAD_REACTORS
330
92
102
}
330
92
100
AcDbTableStyle
  3
Standard
 70
     0
 71
     0
 40
0.06
 41
0.06
280
     0
281
     0
  7
Standard
140
4.5
170
     2
 62
     0
 63
   257
283
     0
 90
      512
 91
        0
  1

274
    -2
284
     1
 64
     0
275
    -2
285
     1
 65
     0
276
    -2
286
     1
 66
     0
277
    -2
287
     1
 67
     0
278
    -2
288
     1
 68
     0
279
    -2
289
     1
 69
     0
  7
Standard
140
6.0
170
     5
 62
     0
 63
   257
283
     0
 90
      512
 91
        0
  1

274
    -2
284
     1
 64
     0
275
    -2
285
     1
 65
     0
276
    -2
286
     1
 66
     0
277
    -2
287
     1
 67
     0
278
    -2
288
     1
 68
     0
279
    -2
289
     1
 69
     0
  7
Standard
140
4.5
170
     5
 62
     0
 63
   257
283
     0
 90
      512
 91
        0
  1

274
    -2
284
     1
 64
     0
275
    -2
285
     1
 65
     0
276
    -2
286
     1
 66
     0
277
    -2
287
     1
 67
     0
278
    -2
288
     1
 68
     0
279
    -2
289
     1
 69
     0
1001
ACAD
1000
AcRTDxfName
1000
TABLESTYLE
  0
VISUALSTYLE
  5
14B
102
{ACAD_REACTORS
330
145
102
}
330
145
100
AcDbVisualStyle
  2
2dWireframe
 70
     4
177
     3
291
     0
 70
    58
 90
        0
176
     1
 90
        2
176
     1
 90
        0
176
     1
 90
        0
176
     1
 40
0.6
176
     1
 40
30.0
176
     1
 62
     7
420
 16777215
176
     1
 90
        1
176
     1
 90
        4
176
     1
 62
     7
176
     1
 62
   257
176
     1
 90
        1
176
     1
 90
        1
176
     1
 40
1.0
176
     1
 90
        0
176
     1
 62
   257
176
     1
 40
1.0
176
     1
 90
        1
176
     1
 90
        6
176
     1
 90
        2
176
     1
 62
     7
176
     1
 90
        5
176
     1
 90
        0
176
     1
 90
        0
176
     1
290
     0
176
     1
 90
        1
176
     1
 40
0.0
176
     1
 90
        0
176
     1
290
     1
176
     1
290
     1
176
     1
290
     0
176
     1
290
     0
176
     1
290
     0
176
     1
290
     0
176
     1
290
     0
176
     1
290
     0
176
     1
290
     0
176
     1
 90
       50
176
     1
 40
0.0
176
     1
 40
1.0
176
     1
 90
        0
176
     1
 62
    18
420
        0
176
     1
 90
       50
176
     1
 90
        3
176
     1
 62
     5
420
      255
176
     1
290
     0
176
     1
 90
       50
176
     1
 90
       50
176
     1
 90
       50
176
     1
290
     0
176
     1
 90
       50
176
     1
 62
   256
176
     0
 40
1.0
176
     0
 90
        0
176
     1
  1
strokes_ogs.tif
176
     1
290
     0
176
     1
 40
1.0
176
     1
 40
1.0
176
     1
  0
VISUALSTYLE
  5
14A
102
{ACAD_REACTORS
330
145
102
}
330
145
100
AcDbVisualStyle
  2
Basic
 70
     7
177
     3
291
     1
 70
    58
 90
        1
176
     1
 90
        0
176
     1
 90
        1
176
     1
 90
        0
176
     1
 40
0.6
176
     1
 40
30.0
176
     1
 62
     7
420
 16777215
176
     1
 90
        0
176
     1
 90
        4
176
     1
 62
     7
176
     1
 62
   257
176
     1
 90
        1
176
     1
 90
        1
176
     1
 40
1.0
176
     1
 90
        8
176
     1
 62
     7
176
     1
 40
1.0
176
     1
 90
        1
176
     1
 90
        6
176
     1
 90
        2
176
     1
 62
     7
176
     1
 90
        5
176
     1
 90
        0
176
     1
 90
        0
176
     1
290
     0
176
     1
 90
        1
176
     1
 40
0.0
176
     1
 90
        0
176
     1
290
     0
176
     1
290
     1
176
     1
290
     1
176
     1
290
     0
176
     1
290
     0
176
     1
290
     0
176
     1
290
     0
176
     1
290
     0
176
     1
290
     0
176
     1
 90
       50
176
     1
 40
0.0
176
     1
 40
1.0
176
     1
 90
        0
176
     1
 62
    18
420
        0
176
     1
 90
       50
176
     1
 90
        3
176
     1
 62
     5
420
      255
176
     1
290
     0
176
     1
 90
       50
176
     1
 90
       50
176
     1
 90
       50
176
     1
290
     0
176
     1
 90
       50
176
     1
 62
   256
176
     0
 40
1.0
176
     0
 90
        0
176
     1
  1
strokes_ogs.tif
176
     1
290
     0
176
     1
 40
1.0
176
     1
 40
1.0
176
     1
  0
VISUALSTYLE
  5
151
102
{ACAD_REACTORS
330
145
102
}
330
145
100
AcDbVisualStyle
  2
Brighten
 70
    12
177
     3
291
     1
 70
    58
 90
        2
176
     1
 90
        2
176
     1
 90
        0
176
     1
 90
        0
176
     1
 40
0.6
176
     1
 40
30.0
176
     1
 62
     7
420
 16777215
176
     1
 90
        1
176
     1
 90
        4
176
     1
 62
     7
176
     1
 62
   257
176
     1
 90
        1
176
     1
 90
        1
176
     1
 40
1.0
176
     1
 90
        8
176
     1
 62
     7
176
     1
 40
1.0
176
     1
 90
        1
176
     1
 90
        6
176
     1
 90
        2
176
     1
 62
     7
176
     1
 90
        5
176
     1
 90
        0
176
     1
 90
        0
176
     1
290
     0
176
     1
 90
        1
176
     1
 40
50.0
176
     1
 90
        0
176
     1
290
     0
176
     1
290
     1
176
     1
290
     1
176
     1
290
     0
176
     1
290
     0
176
     1
290
     0
176
     1
290
     0
176
     1
290
     0
176
     1
290
     0
176
     1
 90
       50
176
     1
 40
0.0
176
     1
 40
1.0
176
     1
 90
        0
176
     1
 62
    18
420
        0
176
     1
 90
       50
176
     1
 90
        3
176
     1
 62
     5
420
      255
176
     1
290
     0
176
     1
 90
       50
176
     1
 90
       50
176
     1
 90
       50
176
     1
290
     0
176
     1
 90
       50
176
     1
 62
   256
176
     0
 40
1.0
176
     0
 90
        0
176
     1
  1
strokes_ogs.tif
176
     1
290
     0
176
     1
 40
1.0
176
     1
 40
1.0
176
     1
  0
VISUALSTYLE
  5
155
102
{ACAD_REACTORS
330
145
102
}
330
145
100
AcDbVisualStyle
  2
ColorChange
 70
    16
177
     3
291
     1
 70
    58
 90
        2
176
     1
 90
        2
176
     1
 90
        3
176
     1
 90
        0
176
     1
 40
0.6
176
     1
 40
30.0
176
     1
 62
     8
420
  8421504
176
     1
 90
        1
176
     1
 90
        4
176
     1
 62
     7
176
     1
 62
   257
176
     1
 90
        1
176
     1
 90
        1
176
     1
 40
1.0
176
     1
 90
        8
176
     1
 62
     8
420
  8421504
176
     1
 40
1.0
176
     1
 90
        1
176
     1
 90
        6
176
     1
 90
        2
176
     1
 62
     7
176
     1
 90
        5
176
     1
 90
        0
176
     1
 90
        0
176
     1
290
     0
176
     1
 90
        1
176
     1
 40
0.0
176
     1
 90
        0
176
     1
290
     0
176
     1
290
     1
176
     1
290
     1
176
     1
290
     0
176
     1
290
     0
176
     1
290
     0
176
     1
290
     0
176
     1
290
     0
176
     1
290
     0
176
     1
 90
       50
176
     1
 40
0.0
176
     1
 40
1.0
176
     1
 90
        0
176
     1
 62
    18
420
        0
176
     1
 90
       50
176
     1
 90
        3
176
     1
 62
     5
420
      255
176
     1
290
     0
176
     1
 90
       50
176
     1
 90
       50
176
     1
 90
       50
176
     1
290
     0
176
     1
 90
       50
176
     1
 62
   256
176
     0
 40
1.0
176
     0
 90
        0
176
     1
  1
strokes_ogs.tif
176
     1
290
     0
176
     1
 40
1.0
176
     1
 40
1.0
176
     1
  0
VISUALSTYLE
  5
14E
102
{ACAD_REACTORS
330
145
102
}
330
145
100
AcDbVisualStyle
  2
Conceptual
 70
     9
177
     3
291
     0
 70
    58
 90
        3
176
     1
 90
        2
176
     1
 90
        0
176
     1
 90
        0
176
     1
 40
0.6
176
     1
 40
30.0
176
     1
 62
     7
420
 16777215
176
     1
 90
        2
176
     1
 90
        2
176
     1
 62
     7
176
     1
 62
   257
176
     1
 90
        1
176
     1
 90
        1
176
     1
 40
179.0
176
     1
 90
        8
176
     1
 62
     7
176
     1
 40
1.0
176
     1
 90
        1
176
     1
 90
        6
176
     1
 90
        2
176
     1
 62
     7
176
     1
 90
        3
176
     1
 90
        0
176
     1
 90
        0
176
     1
290
     0
176
     1
 90
        1
176
     1
 40
0.0
176
     1
 90
        0
176
     1
290
     0
176
     1
290
     1
176
     1
290
     1
176
     1
290
     0
176
     1
290
     0
176
     1
290
     0
176
     1
290
     0
176
     1
290
     0
176
     1
290
     0
176
     1
 90
       50
176
     1
 40
0.0
176
     1
 40
1.0
176
     1
 90
        0
176
     1
 62
    18
420
        0
176
     1
 90
       50
176
     1
 90
        3
176
     1
 62
     5
420
      255
176
     1
290
     0
176
     1
 90
       50
176
     1
 90
       50
176
     1
 90
       50
176
     1
290
     0
176
     1
 90
       50
176
     1
 62
   256
176
     0
 40
1.0
176
     0
 90
        0
176
     1
  1
strokes_ogs.tif
176
     1
290
     0
176
     1
 40
1.0
176
     1
 40
1.0
176
     1
  0
VISUALSTYLE
  5
150
102
{ACAD_REACTORS
330
145
102
}
330
145
100
AcDbVisualStyle
  2
Dim
 70
    11
177
     3
291
     1
 70
    58
 90
        2
176
     1
 90
        2
176
     1
 90
        0
176
     1
 90
        0
176
     1
 40
0.6
176
     1
 40
30.0
176
     1
 62
     7
420
 16777215
176
     1
 90
        1
176
     1
 90
        4
176
     1
 62
     7
176
     1
 62
   257
176
     1
 90
        1
176
     1
 90
        1
176
     1
 40
1.0
176
     1
 90
        8
176
     1
 62
     7
176
     1
 40
1.0
176
     1
 90
        1
176
     1
 90
        6
176
     1
 90
        2
176
     1
 62
     7
176
     1
 90
        5
176
     1
 90
        0
176
     1
 90
        0
176
     1
290
     0
176
     1
 90
        1
176
     1
 40
-50.0
176
     1
 90
        0
176
     1
290
     0
176
     1
290
     1
176
     1
290
     1
176
     1
290
     0
176
     1
290
     0
176
     1
290
     0
176
     1
290
     0
176
     1
290
     0
176
     1
290
     0
176
     1
 90
       50
176
     1
 40
0.0
176
     1
 40
1.0
176
     1
 90
        0
176
     1
 62
    18
420
        0
176
     1
 90
       50
176
     1
 90
        3
176
     1
 62
     5
420
      255
176
     1
290
     0
176
     1
 90
       50
176
     1
 90
       50
176
     1
 90
       50
176
     1
290
     0
176
     1
 90
       50
176
     1
 62
   256
176
     0
 40
1.0
176
     0
 90
        0
176
     1
  1
strokes_ogs.tif
176
     1
290
     0
176
     1
 40
1.0
176
     1
 40
1.0
176
     1
  0
VISUALSTYLE
  5
15D
102
{ACAD_REACTORS
330
145
102
}
330
145
100
AcDbVisualStyle
  2
EdgeColorOff
 70
    22
177
     3
291
     1
 70
    58
 90
        2
176
     0
 90
        2
176
     0
 90
        0
176
     0
 90
        0
176
     0
 40
0.6
176
     0
 40
30.0
176
     0
 62
     7
420
 16777215
176
     0
 90
        1
176
     0
 90
        4
176
     0
 62
     7
176
     0
 62
   257
176
     0
 90
        1
176
     0
 90
        1
176
     0
 40
1.0
176
     0
 90
        8
176
     2
 62
     7
176
     0
 40
1.0
176
     0
 90
        1
176
     0
 90
        6
176
     0
 90
        2
176
     0
 62
     7
176
     0
 90
        5
176
     0
 90
        0
176
     0
 90
        0
176
     0
290
     0
176
     0
 90
        1
176
     0
 40
0.0
176
     0
 90
        0
176
     0
290
     0
176
     1
290
     1
176
     1
290
     1
176
     1
290
     0
176
     1
290
     0
176
     1
290
     0
176
     1
290
     0
176
     1
290
     0
176
     1
290
     0
176
     1
 90
       50
176
     1
 40
0.0
176
     1
 40
1.0
176
     1
 90
        0
176
     1
 62
    18
420
        0
176
     1
 90
       50
176
     1
 90
        3
176
     1
 62
     5
420
      255
176
     1
290
     0
176
     1
 90
       50
176
     1
 90
       50
176
     1
 90
       50
176
     1
290
     0
176
     1
 90
       50
176
     1
 62
   256
176
     0
 40
1.0
176
     0
 90
        0
176
     1
  1
strokes_ogs.tif
176
     1
290
     0
176
     1
 40
1.0
176
     1
 40
1.0
176
     1
  0
VISUALSTYLE
  5
154
102
{ACAD_REACTORS
330
145
102
}
330
145
100
AcDbVisualStyle
  2
Facepattern
 70
    15
177
     3
291
     1
 70
    58
 90
        2
176
     1
 90
        2
176
     1
 90
        0
176
     1
 90
        0
176
     1
 40
0.6
176
     1
 40
30.0
176
     1
 62
     7
420
 16777215
176
     1
 90
        1
176
     1
 90
        4
176
     1
 62
     7
176
     1
 62
   257
176
     1
 90
        1
176
     1
 90
        1
176
     1
 40
1.0
176
     1
 90
        8
176
     1
 62
     7
176
     1
 40
1.0
176
     1
 90
        1
176
     1
 90
        6
176
     1
 90
        2
176
     1
 62
     7
176
     1
 90
        5
176
     1
 90
        0
176
     1
 90
        0
176
     1
290
     0
176
     1
 90
        1
176
     1
 40
0.0
176
     1
 90
        0
176
     1
290
     0
176
     1
290
     1
176
     1
290
     1
176
     1
290
     0
176
     1
290
     0
176
     1
290
     0
176
     1
290
     0
176
     1
290
     0
176
     1
290
     0
176
     1
 90
       50
176
     1
 40
0.0
176
     1
 40
1.0
176
     1
 90
        0
176
     1
 62
    18
420
        0
176
     1
 90
       50
176
     1
 90
        3
176
     1
 62
     5
420
      255
176
     1
290
     0
176
     1
 90
       50
176
     1
 90
       50
176
     1
 90
       50
176
     1
290
     0
176
     1
 90
       50
176
     1
 62
   256
176
     0
 40
1.0
176
     0
 90
        0
176
     1
  1
strokes_ogs.tif
176
     1
290
     0
176
     1
 40
1.0
176
     1
 40
1.0
176
     1
  0
VISUALSTYLE
  5
146
102
{ACAD_REACTORS
330
145
102
}
330
145
100
AcDbVisualStyle
  2
Flat
 70
     0
177
     3
291
     1
 70
    58
 90
        2
176
     1
 90
        1
176
     1
 90
        1
176
     1
 90
        2
176
     1
 40
0.6
176
     1
 40
30.0
176
     1
 62
     7
420
 16777215
176
     1
 90
        0
176
     1
 90
        0
176
     1
 62
     7
176
     1
 62
   257
176
     1
 90
        1
176
     1
 90
        1
176
     1
 40
1.0
176
     1
 90
        8
176
     1
 62
     7
176
     1
 40
1.0
176
     1
 90
        1
176
     1
 90
        6
176
     1
 90
        2
176
     1
 62
     7
176
     1
 90
        5
176
     1
 90
        0
176
     1
 90
        0
176
     1
290
     0
176
     1
 90
       13
176
     1
 40
0.0
176
     1
 90
        0
176
     1
290
     0
176
     1
290
     1
176
     1
290
     1
176
     1
290
     0
176
     1
290
     0
176
     1
290
     0
176
     1
290
     0
176
     1
290
     0
176
     1
290
     0
176
     1
 90
       50
176
     1
 40
0.0
176
     1
 40
1.0
176
     1
 90
        0
176
     1
 62
    18
420
        0
176
     1
 90
       50
176
     1
 90
        3
176
     1
 62
     5
420
      255
176
     1
290
     0
176
     1
 90
       50
176
     1
 90
       50
176
     1
 90
       50
176
     1
290
     0
176
     1
 90
       50
176
     1
 62
   256
176
     0
 40
1.0
176
     0
 90
        0
176
     1
  1
strokes_ogs.tif
176
     1
290
     0
176
     1
 40
1.0
176
     1
 40
1.0
176
     1
  0
VISUALSTYLE
  5
147
102
{ACAD_REACTORS
330
145
102
}
330
145
100
AcDbVisualStyle
  2
FlatWithEdges
 70
     1
177
     3
291
     1
 70
    58
 90
        2
176
     1
 90
        1
176
     1
 90
        1
176
     1
 90
        2
176
     1
 40
0.6
176
     1
 40
30.0
176
     1
 62
     7
420
 16777215
176
     1
 90
        1
176
     1
 90
        0
176
     1
 62
     7
176
     1
 62
   257
176
     1
 90
        1
176
     1
 90
        1
176
     1
 40
1.0
176
     1
 90
        0
176
     1
 62
   257
176
     1
 40
1.0
176
     1
 90
        1
176
     1
 90
        6
176
     1
 90
        2
176
     1
 62
     7
176
     1
 90
        5
176
     1
 90
        0
176
     1
 90
        0
176
     1
290
     0
176
     1
 90
       13
176
     1
 40
0.0
176
     1
 90
        0
176
     1
290
     0
176
     1
290
     1
176
     1
290
     1
176
     1
290
     0
176
     1
290
     0
176
     1
290
     0
176
     1
290
     0
176
     1
290
     0
176
     1
290
     0
176
     1
 90
       50
176
     1
 40
0.0
176
     1
 40
1.0
176
     1
 90
        0
176
     1
 62
    18
420
        0
176
     1
 90
       50
176
     1
 90
        3
176
     1
 62
     5
420
      255
176
     1
290
     0
176
     1
 90
       50
176
     1
 90
       50
176
     1
 90
       50
176
     1
290
     0
176
     1
 90
       50
176
     1
 62
   256
176
     0
 40
1.0
176
     0
 90
        0
176
     1
  1
strokes_ogs.tif
176
     1
290
     0
176
     1
 40
1.0
176
     1
 40
1.0
176
     1
  0
VISUALSTYLE
  5
148
102
{ACAD_REACTORS
330
145
102
}
330
145
100
AcDbVisualStyle
  2
Gouraud
 70
     2
177
     3
291
     1
 70
    58
 90
        2
176
     1
 90
        2
176
     1
 90
        1
176
     1
 90
        2
176
     1
 40
0.6
176
     1
 40
30.0
176
     1
 62
     7
420
 16777215
176
     1
 90
        0
176
     1
 90
        0
176
     1
 62
     7
176
     1
 62
   257
176
     1
 90
        1
176
     1
 90
        1
176
     1
 40
1.0
176
     1
 90
        0
176
     1
 62
     7
176
     1
 40
1.0
176
     1
 90
        1
176
     1
 90
        6
176
     1
 90
        2
176
     1
 62
     7
176
     1
 90
        5
176
     1
 90
        0
176
     1
 90
        0
176
     1
290
     0
176
     1
 90
       13
176
     1
 40
0.0
176
     1
 90
        0
176
     1
290
     0
176
     1
290
     1
176
     1
290
     1
176
     1
290
     0
176
     1
290
     0
176
     1
290
     0
176
     1
290
     0
176
     1
290
     0
176
     1
290
     0
176
     1
 90
       50
176
     1
 40
0.0
176
     1
 40
1.0
176
     1
 90
        0
176
     1
 62
    18
420
        0
176
     1
 90
       50
176
     1
 90
        3
176
     1
 62
     5
420
      255
176
     1
290
     0
176
     1
 90
       50
176
     1
 90
       50
176
     1
 90
       50
176
     1
290
     0
176
     1
 90
       50
176
     1
 62
   256
176
     0
 40
1.0
176
     0
 90
        0
176
     1
  1
strokes_ogs.tif
176
     1
290
     0
176
     1
 40
1.0
176
     1
 40
1.0
176
     1
  0
VISUALSTYLE
  5
149
102
{ACAD_REACTORS
330
145
102
}
330
145
100
AcDbVisualStyle
  2
GouraudWithEdges
 70
     3
177
     3
291
     1
 70
    58
 90
        2
176
     1
 90
        2
176
     1
 90
        1
176
     1
 90
        2
176
     1
 40
0.6
176
     1
 40
30.0
176
     1
 62
     7
420
 16777215
176
     1
 90
        1
176
     1
 90
        0
176
     1
 62
     7
176
     1
 62
   257
176
     1
 90
        1
176
     1
 90
        1
176
     1
 40
1.0
176
     1
 90
        0
176
     1
 62
   257
176
     1
 40
1.0
176
     1
 90
        1
176
     1
 90
        6
176
     1
 90
        2
176
     1
 62
     7
176
     1
 90
        5
176
     1
 90
        0
176
     1
 90
        0
176
     1
290
     0
176
     1
 90
       13
176
     1
 40
0.0
176
     1
 90
        0
176
     1
290
     0
176
     1
290
     1
176
     1
290
     1
176
     1
290
     0
176
     1
290
     0
176
     1
290
     0
176
     1
290
     0
176
     1
290
     0
176
     1
290
     0
176
     1
 90
       50
176
     1
 40
0.0
176
     1
 40
1.0
176
     1
 90
        0
176
     1
 62
    18
420
        0
176
     1
 90
       50
176
     1
 90
        3
176
     1
 62
     5
420
      255
176
     1
290
     0
176
     1
 90
       50
176
     1
 90
       50
176
     1
 90
       50
176
     1
290
     0
176
     1
 90
       50
176
     1
 62
   256
176
     0
 40
1.0
176
     0
 90
        0
176
     1
  1
strokes_ogs.tif
176
     1
290
     0
176
     1
 40
1.0
176
     1
 40
1.0
176
     1
  0
VISUALSTYLE
  5
14D
102
{ACAD_REACTORS
330
145
102
}
330
145
100
AcDbVisualStyle
  2
Hidden
 70
     6
177
     3
291
     0
 70
    58
 90
        1
176
     1
 90
        2
176
     1
 90
        2
176
     1
 90
        0
176
     1
 40
0.6
176
     1
 40
30.0
176
     1
 62
     7
420
 16777215
176
     1
 90
        2
176
     1
 90
        2
176
     1
 62
     7
176
     1
 62
   257
176
     1
 90
        2
176
     1
 90
        1
176
     1
 40
40.0
176
     1
 90
        0
176
     1
 62
   257
176
     1
 40
1.0
176
     1
 90
        1
176
     1
 90
        6
176
     1
 90
        2
176
     1
 62
     7
176
     1
 90
        3
176
     1
 90
        0
176
     1
 90
        0
176
     1
290
     0
176
     1
 90
        1
176
     1
 40
0.0
176
     1
 90
        0
176
     1
290
     0
176
     1
290
     1
176
     1
290
     1
176
     1
290
     0
176
     1
290
     0
176
     1
290
     0
176
     1
290
     0
176
     1
290
     0
176
     1
290
     0
176
     1
 90
       50
176
     1
 40
0.0
176
     1
 40
1.0
176
     1
 90
        0
176
     1
 62
    18
420
        0
176
     1
 90
       50
176
     1
 90
        3
176
     1
 62
     5
420
      255
176
     1
290
     0
176
     1
 90
       50
176
     1
 90
       50
176
     1
 90
       50
176
     1
290
     0
176
     1
 90
       50
176
     1
 62
   256
176
     0
 40
1.0
176
     0
 90
        0
176
     1
  1
strokes_ogs.tif
176
     1
290
     0
176
     1
 40
1.0
176
     1
 40
1.0
176
     1
  0
VISUALSTYLE
  5
15B
102
{ACAD_REACTORS
330
145
102
}
330
145
100
AcDbVisualStyle
  2
JitterOff
 70
    20
177
     3
291
     1
 70
    58
 90
        2
176
     0
 90
        2
176
     0
 90
        0
176
     0
 90
        0
176
     0
 40
0.6
176
     0
 40
30.0
176
     0
 62
     7
420
 16777215
176
     0
 90
        1
176
     0
 90
        4
176
     0
 62
     7
176
     0
 62
   257
176
     0
 90
        1
176
     0
 90
        1
176
     0
 40
1.0
176
     0
 90
       10
176
     2
 62
     7
176
     0
 40
1.0
176
     0
 90
        1
176
     0
 90
        6
176
     0
 90
        2
176
     0
 62
     7
176
     0
 90
        5
176
     0
 90
        0
176
     0
 90
        0
176
     0
290
     0
176
     0
 90
        1
176
     0
 40
0.0
176
     0
 90
        0
176
     0
290
     0
176
     1
290
     1
176
     1
290
     1
176
     1
290
     0
176
     1
290
     0
176
     1
290
     0
176
     1
290
     0
176
     1
290
     0
176
     1
290
     0
176
     1
 90
       50
176
     1
 40
0.0
176
     1
 40
1.0
176
     1
 90
        0
176
     1
 62
    18
420
        0
176
     1
 90
       50
176
     1
 90
        3
176
     1
 62
     5
420
      255
176
     1
290
     0
176
     1
 90
       50
176
     1
 90
       50
176
     1
 90
       50
176
     1
290
     0
176
     1
 90
       50
176
     1
 62
   256
176
     0
 40
1.0
176
     0
 90
        0
176
     1
  1
strokes_ogs.tif
176
     1
290
     0
176
     1
 40
1.0
176
     1
 40
1.0
176
     1
  0
VISUALSTYLE
  5
153
102
{ACAD_REACTORS
330
145
102
}
330
145
100
AcDbVisualStyle
  2
Linepattern
 70
    14
177
     3
291
     1
 70
    58
 90
        2
176
     1
 90
        2
176
     1
 90
        0
176
     1
 90
        0
176
     1
 40
0.6
176
     1
 40
30.0
176
     1
 62
     7
420
 16777215
176
     1
 90
        1
176
     1
 90
        4
176
     1
 62
     7
176
     1
 62
   257
176
     1
 90
        7
176
     1
 90
        7
176
     1
 40
1.0
176
     1
 90
        8
176
     1
 62
     7
176
     1
 40
1.0
176
     1
 90
        1
176
     1
 90
        6
176
     1
 90
        2
176
     1
 62
     7
176
     1
 90
        5
176
     1
 90
        0
176
     1
 90
        0
176
     1
290
     0
176
     1
 90
        1
176
     1
 40
0.0
176
     1
 90
        0
176
     1
290
     0
176
     1
290
     1
176
     1
290
     1
176
     1
290
     0
176
     1
290
     0
176
     1
290
     0
176
     1
290
     0
176
     1
290
     0
176
     1
290
     0
176
     1
 90
       50
176
     1
 40
0.0
176
     1
 40
1.0
176
     1
 90
        0
176
     1
 62
    18
420
        0
176
     1
 90
       50
176
     1
 90
        3
176
     1
 62
     5
420
      255
176
     1
290
     0
176
     1
 90
       50
176
     1
 90
       50
176
     1
 90
       50
176
     1
290
     0
176
     1
 90
       50
176
     1
 62
   256
176
     0
 40
1.0
176
     0
 90
        0
176
     1
  1
strokes_ogs.tif
176
     1
290
     0
176
     1
 40
1.0
176
     1
 40
1.0
176
     1
  0
VISUALSTYLE
  5
15C
102
{ACAD_REACTORS
330
145
102
}
330
145
100
AcDbVisualStyle
  2
OverhangOff
 70
    21
177
     3
291
     1
 70
    58
 90
        2
176
     0
 90
        2
176
     0
 90
        0
176
     0
 90
        0
176
     0
 40
0.6
176
     0
 40
30.0
176
     0
 62
     7
420
 16777215
176
     0
 90
        1
176
     0
 90
        4
176
     0
 62
     7
176
     0
 62
   257
176
     0
 90
        1
176
     0
 90
        1
176
     0
 40
1.0
176
     0
 90
        9
176
     2
 62
     7
176
     0
 40
1.0
176
     0
 90
        1
176
     0
 90
        6
176
     0
 90
        2
176
     0
 62
     7
176
     0
 90
        5
176
     0
 90
        0
176
     0
 90
        0
176
     0
290
     0
176
     0
 90
        1
176
     0
 40
0.0
176
     0
 90
        0
176
     0
290
     0
176
     1
290
     1
176
     1
290
     1
176
     1
290
     0
176
     1
290
     0
176
     1
290
     0
176
     1
290
     0
176
     1
290
     0
176
     1
290
     0
176
     1
 90
       50
176
     1
 40
0.0
176
     1
 40
1.0
176
     1
 90
        0
176
     1
 62
    18
420
        0
176
     1
 90
       50
176
     1
 90
        3
176
     1
 62
     5
420
      255
176
     1
290
     0
176
     1
 90
       50
176
     1
 90
       50
176
     1
 90
       50
176
     1
290
     0
176
     1
 90
       50
176
     1
 62
   256
176
     0
 40
1.0
176
     0
 90
        0
176
     1
  1
strokes_ogs.tif
176
     1
290
     0
176
     1
 40
1.0
176
     1
 40
1.0
176
     1
  0
VISUALSTYLE
  5
14F
102
{ACAD_REACTORS
330
145
102
}
330
145
100
AcDbVisualStyle
  2
Realistic
 70
     8
177
     3
291
     0
 70
    58
 90
        2
176
     1
 90
        3
176
     1
 90
        0
176
     1
 90
        2
176
     1
 40
0.6
176
     1
 40
30.0
176
     1
 62
     7
420
 16777215
176
     1
 90
        0
176
     1
 90
        0
176
     1
 62
     7
176
     1
 62
   257
176
     1
 90
        1
176
     1
 90
        1
176
     1
 40
1.0
176
     1
 90
        8
176
     1
 62
   257
176
     1
 40
1.0
176
     1
 90
        1
176
     1
 90
        6
176
     1
 90
        2
176
     1
 62
     7
176
     1
 90
        3
176
     1
 90
        0
176
     1
 90
        0
176
     1
290
     0
176
     1
 90
       13
176
     1
 40
0.0
176
     1
 90
        0
176
     1
290
     0
176
     1
290
     1
176
     1
290
     1
176
     1
290
     0
176
     1
290
     0
176
     1
290
     0
176
     1
290
     0
176
     1
290
     0
176
     1
290
     0
176
     1
 90
       50
176
     1
 40
0.0
176
     1
 40
1.0
176
     1
 90
        0
176
     1
 62
    18
420
        0
176
     1
 90
       50
176
     1
 90
        3
176
     1
 62
     5
420
      255
176
     1
290
     0
176
     1
 90
       50
176
     1
 90
       50
176
     1
 90
       50
176
     1
290
     0
176
     1
 90
       50
176
     1
 62
   256
176
     0
 40
1.0
176
     0
 90
        0
176
     1
  1
strokes_ogs.tif
176
     1
290
     0
176
     1
 40
1.0
176
     1
 40
1.0
176
     1
  0
VISUALSTYLE
  5
15A
102
{ACAD_REACTORS
330
145
102
}
330
145
100
AcDbVisualStyle
  2
Shaded
 70
    27
177
     3
291
     0
 70
    58
 90
        2
176
     1
 90
        2
176
     1
 90
        1
176
     1
 90
        2
176
     1
 40
0.6
176
     1
 40
30.0
176
     1
 62
     7
420
 16777215
176
     1
 90
        0
176
     1
 90
        4
176
     1
 62
     7
176
     1
 62
   257
176
     1
 90
        1
176
     1
 90
        1
176
     1
 40
1.0
176
     1
 90
        8
176
     1
 62
   257
176
     1
 40
1.0
176
     1
 90
        1
176
     1
 90
        6
176
     1
 90
        2
176
     1
 62
     8
420
  7895160
176
     1
 90
        3
176
     1
 90
        0
176
     1
 90
        0
176
     1
290
     0
176
     1
 90
        5
176
     1
 40
0.0
176
     1
 90
        0
176
     1
290
     0
176
     1
290
     1
176
     1
290
     1
176
     1
290
     0
176
     1
290
     0
176
     1
290
     0
176
     1
290
     0
176
     1
290
     0
176
     1
290
     0
176
     1
 90
       50
176
     1
 40
0.0
176
     1
 40
1.0
176
     1
 90
        0
176
     1
 62
    18
420
        0
176
     1
 90
       50
176
     1
 90
        3
176
     1
 62
     5
420
      255
176
     1
290
     0
176
     1
 90
       50
176
     1
 90
       50
176
     1
 90
       50
176
     1
290
     0
176
     1
 90
       50
176
     1
 62
   256
176
     0
 40
1.0
176
     0
 90
        0
176
     1
  1
strokes_ogs.tif
176
     1
290
     0
176
     1
 40
1.0
176
     1
 40
1.0
176
     1
  0
VISUALSTYLE
  5
159
102
{ACAD_REACTORS
330
145
102
}
330
145
100
AcDbVisualStyle
  2
Shaded with edges
 70
    26
177
     3
291
     0
 70
    58
 90
        2
176
     1
 90
        2
176
     1
 90
        1
176
     1
 90
        2
176
     1
 40
0.6
176
     1
 40
30.0
176
     1
 62
     7
420
 16777215
176
     1
 90
        1
176
     1
 90
       10
176
     1
 62
     7
176
     1
 62
   257
176
     1
 90
        2
176
     1
 90
        1
176
     1
 40
1.0
176
     1
 90
        8
176
     1
 62
   257
176
     1
 40
1.0
176
     1
 90
        1
176
     1
 90
        6
176
     1
 90
        2
176
     1
 62
     7
176
     1
 90
        3
176
     1
 90
        0
176
     1
 90
        0
176
     1
290
     0
176
     1
 90
        5
176
     1
 40
0.0
176
     1
 90
        0
176
     1
290
     0
176
     1
290
     1
176
     1
290
     1
176
     1
290
     0
176
     1
290
     0
176
     1
290
     0
176
     1
290
     0
176
     1
290
     0
176
     1
290
     0
176
     1
 90
       50
176
     1
 40
0.0
176
     1
 40
1.0
176
     1
 90
        0
176
     1
 62
    18
420
        0
176
     1
 90
       50
176
     1
 90
        3
176
     1
 62
     5
420
      255
176
     1
290
     0
176
     1
 90
       50
176
     1
 90
       50
176
     1
 90
       50
176
     1
290
     0
176
     1
 90
       50
176
     1
 62
   256
176
     0
 40
1.0
176
     0
 90
        0
176
     1
  1
strokes_ogs.tif
176
     1
290
     0
176
     1
 40
1.0
176
     1
 40
1.0
176
     1
  0
VISUALSTYLE
  5
156
102
{ACAD_REACTORS
330
145
102
}
330
145
100
AcDbVisualStyle
  2
Shades of Gray
 70
    23
177
     3
291
     0
 70
    58
 90
        2
176
     1
 90
        2
176
     1
 90
        3
176
     1
 90
        0
176
     1
 40
0.6
176
     1
 40
30.0
176
     1
 62
     7
420
 16777215
176
     1
 90
        2
176
     1
 90
        2
176
     1
 62
     7
176
     1
 62
     7
176
     1
 90
        1
176
     1
 90
        1
176
     1
 40
40.0
176
     1
 90
        8
176
     1
 62
     7
176
     1
 40
1.0
176
     1
 90
        1
176
     1
 90
        6
176
     1
 90
        2
176
     1
 62
     7
176
     1
 90
        3
176
     1
 90
        0
176
     1
 90
        0
176
     1
290
     0
176
     1
 90
        1
176
     1
 40
0.0
176
     1
 90
        0
176
     1
290
     0
176
     1
290
     1
176
     1
290
     1
176
     1
290
     0
176
     1
290
     0
176
     1
290
     0
176
     1
290
     0
176
     1
290
     0
176
     1
290
     0
176
     1
 90
       50
176
     1
 40
0.0
176
     1
 40
1.0
176
     1
 90
        0
176
     1
 62
    18
420
        0
176
     1
 90
       50
176
     1
 90
        3
176
     1
 62
     5
420
      255
176
     1
290
     0
176
     1
 90
       50
176
     1
 90
       50
176
     1
 90
       50
176
     1
290
     0
176
     1
 90
       50
176
     1
 62
   256
176
     0
 40
1.0
176
     0
 90
        0
176
     1
  1
strokes_ogs.tif
176
     1
290
     0
176
     1
 40
1.0
176
     1
 40
1.0
176
     1
  0
VISUALSTYLE
  5
157
102
{ACAD_REACTORS
330
145
102
}
330
145
100
AcDbVisualStyle
  2
Sketchy
 70
    24
177
     3
291
     0
 70
    58
 90
        1
176
     1
 90
        2
176
     1
 90
        2
176
     1
 90
        0
176
     1
 40
0.6
176
     1
 40
30.0
176
     1
 62
     7
420
 16777215
176
     1
 90
        2
176
     1
 90
        2
176
     1
 62
     7
176
     1
 62
     7
176
     1
 90
        1
176
     1
 90
        1
176
     1
 40
40.0
176
     1
 90
       11
176
     1
 62
     7
176
     1
 40
1.0
176
     1
 90
        1
176
     1
 90
        6
176
     1
 90
        2
176
     1
 62
     7
176
     1
 90
        6
176
     1
 90
        0
176
     1
 90
        0
176
     1
290
     0
176
     1
 90
        1
176
     1
 40
0.0
176
     1
 90
        0
176
     1
290
     0
176
     1
290
     1
176
     1
290
     1
176
     1
290
     0
176
     1
290
     0
176
     1
290
     0
176
     1
290
     0
176
     1
290
     0
176
     1
290
     0
176
     1
 90
       50
176
     1
 40
0.0
176
     1
 40
1.0
176
     1
 90
        0
176
     1
 62
    18
420
        0
176
     1
 90
       50
176
     1
 90
        3
176
     1
 62
     5
420
      255
176
     1
290
     0
176
     1
 90
       50
176
     1
 90
       50
176
     1
 90
       50
176
     1
290
     0
176
     1
 90
       50
176
     1
 62
   256
176
     0
 40
1.0
176
     0
 90
        0
176
     1
  1
strokes_ogs.tif
176
     1
290
     0
176
     1
 40
1.0
176
     1
 40
1.0
176
     1
  0
VISUALSTYLE
  5
152
102
{ACAD_REACTORS
330
145
102
}
330
145
100
AcDbVisualStyle
  2
Thicken
 70
    13
177
     3
291
     1
 70
    58
 90
        2
176
     1
 90
        2
176
     1
 90
        0
176
     1
 90
        0
176
     1
 40
0.6
176
     1
 40
30.0
176
     1
 62
     7
420
 16777215
176
     1
 90
        1
176
     1
 90
        4
176
     1
 62
     7
176
     1
 62
   257
176
     1
 90
        1
176
     1
 90
        1
176
     1
 40
1.0
176
     1
 90
       12
176
     1
 62
     7
176
     1
 40
1.0
176
     1
 90
        1
176
     1
 90
        6
176
     1
 90
        2
176
     1
 62
     7
176
     1
 90
        5
176
     1
 90
        0
176
     1
 90
        0
176
     1
290
     0
176
     1
 90
        1
176
     1
 40
0.0
176
     1
 90
        0
176
     1
290
     0
176
     1
290
     1
176
     1
290
     1
176
     1
290
     0
176
     1
290
     0
176
     1
290
     0
176
     1
290
     0
176
     1
290
     0
176
     1
290
     0
176
     1
 90
       50
176
     1
 40
0.0
176
     1
 40
1.0
176
     1
 90
        0
176
     1
 62
    18
420
        0
176
     1
 90
       50
176
     1
 90
        3
176
     1
 62
     5
420
      255
176
     1
290
     0
176
     1
 90
       50
176
     1
 90
       50
176
     1
 90
       50
176
     1
290
     0
176
     1
 90
       50
176
     1
 62
   256
176
     0
 40
1.0
176
     0
 90
        0
176
     1
  1
strokes_ogs.tif
176
     1
290
     0
176
     1
 40
1.0
176
     1
 40
1.0
176
     1
  0
VISUALSTYLE
  5
14C
102
{ACAD_REACTORS
330
145
102
}
330
145
100
AcDbVisualStyle
  2
Wireframe
 70
     5
177
     3
291
     0
 70
    58
 90
        0
176
     1
 90
        2
176
     1
 90
        0
176
     1
 90
        0
176
     1
 40
0.6
176
     1
 40
30.0
176
     1
 62
     7
420
 16777215
176
     1
 90
        1
176
     1
 90
        4
176
     1
 62
     7
176
     1
 62
   257
176
     1
 90
        1
176
     1
 90
        1
176
     1
 40
1.0
176
     1
 90
        0
176
     1
 62
   257
176
     1
 40
1.0
176
     1
 90
        1
176
     1
 90
        6
176
     1
 90
        2
176
     1
 62
     7
176
     1
 90
        3
176
     1
 90
        0
176
     1
 90
        0
176
     1
290
     0
176
     1
 90
        1
176
     1
 40
0.0
176
     1
 90
        0
176
     1
290
     0
176
     1
290
     1
176
     1
290
     1
176
     1
290
     0
176
     1
290
     0
176
     1
290
     0
176
     1
290
     0
176
     1
290
     0
176
     1
290
     0
176
     1
 90
       50
176
     1
 40
0.0
176
     1
 40
1.0
176
     1
 90
        0
176
     1
 62
    18
420
        0
176
     1
 90
       50
176
     1
 90
        3
176
     1
 62
     5
420
      255
176
     1
290
     0
176
     1
 90
       50
176
     1
 90
       50
176
     1
 90
       50
176
     1
290
     0
176
     1
 90
       50
176
     1
 62
   256
176
     0
 40
1.0
176
     0
 90
        0
176
     1
  1
strokes_ogs.tif
176
     1
290
     0
176
     1
 40
1.0
176
     1
 40
1.0
176
     1
  0
VISUALSTYLE
  5
158
102
{ACAD_REACTORS
330
145
102
}
330
145
100
AcDbVisualStyle
  2
X-Ray
 70
    25
177
     3
291
     0
 70
    58
 90
        2
176
     1
 90
        2
176
     1
 90
        1
176
     1
 90
        1
176
     1
 40
0.5
176
     1
 40
30.0
176
     1
 62
     7
420
 16777215
176
     1
 90
        1
176
     1
 90
        0
176
     1
 62
     7
176
     1
 62
   257
176
     1
 90
        1
176
     1
 90
        1
176
     1
 40
1.0
176
     1
 90
        8
176
     1
 62
     7
176
     1
 40
1.0
176
     1
 90
        1
176
     1
 90
        6
176
     1
 90
        2
176
     1
 62
     7
176
     1
 90
        3
176
     1
 90
        0
176
     1
 90
        0
176
     1
290
     0
176
     1
 90
       13
176
     1
 40
0.0
176
     1
 90
        0
176
     1
290
     0
176
     1
290
     1
176
     1
290
     1
176
     1
290
     0
176
     1
290
     0
176
     1
290
     0
176
     1
290
     0
176
     1
290
     0
176
     1
290
     0
176
     1
 90
       50
176
     1
 40
0.0
176
     1
 40
1.0
176
     1
 90
        0
176
     1
 62
    18
420
        0
176
     1
 90
       50
176
     1
 90
        3
176
     1
 62
     5
420
      255
176
     1
290
     0
176
     1
 90
       50
176
     1
 90
       50
176
     1
 90
       50
176
     1
290
     0
176
     1
 90
       50
176
     1
 62
   256
176
     0
 40
1.0
176
     0
 90
        0
176
     1
  1
strokes_ogs.tif
176
     1
290
     0
176
     1
 40
1.0
176
     1
 40
1.0
176
     1
  0
DICTIONARYVAR
  5
DD
102
{ACAD_REACTORS
330
59
102
}
330
59
100
DictionaryVariables
280
     0
  1
1:1
  0
DICTIONARYVAR
  5
E9
102
{ACAD_REACTORS
330
59
102
}
330
59
100
DictionaryVariables
280
     0
  1
STANDARD
  0
DICTIONARYVAR
  5
98
102
{ACAD_REACTORS
330
59
102
}
330
59
100
DictionaryVariables
280
     0
  1
STANDARD
  0
DICTIONARYVAR
  5
1EE
102
{ACAD_REACTORS
330
59
102
}
330
59
100
DictionaryVariables
280
     0
  1
Metric50
  0
DICTIONARYVAR
  5
1EF
102
{ACAD_REACTORS
330
59
102
}
330
59
100
DictionaryVariables
280
     0
  1
Metric50
  0
DICTIONARYVAR
  5
43
102
{ACAD_REACTORS
330
59
102
}
330
59
100
DictionaryVariables
280
     0
  1
2
  0
DICTIONARYVAR
  5
5E
102
{ACAD_REACTORS
330
59
102
}
330
59
100
DictionaryVariables
280
     0
  1
1
  0
DICTIONARYVAR
  5
B6
102
{ACAD_REACTORS
330
59
102
}
330
59
100
DictionaryVariables
280
     0
  1

  0
DICTIONARYVAR
  5
E2
102
{ACAD_REACTORS
330
59
102
}
330
59
100
DictionaryVariables
280
     0
  1
2
  0
ENDSEC
  0
SECTION
  2
ACDSDATA
 70
     2
 71
     2
  0
ACDSSCHEMA
 90
        0
  1
AcDb3DSolid_ASM_Data
  2
AcDbDs::ID
280
    10
 91
        0
  2
ASM_Data
280
    15
 91
        0
101
ACDSRECORD
 95
        0
 90
        1
  2
AcDbDs::TreatedAsObjectData
280
     1
291
     1
101
ACDSRECORD
 95
        0
 90
        2
  2
AcDbDs::Legacy
280
     1
291
     1
101
ACDSRECORD
  1
AcDbDs::ID
 90
        3
  2
AcDs:Indexable
280
     1
291
     1
101
ACDSRECORD
  1
AcDbDs::ID
 90
        4
  2
AcDbDs::HandleAttribute
280
     7
282
     1
  0
ACDSSCHEMA
 90
        1
  1
AcDbDs::TreatedAsObjectDataSchema
  2
AcDbDs::TreatedAsObjectData
280
     1
 91
        0
  0
ACDSSCHEMA
 90
        2
  1
AcDbDs::LegacySchema
  2
AcDbDs::Legacy
280
     1
 91
        0
  0
ACDSSCHEMA
 90
        3
  1
AcDbDs::IndexedPropertySchema
  2
AcDs:Indexable
280
     1
 91
        0
  0
ACDSSCHEMA
 90
        4
  1
AcDbDs::HandleAttributeSchema
  2
AcDbDs::HandleAttribute
280
     7
 91
        8
  0
ENDSEC
  0
EOF
