  0
SECTION
  2
HEADER
  9
$ACADVER
  1
AC1027
  9
$ACADMAINTVER
 70
     8
  9
$DWGCODEPAGE
  3
ANSI_936
  9
$LASTSAVEDBY
  1
ezdxf
  9
$REQUIREDVERSIONS
160
                 0
  9
$INSBASE
 10
0.0
 20
0.0
 30
0.0
  9
$EXTMIN
 10
215.9984431305619
 20
-470.9398746909155
 30
0.0
  9
$EXTMAX
 10
832.7669260275209
 20
-17.24976392668486
 30
0.0
  9
$LIMMIN
 10
0.0
 20
0.0
  9
$LIMMAX
 10
420.0
 20
297.0
  9
$ORTHOMODE
 70
     0
  9
$REGENMODE
 70
     1
  9
$FILLMODE
 70
     1
  9
$QTEXTMODE
 70
     0
  9
$MIRRTEXT
 70
     1
  9
$LTSCALE
 40
1.0
  9
$ATTMODE
 70
     1
  9
$TEXTSIZE
 40
2.5
  9
$TRACEWID
 40
1.0
  9
$TEXTSTYLE
  7
Standard
  9
$CLAYER
  8
0
  9
$CELTYPE
  6
ByLayer
  9
$CECOLOR
 62
   256
  9
$CELTSCALE
 40
1.0
  9
$DISPSILH
 70
     0
  9
$DIMSCALE
 40
1.0
  9
$DIMASZ
 40
2.5
  9
$DIMEXO
 40
0.625
  9
$DIMDLI
 40
3.75
  9
$DIMRND
 40
0.0
  9
$DIMDLE
 40
0.0
  9
$DIMEXE
 40
1.25
  9
$DIMTP
 40
0.0
  9
$DIMTM
 40
0.0
  9
$DIMTXT
 40
2.5
  9
$DIMCEN
 40
2.5
  9
$DIMTSZ
 40
0.0
  9
$DIMTOL
 70
     0
  9
$DIMLIM
 70
     0
  9
$DIMTIH
 70
     0
  9
$DIMTOH
 70
     0
  9
$DIMSE1
 70
     0
  9
$DIMSE2
 70
     0
  9
$DIMTAD
 70
     1
  9
$DIMZIN
 70
     8
  9
$DIMBLK
  1

  9
$DIMASO
 70
     1
  9
$DIMSHO
 70
     1
  9
$DIMPOST
  1

  9
$DIMAPOST
  1

  9
$DIMALT
 70
     0
  9
$DIMALTD
 70
     3
  9
$DIMALTF
 40
0.03937007874
  9
$DIMLFAC
 40
1.0
  9
$DIMTOFL
 70
     1
  9
$DIMTVP
 40
0.0
  9
$DIMTIX
 70
     0
  9
$DIMSOXD
 70
     0
  9
$DIMSAH
 70
     0
  9
$DIMBLK1
  1

  9
$DIMBLK2
  1

  9
$DIMSTYLE
  2
Standard
  9
$DIMCLRD
 70
     0
  9
$DIMCLRE
 70
     0
  9
$DIMCLRT
 70
     0
  9
$DIMTFAC
 40
1.0
  9
$DIMGAP
 40
0.625
  9
$DIMJUST
 70
     0
  9
$DIMSD1
 70
     0
  9
$DIMSD2
 70
     0
  9
$DIMTOLJ
 70
     0
  9
$DIMTZIN
 70
     8
  9
$DIMALTZ
 70
     0
  9
$DIMALTTZ
 70
     0
  9
$DIMUPT
 70
     0
  9
$DIMDEC
 70
     2
  9
$DIMTDEC
 70
     2
  9
$DIMALTU
 70
     2
  9
$DIMALTTD
 70
     3
  9
$DIMTXSTY
  7
Standard
  9
$DIMAUNIT
 70
     0
  9
$DIMADEC
 70
     0
  9
$DIMALTRND
 40
0.0
  9
$DIMAZIN
 70
     0
  9
$DIMDSEP
 70
    44
  9
$DIMATFIT
 70
     3
  9
$DIMFRAC
 70
     0
  9
$DIMLDRBLK
  1

  9
$DIMLUNIT
 70
     2
  9
$DIMLWD
 70
    -2
  9
$DIMLWE
 70
    -2
  9
$DIMTMOVE
 70
     0
  9
$DIMFXL
 40
1.0
  9
$DIMFXLON
 70
     0
  9
$DIMJOGANG
 40
0.785398163397
  9
$DIMTFILL
 70
     0
  9
$DIMTFILLCLR
 70
     0
  9
$DIMARCSYM
 70
     0
  9
$DIMLTYPE
  6

  9
$DIMLTEX1
  6

  9
$DIMLTEX2
  6

  9
$DIMTXTDIRECTION
 70
     0
  9
$LUNITS
 70
     2
  9
$LUPREC
 70
     4
  9
$SKETCHINC
 40
1.0
  9
$FILLETRAD
 40
10.0
  9
$AUNITS
 70
     0
  9
$AUPREC
 70
     2
  9
$MENU
  1
.
  9
$ELEVATION
 40
0.0
  9
$PELEVATION
 40
0.0
  9
$THICKNESS
 40
0.0
  9
$LIMCHECK
 70
     0
  9
$CHAMFERA
 40
0.0
  9
$CHAMFERB
 40
0.0
  9
$CHAMFERC
 40
0.0
  9
$CHAMFERD
 40
0.0
  9
$SKPOLY
 70
     0
  9
$TDCREATE
 40
2458532.487330231
  9
$TDUCREATE
 40
2458532.153996898
  9
$TDUPDATE
 40
2460747.686052037
  9
$TDUUPDATE
 40
2460747.352718704
  9
$TDINDWG
 40
0.005086794
  9
$TDUSRTIMER
 40
0.005086331
  9
$USRTIMER
 70
     1
  9
$ANGBASE
 50
0.0
  9
$ANGDIR
 70
     0
  9
$PDMODE
 70
     0
  9
$PDSIZE
 40
0.0
  9
$PLINEWID
 40
0.0
  9
$SPLFRAME
 70
     0
  9
$SPLINETYPE
 70
     6
  9
$SPLINESEGS
 70
     8
  9
$HANDSEED
  5
6413
  9
$SURFTAB1
 70
     6
  9
$SURFTAB2
 70
     6
  9
$SURFTYPE
 70
     6
  9
$SURFU
 70
     6
  9
$SURFV
 70
     6
  9
$UCSBASE
  2

  9
$UCSNAME
  2

  9
$UCSORG
 10
0.0
 20
0.0
 30
0.0
  9
$UCSXDIR
 10
1.0
 20
0.0
 30
0.0
  9
$UCSYDIR
 10
0.0
 20
1.0
 30
0.0
  9
$UCSORTHOREF
  2

  9
$UCSORTHOVIEW
 70
     0
  9
$UCSORGTOP
 10
0.0
 20
0.0
 30
0.0
  9
$UCSORGBOTTOM
 10
0.0
 20
0.0
 30
0.0
  9
$UCSORGLEFT
 10
0.0
 20
0.0
 30
0.0
  9
$UCSORGRIGHT
 10
0.0
 20
0.0
 30
0.0
  9
$UCSORGFRONT
 10
0.0
 20
0.0
 30
0.0
  9
$UCSORGBACK
 10
0.0
 20
0.0
 30
0.0
  9
$PUCSBASE
  2

  9
$PUCSNAME
  2

  9
$PUCSORG
 10
0.0
 20
0.0
 30
0.0
  9
$PUCSXDIR
 10
1.0
 20
0.0
 30
0.0
  9
$PUCSYDIR
 10
0.0
 20
1.0
 30
0.0
  9
$PUCSORTHOREF
  2

  9
$PUCSORTHOVIEW
 70
     0
  9
$PUCSORGTOP
 10
0.0
 20
0.0
 30
0.0
  9
$PUCSORGBOTTOM
 10
0.0
 20
0.0
 30
0.0
  9
$PUCSORGLEFT
 10
0.0
 20
0.0
 30
0.0
  9
$PUCSORGRIGHT
 10
0.0
 20
0.0
 30
0.0
  9
$PUCSORGFRONT
 10
0.0
 20
0.0
 30
0.0
  9
$PUCSORGBACK
 10
0.0
 20
0.0
 30
0.0
  9
$USERI1
 70
     0
  9
$USERI2
 70
     0
  9
$USERI3
 70
     0
  9
$USERI4
 70
     0
  9
$USERI5
 70
     0
  9
$USERR1
 40
0.0
  9
$USERR2
 40
0.0
  9
$USERR3
 40
0.0
  9
$USERR4
 40
0.0
  9
$USERR5
 40
0.0
  9
$WORLDVIEW
 70
     1
  9
$SHADEDGE
 70
     3
  9
$SHADEDIF
 70
    70
  9
$TILEMODE
 70
     1
  9
$MAXACTVP
 70
    64
  9
$PINSBASE
 10
0.0
 20
0.0
 30
0.0
  9
$PLIMCHECK
 70
     0
  9
$PEXTMIN
 10
1.000000000000000E+20
 20
1.000000000000000E+20
 30
1.000000000000000E+20
  9
$PEXTMAX
 10
-1.000000000000000E+20
 20
-1.000000000000000E+20
 30
-1.000000000000000E+20
  9
$PLIMMIN
 10
0.0
 20
0.0
  9
$PLIMMAX
 10
420.0
 20
297.0
  9
$UNITMODE
 70
     0
  9
$VISRETAIN
 70
     1
  9
$PLINEGEN
 70
     0
  9
$PSLTSCALE
 70
     1
  9
$TREEDEPTH
 70
  3020
  9
$CMLSTYLE
  2
Standard
  9
$CMLJUST
 70
     0
  9
$CMLSCALE
 40
20.0
  9
$PROXYGRAPHICS
 70
     1
  9
$MEASUREMENT
 70
     1
  9
$CELWEIGHT
370
    -1
  9
$ENDCAPS
280
     0
  9
$JOINSTYLE
280
     0
  9
$LWDISPLAY
290
     0
  9
$INSUNITS
 70
     6
  9
$HYPERLINKBASE
  1

  9
$STYLESHEET
  1

  9
$XEDIT
290
     1
  9
$CEPSNTYPE
380
     0
  9
$PSTYLEMODE
290
     1
  9
$FINGERPRINTGUID
  2
{C666A9BD-0B0C-4B08-896A-4999DA324659}
  9
$VERSIONGUID
  2
{DF496E61-C7DB-4F21-9481-45657746601D}
  9
$EXTNAMES
290
     1
  9
$PSVPSCALE
 40
0.0
  9
$OLESTARTUP
290
     0
  9
$SORTENTS
280
   127
  9
$INDEXCTL
280
     0
  9
$HIDETEXT
280
     1
  9
$XCLIPFRAME
280
     0
  9
$HALOGAP
280
     0
  9
$OBSCOLOR
 70
   257
  9
$OBSLTYPE
280
     0
  9
$INTERSECTIONDISPLAY
280
     0
  9
$INTERSECTIONCOLOR
 70
   257
  9
$DIMASSOC
280
     2
  9
$PROJECTNAME
  1

  9
$CAMERADISPLAY
290
     0
  9
$LENSLENGTH
 40
50.0
  9
$CAMERAHEIGHT
 40
0.0
  9
$STEPSPERSEC
 40
24.0
  9
$STEPSIZE
 40
100.0
  9
$3DDWFPREC
 40
2.0
  9
$PSOLWIDTH
 40
0.005
  9
$PSOLHEIGHT
 40
0.08
  9
$LOFTANG1
 40
1.570796326795
  9
$LOFTANG2
 40
1.570796326795
  9
$LOFTMAG1
 40
0.0
  9
$LOFTMAG2
 40
0.0
  9
$LOFTPARAM
 70
     7
  9
$LOFTNORMALS
280
     1
  9
$LATITUDE
 40
37.795
  9
$LONGITUDE
 40
-122.394
  9
$NORTHDIRECTION
 40
0.0
  9
$TIMEZONE
 70
 -8000
  9
$LIGHTGLYPHDISPLAY
280
     1
  9
$TILEMODELIGHTSYNCH
280
     1
  9
$CMATERIAL
347
20
  9
$SOLIDHIST
280
     0
  9
$SHOWHIST
280
     1
  9
$DWFFRAME
280
     2
  9
$DGNFRAME
280
     2
  9
$REALWORLDSCALE
290
     1
  9
$INTERFERECOLOR
 62
   256
  9
$CSHADOW
280
     0
  9
$SHADOWPLANELOCATION
 40
0.0
  0
ENDSEC
  0
SECTION
  2
CLASSES
  0
CLASS
  1
ACDBDICTIONARYWDFLT
  2
AcDbDictionaryWithDefault
  3
ObjectDBX Classes
 90
        0
 91
        1
280
     0
281
     0
  0
CLASS
  1
SUN
  2
AcDbSun
  3
SCENEOE
 90
     1153
 91
        0
280
     0
281
     0
  0
CLASS
  1
VISUALSTYLE
  2
AcDbVisualStyle
  3
ObjectDBX Classes
 90
     4095
 91
       24
280
     0
281
     0
  0
CLASS
  1
MATERIAL
  2
AcDbMaterial
  3
ObjectDBX Classes
 90
     1153
 91
        3
280
     0
281
     0
  0
CLASS
  1
SCALE
  2
AcDbScale
  3
ObjectDBX Classes
 90
     1153
 91
        0
280
     0
281
     0
  0
CLASS
  1
TABLESTYLE
  2
AcDbTableStyle
  3
ObjectDBX Classes
 90
     4095
 91
        1
280
     0
281
     0
  0
CLASS
  1
MLEADERSTYLE
  2
AcDbMLeaderStyle
  3
ACDB_MLEADERSTYLE_CLASS
 90
     4095
 91
        1
280
     0
281
     0
  0
CLASS
  1
DICTIONARYVAR
  2
AcDbDictionaryVar
  3
ObjectDBX Classes
 90
        0
 91
        2
280
     0
281
     0
  0
CLASS
  1
CELLSTYLEMAP
  2
AcDbCellStyleMap
  3
ObjectDBX Classes
 90
     1152
 91
        0
280
     0
281
     0
  0
CLASS
  1
MENTALRAYRENDERSETTINGS
  2
AcDbMentalRayRenderSettings
  3
SCENEOE
 90
     1024
 91
        0
280
     0
281
     0
  0
CLASS
  1
ACDBDETAILVIEWSTYLE
  2
AcDbDetailViewStyle
  3
ObjectDBX Classes
 90
     1025
 91
        0
280
     0
281
     0
  0
CLASS
  1
ACDBSECTIONVIEWSTYLE
  2
AcDbSectionViewStyle
  3
ObjectDBX Classes
 90
     1025
 91
        0
280
     0
281
     0
  0
CLASS
  1
RASTERVARIABLES
  2
AcDbRasterVariables
  3
ISM
 90
        0
 91
        0
280
     0
281
     0
  0
CLASS
  1
ACDBPLACEHOLDER
  2
AcDbPlaceHolder
  3
ObjectDBX Classes
 90
        0
 91
        0
280
     0
281
     0
  0
CLASS
  1
LAYOUT
  2
AcDbLayout
  3
ObjectDBX Classes
 90
        0
 91
        0
280
     0
281
     0
  0
CLASS
  1
DBCOLOR
  2
AcDbColor
  3
ObjectDBX Classes
 90
        0
 91
        1
280
     0
281
     0
  0
CLASS
  1
SORTENTSTABLE
  2
AcDbSortentsTable
  3
ObjectDBX Classes
 90
        0
 91
        2
280
     0
281
     0
  0
ENDSEC
  0
SECTION
  2
TABLES
  0
TABLE
  2
VPORT
  5
8
330
0
100
AcDbSymbolTable
 70
     1
  0
VPORT
  5
23
330
8
100
AcDbSymbolTableRecord
100
AcDbViewportTableRecord
  2
*Active
 70
     0
 10
0.0
 20
0.0
 11
1.0
 21
1.0
 12
601.6787514826309
 22
-283.9276986040299
 13
0.0
 23
0.0
 14
0.5
 24
0.5
 15
0.5
 25
0.5
 16
0.0
 26
0.0
 36
1.0
 17
0.0
 27
0.0
 37
0.0
 40
460.3203773498545
 41
1.290480065093571
 42
50.0
 43
0.0
 44
0.0
 50
0.0
 51
0.0
 71
     0
 72
  1000
 73
     1
 74
     3
 75
     0
 76
     0
 77
     0
 78
     0
281
     0
 65
     0
110
0.0
120
0.0
130
0.0
111
1.0
121
0.0
131
0.0
112
0.0
122
1.0
132
0.0
 79
     0
146
0.0
348
18BA
 60
     3
 61
     5
292
     1
282
     1
141
0.0
142
0.0
 63
   256
  0
ENDTAB
  0
TABLE
  2
LTYPE
  5
2
330
0
100
AcDbSymbolTable
 70
     1
  0
LTYPE
  5
24
330
2
100
AcDbSymbolTableRecord
100
AcDbLinetypeTableRecord
  2
ByBlock
 70
     0
  3

 72
    65
 73
     0
 40
0.0
  0
LTYPE
  5
25
330
2
100
AcDbSymbolTableRecord
100
AcDbLinetypeTableRecord
  2
ByLayer
 70
     0
  3

 72
    65
 73
     0
 40
0.0
  0
LTYPE
  5
26
330
2
100
AcDbSymbolTableRecord
100
AcDbLinetypeTableRecord
  2
Continuous
 70
     0
  3

 72
    65
 73
     0
 40
0.0
  0
ENDTAB
  0
TABLE
  2
LAYER
  5
1
102
{ACAD_XDICTIONARY
360
1989
102
}
330
0
100
AcDbSymbolTable
 70
    15
  0
LAYER
  5
27
330
1
100
AcDbSymbolTableRecord
100
AcDbLayerTableRecord
  2
0
 70
     0
 62
     7
  6
Continuous
370
    -3
390
13
347
21
348
0
  0
LAYER
  5
28
330
1
100
AcDbSymbolTableRecord
100
AcDbLayerTableRecord
  2
Defpoints
 70
     0
 62
     7
  6
Continuous
290
     0
370
    -3
390
13
347
21
348
0
  0
LAYER
  5
18CF
330
1
100
AcDbSymbolTableRecord
100
AcDbLayerTableRecord
  2
图层6
 70
     0
 62
     7
  6
Continuous
370
    -3
390
13
347
21
348
0
  0
LAYER
  5
18D0
330
1
100
AcDbSymbolTableRecord
100
AcDbLayerTableRecord
  2
图层4
 70
     0
 62
     7
  6
Continuous
370
    -3
390
13
347
21
348
0
  0
LAYER
  5
18D1
330
1
100
AcDbSymbolTableRecord
100
AcDbLayerTableRecord
  2
图层3
 70
     0
 62
     7
  6
Continuous
370
    -3
390
13
347
21
348
0
  0
LAYER
  5
18D2
330
1
100
AcDbSymbolTableRecord
100
AcDbLayerTableRecord
  2
图层2
 70
     0
 62
     7
  6
Continuous
370
    -3
390
13
347
21
348
0
  0
LAYER
  5
18D3
330
1
100
AcDbSymbolTableRecord
100
AcDbLayerTableRecord
  2
图层1
 70
     0
 62
     7
  6
Continuous
370
    -3
390
13
347
21
348
0
  0
LAYER
  5
18DC
102
{ACAD_XDICTIONARY
360
18DD
102
}
330
1
100
AcDbSymbolTableRecord
100
AcDbLayerTableRecord
  2
3-1煤巷道
 70
     0
 62
     6
  6
Continuous
370
    -3
390
13
347
21
348
0
  0
LAYER
  5
18E3
102
{ACAD_XDICTIONARY
360
18E4
102
}
330
1
100
AcDbSymbolTableRecord
100
AcDbLayerTableRecord
  2
图签
 70
     0
 62
     7
  6
Continuous
370
    -3
390
13
347
21
348
0
  0
LAYER
  5
18E6
330
1
100
AcDbSymbolTableRecord
100
AcDbLayerTableRecord
  2
抽象图斜巷
 70
     0
 62
     7
  6
Continuous
370
    -3
390
13
347
21
348
0
1001
AcAecLayerStandard
1000

1000

  0
LAYER
  5
18D8
102
{ACAD_XDICTIONARY
360
18D9
102
}
330
1
100
AcDbSymbolTableRecord
100
AcDbLayerTableRecord
  2
图例
 70
     0
 62
     7
  6
Continuous
370
    -3
390
13
347
21
348
0
  0
LAYER
  5
18E7
330
1
100
AcDbSymbolTableRecord
100
AcDbLayerTableRecord
  2
指北针
 70
     0
 62
     1
  6
Continuous
370
    -3
390
13
347
21
348
0
  0
LAYER
  5
18E8
330
1
100
AcDbSymbolTableRecord
100
AcDbLayerTableRecord
  2
风向标志
 70
     0
 62
     7
  6
Continuous
370
    -3
390
13
347
21
348
0
1001
AcAecLayerStandard
1000

1000

  0
LAYER
  5
18E9
330
1
100
AcDbSymbolTableRecord
100
AcDbLayerTableRecord
  2
巷道名称
 70
     0
 62
     7
  6
Continuous
370
    -3
390
13
347
21
348
0
1001
AcAecLayerStandard
1000

1000

1001
AcCmTransparency
1071
        0
  0
LAYER
  5
18DF
102
{ACAD_XDICTIONARY
360
18E0
102
}
330
1
100
AcDbSymbolTableRecord
100
AcDbLayerTableRecord
  2
签字
 70
     0
 62
     7
  6
Continuous
370
    -3
390
13
347
21
348
0
1001
AcAecLayerStandard
1000

1000

  0
ENDTAB
  0
TABLE
  2
STYLE
  5
5
330
0
100
AcDbSymbolTable
 70
     3
  0
STYLE
  5
29
330
5
100
AcDbSymbolTableRecord
100
AcDbTextStyleTableRecord
  2
Standard
 70
     0
 40
0.0
 41
1.0
 50
0.0
 71
     0
 42
2.5
  3
txt
  4

  0
STYLE
  5
4B4C
330
5
100
AcDbSymbolTableRecord
100
AcDbTextStyleTableRecord
  2
msyh
 70
     0
 40
0.0
 41
1.0
 50
0.0
 71
     0
 42
2.5
  3
data/msyh.ttc
  4

  0
STYLE
  5
18F6
330
5
100
AcDbSymbolTableRecord
100
AcDbTextStyleTableRecord
  2
样式 3
 70
     0
 40
15.0
 41
1.0
 50
0.0
 71
     0
 42
15.0
  3

  4

1001
ACAD
1000
SimSun
1071
    34306
  0
ENDTAB
  0
TABLE
  2
VIEW
  5
7
330
0
100
AcDbSymbolTable
 70
     0
  0
ENDTAB
  0
TABLE
  2
UCS
  5
6
330
0
100
AcDbSymbolTable
 70
     0
  0
ENDTAB
  0
TABLE
  2
APPID
  5
3
330
0
100
AcDbSymbolTable
 70
    14
  0
APPID
  5
2A
330
3
100
AcDbSymbolTableRecord
100
AcDbRegAppTableRecord
  2
ACAD
 70
     0
  0
APPID
  5
18B3
330
3
100
AcDbSymbolTableRecord
100
AcDbRegAppTableRecord
  2
HATCHBACKGROUNDCOLOR
 70
     0
  0
APPID
  5
18B4
330
3
100
AcDbSymbolTableRecord
100
AcDbRegAppTableRecord
  2
EZDXF
 70
     0
  0
APPID
  5
18ED
330
3
100
AcDbSymbolTableRecord
100
AcDbRegAppTableRecord
  2
ACAD_PSEXT
 70
     0
  0
APPID
  5
18F1
330
3
100
AcDbSymbolTableRecord
100
AcDbRegAppTableRecord
  2
AcLayerTools
 70
     0
  0
APPID
  5
18EE
330
3
100
AcDbSymbolTableRecord
100
AcDbRegAppTableRecord
  2
ACAD_NAV_VCDISPLAY
 70
     0
  0
APPID
  5
18E2
330
3
100
AcDbSymbolTableRecord
100
AcDbRegAppTableRecord
  2
AcAecLayerStandard
 70
     0
  0
APPID
  5
18F2
330
3
100
AcDbSymbolTableRecord
100
AcDbRegAppTableRecord
  2
GradientColor1ACI
 70
     0
  0
APPID
  5
18F3
330
3
100
AcDbSymbolTableRecord
100
AcDbRegAppTableRecord
  2
GradientColor2ACI
 70
     0
  0
APPID
  5
18F0
330
3
100
AcDbSymbolTableRecord
100
AcDbRegAppTableRecord
  2
AcDbBlockRepETag
 70
     0
  0
APPID
  5
18EF
330
3
100
AcDbSymbolTableRecord
100
AcDbRegAppTableRecord
  2
AcDbDynamicBlockGUID
 70
     0
  0
APPID
  5
18EA
330
3
100
AcDbSymbolTableRecord
100
AcDbRegAppTableRecord
  2
AcCmTransparency
 70
     0
  0
APPID
  5
18F5
330
3
100
AcDbSymbolTableRecord
100
AcDbRegAppTableRecord
  2
ZWMCAD_GENSCA_13_
 70
     0
  0
APPID
  5
18F4
330
3
100
AcDbSymbolTableRecord
100
AcDbRegAppTableRecord
  2
ZWMCAD_GENSTANDARDFRAME_13_
 70
     0
  0
ENDTAB
  0
TABLE
  2
DIMSTYLE
  5
4
330
0
100
AcDbSymbolTable
 70
     2
100
AcDbDimStyleTable
 71
     0
  0
DIMSTYLE
105
2B
330
4
100
AcDbSymbolTableRecord
100
AcDbDimStyleTableRecord
  2
Standard
 70
     0
 41
2.5
 42
0.625
 43
3.75
 44
1.25
 49
2.5
 73
     0
 74
     0
 77
     1
 78
     8
 79
     3
140
2.5
141
2.5
143
0.03937007874
147
0.625
171
     3
172
     1
179
     2
271
     2
272
     2
274
     3
278
    44
283
     0
284
     8
340
0
  0
DIMSTYLE
105
18EB
330
4
100
AcDbSymbolTableRecord
100
AcDbDimStyleTableRecord
  2
ISO-25
 70
     0
 41
2.5
 42
0.625
 43
3.75
 44
1.25
 49
2.5
 73
     0
 74
     0
 77
     1
 78
     8
 79
     3
140
2.5
141
2.5
143
0.03937007874016
147
0.625
171
     3
172
     1
179
     2
271
     2
272
     2
274
     3
278
    44
283
     0
284
     8
340
29
  0
ENDTAB
  0
TABLE
  2
BLOCK_RECORD
  5
9
330
0
100
AcDbSymbolTable
 70
     3
  0
BLOCK_RECORD
  5
17
330
9
100
AcDbSymbolTableRecord
100
AcDbBlockTableRecord
  2
*MODEL_SPACE
340
1A
 70
     0
280
     1
281
     0
  0
BLOCK_RECORD
  5
1B
330
9
100
AcDbSymbolTableRecord
100
AcDbBlockTableRecord
  2
*PAPER_SPACE
340
1E
 70
     0
280
     1
281
     0
  0
BLOCK_RECORD
  5
1929
330
9
100
AcDbSymbolTableRecord
100
AcDbBlockTableRecord
  2
A$C43F745ED
340
0
102
{BLKREFS
331
199B
331
19CE
102
}
 70
     0
280
     1
281
     0
  0
BLOCK_RECORD
  5
1963
102
{ACAD_XDICTIONARY
360
1964
102
}
330
9
100
AcDbSymbolTableRecord
100
AcDbBlockTableRecord
  2
进风风流
340
0
102
{BLKREFS
331
19C4
102
}
 70
     4
280
     1
281
     0
1001
AcDbDynamicBlockGUID
1000
{A2E5965E-94D9-40DC-865E-F00B918D3633}
1001
AcDbBlockRepETag
1070
     1
1071
        3
1001
ACAD
1000
DesignCenter Data
1002
{
1070
     1
1070
     4
1002
}
  0
BLOCK_RECORD
  5
196C
102
{ACAD_XDICTIONARY
360
196D
102
}
330
9
100
AcDbSymbolTableRecord
100
AcDbBlockTableRecord
  2
回风风流
340
0
102
{BLKREFS
331
19C6
102
}
 70
     4
280
     1
281
     0
1001
AcDbDynamicBlockGUID
1000
{6C08FD84-ABBF-4B9F-AAE9-60A2063082D1}
1001
AcDbBlockRepETag
1070
     1
1071
        4
1001
ACAD
1000
DesignCenter Data
1002
{
1070
     1
1070
     4
1002
}
  0
ENDTAB
  0
ENDSEC
  0
SECTION
  2
BLOCKS
  0
BLOCK
  5
18
330
17
100
AcDbEntity
  8
0
100
AcDbBlockBegin
  2
*MODEL_SPACE
 70
     0
 10
0.0
 20
0.0
 30
0.0
  3
*MODEL_SPACE
  1

  0
ENDBLK
  5
19
330
17
100
AcDbEntity
  8
0
100
AcDbBlockEnd
  0
BLOCK
  5
1C
330
1B
100
AcDbEntity
 67
     1
  8
0
100
AcDbBlockBegin
  2
*PAPER_SPACE
 70
     0
 10
0.0
 20
0.0
 30
0.0
  3
*PAPER_SPACE
  1

  0
ENDBLK
  5
1D
330
1B
100
AcDbEntity
 67
     1
  8
0
100
AcDbBlockEnd
  0
BLOCK
  5
192A
330
1929
100
AcDbEntity
  8
0
100
AcDbBlockBegin
  2
A$C43F745ED
 70
     0
 10
0.0
 20
0.0
 30
0.0
  3
A$C43F745ED
  1

  0
ARC
  5
192B
102
{ACAD_REACTORS
330
1934
102
}
330
1929
100
AcDbEntity
  8
指北针
 62
     0
100
AcDbCircle
 10
28.99352587657597
 20
60.00000001955806
 30
0.0
 40
24.0
100
AcDbArc
 50
108.7834622561057
 51
71.21653774389431
  0
LWPOLYLINE
  5
192C
102
{ACAD_REACTORS
330
1931
102
}
330
1929
100
AcDbEntity
  8
指北针
 62
     0
100
AcDbPolyline
 90
        2
 70
     0
 43
2.0
 10
21.69677850592382
 20
87.03252631305831
 42
7.542062716168816
 10
36.29027324722813
 20
87.03252631305831
 42
7.542062716168816
  0
LWPOLYLINE
  5
192D
330
1929
100
AcDbEntity
  8
指北针
 62
     0
100
AcDbPolyline
 90
        2
 70
     0
 43
0.0
 10
28.99352587657597
 20
160.000000019558
 10
41.06768744779365
 20
39.2583843073665
  0
LWPOLYLINE
  5
192E
330
1929
100
AcDbEntity
  8
指北针
 62
     0
100
AcDbPolyline
 90
        2
 70
     0
 43
0.0
 10
36.20808009226279
 20
32.94542171072709
 10
44.99352587657596
 20
0.0000000195580583
  0
LWPOLYLINE
  5
192F
102
{ACAD_REACTORS
330
1931
102
}
330
1929
100
AcDbEntity
  8
指北针
 62
     0
100
AcDbPolyline
 90
        2
 70
     0
 43
0.0
 10
21.77897166088917
 20
32.94542171072709
 10
12.99352587657597
 20
0.0000000195580583
  0
LWPOLYLINE
  5
1930
102
{ACAD_REACTORS
330
1931
102
}
330
1929
100
AcDbEntity
  8
指北针
 62
     0
100
AcDbPolyline
 90
        2
 70
     0
 43
0.0
 10
16.48829304920912
 20
34.94767174586043
 10
12.99352587657597
 20
0.0000000195580583
  0
HATCH
  5
1931
330
1929
100
AcDbEntity
  8
指北针
 62
     0
100
AcDbHatch
 10
0.0
 20
0.0
 30
0.0
210
0.0
220
0.0
230
1.0
  2
ANSI31
 70
     0
 71
     1
 91
        1
 92
        7
 72
     1
 73
     1
 93
        3
 10
12.99352587657597
 20
0.0000000195580583
 42
0.0
 10
16.48829304920884
 20
34.94767174585785
 42
0.0506373617663375
 10
21.77897166088849
 20
32.94542171072454
 42
0.0
 97
        3
330
1930
330
192C
330
192F
 75
     0
 76
     1
 52
0.0
 41
0.5
 77
     0
 78
     1
 53
45.0
 43
11761.29838383292
 44
-60197.42848236663
 45
-1.122532015133643
 46
1.122532015133643
 79
     0
 47
0.4305984253156204
 98
        1
 10
18.36933522908623
 20
27.34018294946901
  0
LWPOLYLINE
  5
1932
102
{ACAD_REACTORS
330
1934
102
}
330
1929
100
AcDbEntity
  8
指北针
 62
     0
100
AcDbPolyline
 90
        2
 70
     0
 43
0.0
 10
28.99352587657597
 20
160.000000019558
 10
28.99352587657597
 20
60.00000001955806
  0
LWPOLYLINE
  5
1933
102
{ACAD_REACTORS
330
1934
102
}
330
1929
100
AcDbEntity
  8
指北针
 62
     0
100
AcDbPolyline
 90
        2
 70
     0
 43
0.0
 10
28.99352587657597
 20
160.000000019558
 10
16.91936430535827
 20
39.2583843073665
  0
HATCH
  5
1934
330
1929
100
AcDbEntity
  8
指北针
 62
     0
100
AcDbHatch
 10
0.0
 20
0.0
 30
0.0
210
0.0
220
0.0
230
1.0
  2
ANSI31
 70
     0
 71
     1
 91
        1
 92
        7
 72
     1
 73
     1
 93
        5
 10
16.9193643053585
 20
39.25838430736884
 42
0.0
 10
21.26570724977598
 20
82.72181375154881
 42
0.0
 10
28.99352587657597
 20
160.000000019558
 42
0.0
 10
28.99352587657597
 20
60.00000001955806
 42
0.0
 10
22.809622263128
 20
36.81036146912815
 42
-0.0667408752433914
 97
        4
330
1933
330
1932
330
1936
330
192B
 75
     0
 76
     1
 52
0.0
 41
0.5
 77
     0
 78
     1
 53
45.0
 43
11761.29838383292
 44
-60197.42848236663
 45
-1.122532015133643
 46
1.122532015133643
 79
     0
 47
0.5299672789642865
 98
        1
 10
26.54294872952562
 20
81.1484218100889
  0
LWPOLYLINE
  5
1935
330
1929
100
AcDbEntity
  8
指北针
 62
     0
100
AcDbPolyline
 90
        2
 70
     0
 43
0.0
 10
28.99352587657597
 20
60.00000001955806
 10
35.17742949002388
 20
36.8103614691284
  0
LWPOLYLINE
  5
1936
102
{ACAD_REACTORS
330
1934
102
}
330
1929
100
AcDbEntity
  8
指北针
 62
     0
100
AcDbPolyline
 90
        2
 70
     0
 43
0.0
 10
28.99352587657597
 20
60.00000001955806
 10
22.80962226312805
 20
36.8103614691284
  0
LWPOLYLINE
  5
1937
330
1929
100
AcDbEntity
  8
指北针
 62
     0
100
AcDbPolyline
 90
        2
 70
     0
 43
0.0
 10
41.49875870394281
 20
34.94767174586043
 10
44.99352587657596
 20
0.0000000195580583
  0
ENDBLK
  5
1938
330
1929
100
AcDbEntity
  8
0
100
AcDbBlockEnd
  0
BLOCK
  5
1966
330
1963
100
AcDbEntity
  8
0
100
AcDbBlockBegin
  2
进风风流
 70
     0
 10
0.0
 20
0.0
 30
0.0
  3
进风风流
  1

  0
LWPOLYLINE
  5
1967
330
1963
100
AcDbEntity
  8
0
  6
Continuous
 62
     5
100
AcDbPolyline
 90
        2
 70
     0
 43
0.1
 10
-2.5
 20
-0.0000160602548931
 10
1.0
 20
-0.0000160602548931
1001
AcDbBlockRepETag
1070
     1
1071
        0
1005
1967
  0
HATCH
  5
1968
330
1963
100
AcDbEntity
  8
0
 62
     5
100
AcDbHatch
 10
0.0
 20
0.0
 30
0.0
210
0.0
220
0.0
230
1.0
  2
SOLID
 70
     1
 71
     1
 91
        1
 92
        7
 72
     0
 73
     1
 93
        3
 10
1.0
 20
0.2499732329083599
 10
2.5
 20
-0.0000160602548931
 10
1.0
 20
-0.2500053534181461
 97
        1
330
1969
 75
     0
 76
     1
 47
0.0096344173477796
 98
        1
 10
1.309813461595695
 20
0.0175585157276146
450
        0
451
        0
460
0.0
461
0.0
452
        1
462
1.0
453
        2
463
0.0
 63
     5
421
      255
463
1.0
 63
     7
421
 16777215
470
LINEAR
1001
ACAD
1010
0.0
1020
0.0
1030
0.0
1001
AcDbBlockRepETag
1070
     1
1071
        1
1005
1968
  0
LWPOLYLINE
  5
1969
102
{ACAD_REACTORS
330
1968
102
}
330
1963
100
AcDbEntity
  8
0
  6
Continuous
 62
     5
100
AcDbPolyline
 90
        4
 70
     0
 43
0.0
 10
1.0
 20
0.2499732329083599
 10
1.0
 20
-0.2500053534181461
 10
2.5
 20
-0.0000160602548931
 10
1.0
 20
0.2499732329083599
1001
AcDbBlockRepETag
1070
     1
1071
        2
1005
1969
  0
ENDBLK
  5
196A
330
1963
100
AcDbEntity
  8
0
100
AcDbBlockEnd
  0
BLOCK
  5
196F
330
196C
100
AcDbEntity
  8
0
100
AcDbBlockBegin
  2
回风风流
 70
     0
 10
0.0
 20
0.0
 30
0.0
  3
回风风流
  1

  0
HATCH
  5
1970
330
196C
100
AcDbEntity
  8
0
 62
     1
100
AcDbHatch
 10
0.0
 20
0.0
 30
0.0
210
0.0
220
0.0
230
1.0
  2
SOLID
 70
     1
 71
     0
 91
        1
 92
       19
 72
     0
 73
     1
 93
        3
 10
1.0
 20
0.2499732329083599
 10
1.0
 20
-0.2500053534181461
 10
2.5
 20
-0.0000160602548931
 97
        0
 75
     0
 76
     1
 98
        1
 10
-35.28378378378376
 20
1334.47
1001
AcDbBlockRepETag
1070
     1
1071
        0
1005
1970
  0
LWPOLYLINE
  5
1971
330
196C
100
AcDbEntity
  8
0
  6
Continuous
 62
     1
100
AcDbPolyline
 90
       60
 70
     0
 43
0.1
 10
-2.5
 20
-0.0000160602548931
 10
-2.28125
 20
0.1128065109260206
 10
-2.171875
 20
0.1719610570835357
 10
-2.0625
 20
0.2288802764687716
 10
-2.0078125
 20
0.2557120964547721
 10
-1.953125
 20
0.281022983161165
 10
-1.8984375
 20
0.3044561402648469
 10
-1.84375
 20
0.3256113401780567
 10
-1.81640625
 20
0.3351914914815097
 10
-1.7890625
 20
0.3440178887503862
 10
-1.76171875
 20
0.3520123201824389
 10
-1.734375
 20
0.3590823966587777
 10
-1.70703125
 20
0.365113416227814
 10
-1.6796875
 20
0.3699506634857244
 10
-1.666015625
 20
0.3718527978981001
 10
-1.65234375
 20
0.3733575403211944
 10
-1.625
 20
0.3749678794902138
 10
-1.611328125
 20
0.375
 10
-1.59765625
 20
0.3745313227136648
 10
-1.5703125
 20
0.3722933559461126
 10
-1.54296875
 20
0.3686152515456342
 10
-1.515625
 20
0.3637286673028939
 10
-1.48828125
 20
0.3577833093318077
 10
-1.4609375
 20
0.3508887768020941
 10
-1.40625
 20
0.3345865313904142
 10
-1.3515625
 20
0.3153715945841213
 10
-1.296875
 20
0.2936675457913225
 10
-1.1875
 20
0.2441363222906148
 10
-1.078125
 20
0.1882678195552216
 10
-0.96875
 20
0.1279048159440208
 10
-0.53125
 20
-0.127936936453807
 10
-0.421875
 20
-0.1882999400650078
 10
-0.3125
 20
-0.2441684428008557
 10
-0.2578125
 20
-0.2698549781925976
 10
-0.203125
 20
-0.2936996663011086
 10
-0.1484375
 20
-0.3154037150934528
 10
-0.09375
 20
-0.3346186519002003
 10
-0.06640625
 20
-0.3431643571630047
 10
-0.0390625
 20
-0.3509208973118802
 10
-0.01171875
 20
-0.3578154298411391
 10
0.015625
 20
-0.3637607878126801
 10
0.04296875
 20
-0.3686473720554204
 10
0.0703125
 20
-0.3723254764558987
 10
0.083984375
 20
-0.373644070010414
 10
0.09765625
 20
-0.374563443223451
 10
0.125
 20
-0.375
 10
0.138671875
 20
-0.3744371892335039
 10
0.15234375
 20
-0.3733516510228583
 10
0.166015625
 20
-0.3717971747646516
 10
0.1796875
 20
-0.3698290136076139
 10
0.20703125
 20
-0.3648205863214571
 10
0.234375
 20
-0.3585776279396668
 10
0.26171875
 20
-0.3512646992776354
 10
0.2890625
 20
-0.3430040399516656
 10
0.34375
 20
-0.3240193053779876
 10
0.3984375
 20
-0.3022594602889512
 10
0.453125
 20
-0.2782319329585334
 10
0.5625
 20
-0.2250664552962007
 10
0.78125
 20
-0.1085714812843435
 10
1.0
 20
-0.0000160602548931
1001
AcDbBlockRepETag
1070
     1
1071
        1
1005
1971
  0
LWPOLYLINE
  5
1972
330
196C
100
AcDbEntity
  8
0
  6
Continuous
 62
     1
100
AcDbPolyline
 90
        2
 70
     0
 43
0.1
 10
-2.5
 20
-0.0000160602548931
 10
1.0
 20
-0.0000160602548931
1001
AcDbBlockRepETag
1070
     1
1071
        2
1005
1972
  0
LWPOLYLINE
  5
1973
330
196C
100
AcDbEntity
  8
0
  6
Continuous
 62
     1
100
AcDbPolyline
 90
        4
 70
     0
 43
0.0
 10
1.0
 20
0.2499732329083599
 10
1.0
 20
-0.2500053534181461
 10
2.5
 20
-0.0000160602548931
 10
1.0
 20
0.2499732329083599
1001
AcDbBlockRepETag
1070
     1
1071
        3
1005
1973
  0
ENDBLK
  5
1974
330
196C
100
AcDbEntity
  8
0
100
AcDbBlockEnd
  0
ENDSEC
  0
SECTION
  2
ENTITIES
  0
HATCH
  5
11F
330
17
100
AcDbEntity
  8
图层1
 62
    18
420
        0
100
AcDbHatch
 10
0.0
 20
0.0
 30
0.0
210
0.0
220
0.0
230
1.0
  2
SOLID
 70
     1
 71
     0
 91
        1
 92
        1
 93
        2
 72
     1
 10
472.6699322462081
 20
-215.2774362266064
 11
472.4921911954877
 21
-215.3752309083939
 72
     1
 10
472.4921911954877
 20
-215.3752309083939
 11
472.6699322462081
 21
-215.2774362266064
 97
        0
 75
     0
 76
     1
 98
        0
  0
LWPOLYLINE
  5
198C
330
17
100
AcDbEntity
  8
图签
370
     0
100
AcDbPolyline
 90
        4
 70
     1
 43
0.0
 10
377.6986166940115
 20
-470.9398746909155
 10
832.7669260275209
 20
-470.7870639504156
 10
832.7669260275209
 20
-98.3490639504137
 10
377.6986166940115
 20
-98.50187469091359
  0
LWPOLYLINE
  5
198D
330
17
100
AcDbEntity
  8
抽象图斜巷
370
    30
100
AcDbPolyline
 90
        4
 70
     1
 43
0.0
 10
392.2797347197643
 20
-110.5927802988019
 10
820.2269260275128
 20
-110.8890639504109
 10
820.2269260275128
 20
-458.2470639504146
 10
392.2797347197643
 20
-457.9507802988057
  0
MTEXT
  5
198E
330
17
100
AcDbEntity
  8
图签
370
    20
100
AcDbMText
 10
722.5944527547467
 20
-427.4292981331611
 30
0.0
 40
3.633840858510719
 41
20.57067643041337
 46
5.349284439888426
 71
     1
 72
     5
  1
{\fSimSun|b0|i0|c134|p2;制    图}
 73
     1
 44
1.0
1001
ACAD
1000
MTEXTBEGIN
1070
    73
1070
     1
1070
    44
1040
1.0
1070
    74
1070
     0
1000
MTEXTEND
1000
ACAD_MTEXT_DEFINED_HEIGHT_BEGIN
1070
    46
1040
5.349284439888426
1000
ACAD_MTEXT_DEFINED_HEIGHT_END
  0
MTEXT
  5
198F
330
17
100
AcDbEntity
  8
图签
370
    20
100
AcDbMText
 10
722.5944527547467
 20
-435.6208249612912
 30
0.0
 40
3.633840858510719
 41
20.57067643041337
 46
5.349284439888426
 71
     1
 72
     5
  1
{\fSimSun|b0|i0|c134|p2;审    核}
 73
     1
 44
1.0
1001
ACAD
1000
MTEXTBEGIN
1070
    73
1070
     1
1070
    44
1040
1.0
1070
    74
1070
     0
1000
MTEXTEND
1000
ACAD_MTEXT_DEFINED_HEIGHT_BEGIN
1070
    46
1040
5.349284439888426
1000
ACAD_MTEXT_DEFINED_HEIGHT_END
  0
MTEXT
  5
1990
330
17
100
AcDbEntity
  8
图签
370
    20
100
AcDbMText
 10
722.5944527547467
 20
-451.8004572224974
 30
0.0
 40
3.633840858510719
 41
20.57067643041337
 46
5.349284439888426
 71
     1
 72
     5
  1
{\fSimSun|b0|i0|c134|p2;通风副总}
 73
     1
 44
1.0
1001
ACAD
1000
MTEXTBEGIN
1070
    73
1070
     1
1070
    44
1040
1.0
1070
    74
1070
     0
1000
MTEXTEND
1000
ACAD_MTEXT_DEFINED_HEIGHT_BEGIN
1070
    46
1040
5.349284439888426
1000
ACAD_MTEXT_DEFINED_HEIGHT_END
  0
MTEXT
  5
1991
330
17
100
AcDbEntity
  8
图签
370
    20
100
AcDbMText
 10
772.5541280517129
 20
-427.4465821373389
 30
0.0
 40
3.633840858510719
 41
20.57067643041337
 46
5.349284439888426
 71
     1
 72
     5
  1
{\fSimSun|b0|i0|c134|p2;总工程师}
 73
     1
 44
1.0
1001
ACAD
1000
MTEXTBEGIN
1070
    73
1070
     1
1070
    44
1040
1.0
1070
    74
1070
     0
1000
MTEXTEND
1000
ACAD_MTEXT_DEFINED_HEIGHT_BEGIN
1070
    46
1040
5.349284439888426
1000
ACAD_MTEXT_DEFINED_HEIGHT_END
  0
LINE
  5
1992
330
17
100
AcDbEntity
  8
图签
370
    20
100
AcDbLine
 10
744.986926027522
 20
-425.5424962238187
 30
0.0
 11
744.986926027522
 21
-458.2470639504146
 31
0.0
  0
LINE
  5
1993
330
17
100
AcDbEntity
  8
图签
370
    20
100
AcDbLine
 10
770.0669260275092
 20
-425.5424962238187
 30
0.0
 11
770.0669260275092
 21
-458.2470639504146
 31
0.0
  0
LINE
  5
1994
330
17
100
AcDbEntity
  8
图签
370
    30
100
AcDbLine
 10
719.9069260275348
 20
-425.5424962238187
 30
0.0
 11
820.2269260275128
 21
-425.5424962238187
 31
0.0
  0
LINE
  5
1995
330
17
100
AcDbEntity
  8
图签
370
    20
100
AcDbLine
 10
820.2269260275128
 20
-433.718638155465
 30
0.0
 11
719.9069260275348
 21
-433.718638155465
 31
0.0
  0
LINE
  5
1996
330
17
100
AcDbEntity
  8
图签
370
    20
100
AcDbLine
 10
820.2269260275128
 20
-441.8947800871185
 30
0.0
 11
719.9069260275348
 21
-441.8947800871185
 31
0.0
  0
LINE
  5
1997
330
17
100
AcDbEntity
  8
图签
370
    20
100
AcDbLine
 10
820.2269260275128
 20
-450.0709220187684
 30
0.0
 11
719.9069260275348
 21
-450.0709220187684
 31
0.0
  0
MTEXT
  5
1998
330
17
100
AcDbEntity
  8
图签
370
    20
100
AcDbMText
 10
722.6546497361042
 20
-443.2660616645237
 30
0.0
 40
3.633840858510719
 41
20.57067643041337
 46
4.847789023648886
 71
     1
 72
     5
  1
{\fSimSun|b0|i0|c134|p2;通 风 办}
 73
     1
 44
1.0
 90
        2
1001
ACAD
1000
MTEXTBEGIN
1070
    73
1070
     1
1070
    44
1040
1.0
1070
    74
1070
     0
1000
MTEXTEND
1000
ACAD_MTEXT_DEFINED_HEIGHT_BEGIN
1070
    46
1040
4.847789023648886
1000
ACAD_MTEXT_DEFINED_HEIGHT_END
  0
MTEXT
  5
1999
330
17
100
AcDbEntity
  8
图签
370
    20
100
AcDbMText
 10
772.8330033400045
 20
-435.0899197328775
 30
0.0
 40
3.633840858510719
 41
20.57067643041337
 46
4.847789023648886
 71
     1
 72
     5
  1
{\fSimSun|b0|i0|c134|p2;矿    长}
 73
     1
 44
1.0
 90
        2
1001
ACAD
1000
MTEXTBEGIN
1070
    73
1070
     1
1070
    44
1040
1.0
1070
    74
1070
     0
1000
MTEXTEND
1000
ACAD_MTEXT_DEFINED_HEIGHT_BEGIN
1070
    46
1040
4.847789023648886
1000
ACAD_MTEXT_DEFINED_HEIGHT_END
  0
MTEXT
  5
199A
330
17
100
AcDbEntity
  8
图签
370
    20
100
AcDbMText
 10
772.8330033400045
 20
-443.2660616645237
 30
0.0
 40
3.633840858510719
 41
20.57067643041337
 46
4.847789023648886
 71
     1
 72
     5
  1
{\fSimSun|b0|i0|c134|p2;日    期}
 73
     1
 44
1.0
 90
        2
1001
ACAD
1000
MTEXTBEGIN
1070
    73
1070
     1
1070
    44
1040
1.0
1070
    74
1070
     0
1000
MTEXTEND
1000
ACAD_MTEXT_DEFINED_HEIGHT_BEGIN
1070
    46
1040
4.847789023648886
1000
ACAD_MTEXT_DEFINED_HEIGHT_END
  0
INSERT
  5
199B
330
17
100
AcDbEntity
  8
图例
 62
     7
370
    20
100
AcDbBlockReference
  2
A$C43F745ED
 10
709.2562767127012
 20
-435.0849109349012
 30
0.0
 41
0.0278820629278545
 42
0.0278820630181415
 43
0.027882062999998
  0
LWPOLYLINE
  5
199C
330
17
100
AcDbEntity
  8
图例
 62
     7
370
    20
100
AcDbPolyline
 90
        4
 70
     1
 43
0.0
 10
692.9019116972406
 20
-410.9523775330502
 10
702.2906776290398
 20
-410.9523775327772
 10
702.2906776283701
 20
-415.6467604979164
 10
692.9019116968332
 20
-415.6467604989167
  0
LWPOLYLINE
  5
199D
330
17
100
AcDbEntity
  8
图例
 62
     7
370
    20
100
AcDbPolyline
 90
        4
 70
     1
 43
0.0
 10
705.205026591145
 20
-410.9329953212447
 10
714.593792522973
 20
-410.9329953209683
 10
714.5937925222454
 20
-415.6273782861111
 10
705.2050265907958
 20
-415.627378287115
  0
LWPOLYLINE
  5
199E
330
17
100
AcDbEntity
  8
图例
370
    30
100
AcDbPolyline
 90
        4
 70
     1
 43
0.0
 10
687.4433749811496
 20
-401.8170639504145
 10
719.9069260275348
 20
-401.8170639504145
 10
719.9069260275348
 20
-458.2470639504146
 10
687.4433749811496
 20
-458.2470639504146
  0
LWPOLYLINE
  5
199F
330
17
100
AcDbEntity
  8
图例
370
    20
100
AcDbPolyline
 90
        4
 70
     1
 43
0.0
 10
692.8904379154039
 20
-420.9173164205943
 10
702.2792038472028
 20
-420.9173164203177
 10
702.2792038464749
 20
-425.6116993854605
 10
692.8904379150256
 20
-425.6116993864573
  0
LWPOLYLINE
  5
19A0
330
17
100
AcDbEntity
  8
图例
370
    20
100
AcDbPolyline
 90
        4
 70
     1
 43
0.0
 10
692.8904379146763
 20
-430.4381775485756
 10
702.2792038465333
 20
-430.4381775483029
 10
702.2792038458057
 20
-435.1325605134418
 10
692.890437914327
 20
-435.1325605144422
  0
LWPOLYLINE
  5
19A1
330
17
100
AcDbEntity
  8
图例
 62
     7
370
    20
100
AcDbPolyline
 90
        4
 70
     1
 43
0.0
 10
705.0750612391923
 20
-420.9173164202378
 10
714.4638271710203
 20
-420.9173164199685
 10
714.463827170322
 20
-425.6116993851075
 10
705.0750612388431
 20
-425.611699386108
  0
LWPOLYLINE
  5
19A2
330
17
100
AcDbEntity
  8
图例
 62
     7
370
    20
100
AcDbPolyline
 90
        4
 70
     1
 43
0.0
 10
705.075061238552
 20
-430.4381775482191
 10
714.4638271703506
 20
-430.4381775479497
 10
714.463827169623
 20
-435.132560513089
 10
705.0750612381734
 20
-435.1325605140893
  0
MTEXT
  5
19A3
330
17
100
AcDbEntity
  8
图例
100
AcDbMText
 10
693.7538543857292
 20
-416.3609594873864
 30
0.0
 40
1.504799999999999
 41
16.99273829612008
 46
0.0
 71
     1
 72
     5
  1
新鲜风流
 11
0.9999528494968284
 21
0.0097107560556809
 31
0.0
 73
     1
 44
1.0
1001
ACAD
1000
MTEXTBEGIN
1070
    73
1070
     1
1070
    44
1040
1.0
1070
    74
1070
     0
1000
MTEXTEND
  0
MTEXT
  5
19A4
330
17
100
AcDbEntity
  8
图例
100
AcDbMText
 10
695.8392401052763
 20
-426.325898374039
 30
0.0
 40
1.504799999999999
 41
16.99273829612008
 46
0.0
 71
     1
 72
     5
  1
风窗
 11
0.9999528494968284
 21
0.0097107560556809
 31
0.0
 73
     1
 44
1.0
1001
ACAD
1000
MTEXTBEGIN
1070
    73
1070
     1
1070
    44
1040
1.0
1070
    74
1070
     0
1000
MTEXTEND
  0
MTEXT
  5
19A5
330
17
100
AcDbEntity
  8
图例
100
AcDbMText
 10
707.8644212551073
 20
-426.3258983746285
 30
0.0
 40
1.504799999999999
 41
16.99273829612008
 46
0.0
 71
     1
 72
     5
  1
密闭
 11
0.9999528494968284
 21
0.0097107560556809
 31
0.0
 73
     1
 44
1.0
1001
ACAD
1000
MTEXTBEGIN
1070
    73
1070
     1
1070
    44
1040
1.0
1070
    74
1070
     0
1000
MTEXTEND
  0
MTEXT
  5
19A6
330
17
100
AcDbEntity
  8
图例
100
AcDbMText
 10
706.9540320260923
 20
-416.341577275461
 30
0.0
 40
1.504799999999999
 41
16.99273829612008
 46
0.0
 71
     1
 72
     5
  1
乏风流
 11
0.9999528494968284
 21
0.0097107560556809
 31
0.0
 73
     1
 44
1.0
1001
ACAD
1000
MTEXTBEGIN
1070
    73
1070
     1
1070
    44
1040
1.0
1070
    74
1070
     0
1000
MTEXTEND
  0
MTEXT
  5
19A7
330
17
100
AcDbEntity
  8
图例
100
AcDbMText
 10
695.5746198878689
 20
-435.8467595029662
 30
0.0
 40
1.504799999999999
 41
16.99273829612008
 46
0.0
 71
     1
 72
     5
  1
风门
 11
0.9999528494968284
 21
0.0097107560556809
 31
0.0
 73
     1
 44
1.0
1001
ACAD
1000
MTEXTBEGIN
1070
    73
1070
     1
1070
    44
1040
1.0
1070
    74
1070
     0
1000
MTEXTEND
  0
MTEXT
  5
19A8
330
17
100
AcDbEntity
  8
图例
100
AcDbMText
 10
707.3261781321846
 20
-435.8467595016639
 30
0.0
 40
1.504799999999999
 41
16.99273829612008
 46
0.0
 71
     1
 72
     5
  1
指北针
 11
0.9999528494968284
 21
0.0097107560556809
 31
0.0
 73
     1
 44
1.0
1001
ACAD
1000
MTEXTBEGIN
1070
    73
1070
     1
1070
    44
1040
1.0
1070
    74
1070
     0
1000
MTEXTEND
  0
MTEXT
  5
19A9
330
17
100
AcDbEntity
  8
图例
100
AcDbMText
 10
699.9726209832945
 20
-404.2672534991046
 30
0.0
 40
1.881
 41
21.2409228701501
 46
0.0
 71
     1
 72
     5
  1
图    例
 11
0.9999744558301259
 21
-0.0071475651269462
 31
0.0
 73
     1
 44
1.0
1001
ACAD
1000
MTEXTBEGIN
1070
    73
1070
     1
1070
    44
1040
1.0
1070
    74
1070
     0
1000
MTEXTEND
  0
LWPOLYLINE
  5
19AA
330
17
100
AcDbEntity
  8
图例
100
AcDbPolyline
 90
        5
 70
     0
 43
0.3009600000000001
 10
696.9032848617999
 20
-422.6589982116794
 10
698.333434166539
 20
-422.6650051644839
 10
698.3274272137562
 20
-424.0951544692518
 10
696.8972779089881
 20
-424.0891475164547
 10
696.9032848617999
 20
-422.6589982116794
  0
LWPOLYLINE
  5
19AB
330
17
100
AcDbEntity
  8
图例
100
AcDbPolyline
 90
        2
 70
     0
 43
0.3009600000000001
 10
697.6330263565532
 20
-422.6468240780898
 10
697.637531571155
 20
-421.5742120995066
  0
LWPOLYLINE
  5
19AC
330
17
100
AcDbEntity
  8
图例
100
AcDbPolyline
 90
        2
 70
     0
 43
0.3009600000000001
 10
696.207382266358
 20
-421.5682051467094
 10
699.0676808759519
 20
-421.5802190523112
  0
LWPOLYLINE
  5
19AD
330
17
100
AcDbEntity
  8
图例
100
AcDbPolyline
 90
        2
 70
     0
 43
0.3009600000000001
 10
697.6270194037706
 20
-424.0769733828576
 10
697.62251418914
 20
-425.1495853614408
  0
HATCH
  5
19AE
330
17
100
AcDbEntity
  8
图例
 62
    18
420
        0
100
AcDbHatch
 10
0.0
 20
0.0
 30
0.0
210
0.0
220
0.0
230
1.0
  2
SOLID
 70
     1
 71
     1
 91
        1
 92
        7
 72
     0
 73
     1
 93
        4
 10
709.0963218702593
 20
-424.0141432494866
 10
709.1023288231001
 20
-422.5839939447189
 10
710.5324781278386
 20
-422.5900008975197
 10
710.5264711750565
 20
-424.0201502022912
 97
        1
330
19AF
 75
     1
 76
     1
 47
0.0297494979528364
 98
        1
 10
709.7887662390196
 20
-423.6570194369135
450
        0
451
        0
460
0.0
461
0.0
452
        0
462
0.0
453
        2
463
0.0
 63
     5
421
      255
463
1.0
 63
     2
421
 16776960
470
LINEAR
1001
GradientColor1ACI
1070
     5
1001
GradientColor2ACI
1070
     2
1001
ACAD
1010
0.0
1020
0.0
1030
0.0
  0
LWPOLYLINE
  5
19AF
102
{ACAD_REACTORS
330
19AE
102
}
330
17
100
AcDbEntity
  8
图例
100
AcDbPolyline
 90
        5
 70
     0
 43
0.3009600000000001
 10
709.1023288231001
 20
-422.5839939447189
 10
710.5324781278386
 20
-422.5900008975197
 10
710.5264711750565
 20
-424.0201502022912
 10
709.0963218702593
 20
-424.0141432494866
 10
709.1023288231001
 20
-422.5839939447189
  0
LWPOLYLINE
  5
19B0
330
17
100
AcDbEntity
  8
图例
100
AcDbPolyline
 90
        2
 70
     0
 43
0.3009600000000001
 10
697.4207199426375
 20
-434.2726900411009
 42
1.0
 10
697.4622183745443
 20
-431.4412735324015
  0
LWPOLYLINE
  5
19B1
330
17
100
AcDbEntity
  8
图例
100
AcDbPolyline
 90
        2
 70
     0
 43
0.3009600000000001
 10
696.0095255750996
 20
-431.0803225621396
 10
698.841212991457
 20
-431.0940317409195
  0
LWPOLYLINE
  5
19B2
330
17
100
AcDbEntity
  8
图例
100
AcDbPolyline
 90
        2
 70
     0
 43
0.3009600000000001
 10
697.4253692832491
 20
-431.0871771515315
 10
697.4082328097786
 20
-434.626786421971
  0
LWPOLYLINE
  5
19B3
330
17
100
AcDbEntity
  8
图例
100
AcDbPolyline
 90
        5
 70
     0
 43
0.3009600000000001
 10
696.9032848617999
 20
-422.6589982116794
 10
698.333434166539
 20
-422.6650051644839
 10
698.3274272137562
 20
-424.0951544692518
 10
696.8972779089881
 20
-424.0891475164547
 10
696.9032848617999
 20
-422.6589982116794
  0
LWPOLYLINE
  5
19B4
330
17
100
AcDbEntity
  8
图例
100
AcDbPolyline
 90
        2
 70
     0
 43
0.3009600000000001
 10
697.6330263565532
 20
-422.6468240780898
 10
697.637531571155
 20
-421.5742120995066
  0
LWPOLYLINE
  5
19B5
330
17
100
AcDbEntity
  8
图例
100
AcDbPolyline
 90
        2
 70
     0
 43
0.3009600000000001
 10
696.207382266358
 20
-421.5682051467094
 10
699.0676808759519
 20
-421.5802190523112
  0
LWPOLYLINE
  5
19B6
330
17
100
AcDbEntity
  8
图例
100
AcDbPolyline
 90
        2
 70
     0
 43
0.3009600000000001
 10
697.6270194037706
 20
-424.0769733828576
 10
697.62251418914
 20
-425.1495853614408
  0
HATCH
  5
19B7
330
17
100
AcDbEntity
  8
图例
100
AcDbHatch
 10
0.0
 20
0.0
 30
0.0
210
0.0
220
0.0
230
1.0
  2
SOLID
 70
     1
 71
     1
 91
        1
 92
        7
 72
     0
 73
     1
 93
        4
 10
709.0963218702593
 20
-424.0141432494866
 10
709.1023288231001
 20
-422.5839939447189
 10
710.5324781278386
 20
-422.5900008975197
 10
710.5264711750565
 20
-424.0201502022912
 97
        1
330
19B8
 75
     1
 76
     1
 47
0.0297494979528364
 98
        1
 10
709.7887662390196
 20
-423.6570194369135
450
        0
451
        0
460
0.0
461
0.0
452
        0
462
0.0
453
        2
463
0.0
 63
     5
421
      255
463
1.0
 63
     2
421
 16776960
470
LINEAR
1001
GradientColor1ACI
1070
     5
1001
GradientColor2ACI
1070
     2
1001
ACAD
1010
0.0
1020
0.0
1030
0.0
  0
LWPOLYLINE
  5
19B8
102
{ACAD_REACTORS
330
19B7
102
}
330
17
100
AcDbEntity
  8
图例
100
AcDbPolyline
 90
        5
 70
     0
 43
0.3009600000000001
 10
709.1023288231001
 20
-422.5839939447189
 10
710.5324781278386
 20
-422.5900008975197
 10
710.5264711750565
 20
-424.0201502022912
 10
709.0963218702593
 20
-424.0141432494866
 10
709.1023288231001
 20
-422.5839939447189
  0
LWPOLYLINE
  5
19B9
330
17
100
AcDbEntity
  8
图例
100
AcDbPolyline
 90
        2
 70
     0
 43
0.3009600000000001
 10
697.4207199426375
 20
-434.2726900411009
 42
1.0
 10
697.4622183745443
 20
-431.4412735324015
  0
LWPOLYLINE
  5
19BA
330
17
100
AcDbEntity
  8
图例
100
AcDbPolyline
 90
        2
 70
     0
 43
0.3009600000000001
 10
696.0095255750996
 20
-431.0803225621396
 10
698.841212991457
 20
-431.0940317409195
  0
LWPOLYLINE
  5
19BB
330
17
100
AcDbEntity
  8
图例
100
AcDbPolyline
 90
        2
 70
     0
 43
0.3009600000000001
 10
697.4253692832491
 20
-431.0871771515315
 10
697.4082328097786
 20
-434.626786421971
  0
LWPOLYLINE
  5
19BC
330
17
100
AcDbEntity
  8
图例
 62
     7
370
    20
100
AcDbPolyline
 90
        4
 70
     1
 43
0.0
 10
692.7483412399369
 20
-449.5534205008055
 10
702.1371071718236
 20
-449.5534205005326
 10
702.1371071710666
 20
-454.2478034656754
 10
692.7483412396171
 20
-454.2478034666721
  0
LWPOLYLINE
  5
19BD
330
17
100
AcDbEntity
  8
图例
 62
     7
370
    20
100
AcDbPolyline
 90
        4
 70
     1
 43
0.0
 10
692.8904379146763
 20
-440.1073061480067
 10
702.2792038465333
 20
-440.1073061477375
 10
702.2792038458057
 20
-444.8016891128804
 10
692.890437914327
 20
-444.801689113877
  0
LWPOLYLINE
  5
19BE
330
17
100
AcDbEntity
  8
图例
 62
     7
370
    20
100
AcDbPolyline
 90
        4
 70
     1
 43
0.0
 10
705.075061238552
 20
-440.1073061476539
 10
714.4638271703506
 20
-440.107306147381
 10
714.463827169623
 20
-444.8016891125237
 10
705.0750612381734
 20
-444.8016891135242
  0
MTEXT
  5
19BF
330
17
100
AcDbEntity
  8
图例
100
AcDbMText
 10
692.7314317792545
 20
-445.4356400723129
 30
0.0
 40
1.504799999999999
 41
16.99273829612008
 46
0.0
 71
     1
 72
     5
  1
斜巷、立眼
 11
0.9999528494968284
 21
0.0097107560556809
 31
0.0
 73
     1
 44
1.0
1001
ACAD
1000
MTEXTBEGIN
1070
    73
1070
     1
1070
    44
1040
1.0
1070
    74
1070
     0
1000
MTEXTEND
  0
MTEXT
  5
19C0
330
17
100
AcDbEntity
  8
图例
100
AcDbMText
 10
707.3261781321846
 20
-445.5158881011022
 30
0.0
 40
1.504799999999999
 41
16.99273829612008
 46
0.0
 71
     1
 72
     5
  1
22煤
 11
0.9999528494968284
 21
0.0097107560556809
 31
0.0
 73
     1
 44
1.0
1001
ACAD
1000
MTEXTBEGIN
1070
    73
1070
     1
1070
    44
1040
1.0
1070
    74
1070
     0
1000
MTEXTEND
  0
LWPOLYLINE
  5
19C1
330
17
100
AcDbEntity
  8
图例
 62
     6
100
AcDbPolyline
 90
        2
 70
     0
 43
1.640231999999999
 10
694.6081111845044
 20
-452.0379244117004
 10
700.460092454253
 20
-452.0379244117004
  0
LWPOLYLINE
  5
19C2
330
17
100
AcDbEntity
  8
图例
 62
    30
420
 15886114
100
AcDbPolyline
 90
        2
 70
     0
 43
1.640231999999999
 10
694.7502078592435
 20
-442.5918100589052
 10
700.6021891289049
 20
-442.5918100589052
  0
LWPOLYLINE
  5
19C3
330
17
100
AcDbEntity
  8
图例
 62
     3
100
AcDbPolyline
 90
        2
 70
     0
 43
1.640231999999999
 10
706.9348311830319
 20
-442.5918100585525
 10
712.7868124527515
 20
-442.5918100585525
  0
INSERT
  5
19C4
102
{ACAD_XDICTIONARY
360
19C5
102
}
330
17
100
AcDbEntity
  8
风向标志
 62
     3
370
    20
100
AcDbBlockReference
  2
进风风流
 10
697.6407293552247
 20
-413.4017342522141
 30
0.0
 41
1.60512
 42
1.60512
 43
1.60512
 50
180.0
  0
INSERT
  5
19C6
330
17
100
AcDbEntity
  8
风向标志
 62
     3
370
    20
100
AcDbBlockReference
  2
回风风流
 10
710.0741021352653
 20
-413.4833465702989
 30
0.0
 41
1.605120000000074
 42
1.605120000000073
 43
1.605120000000073
 50
179.8774653258707
  0
MTEXT
  5
19C7
330
17
100
AcDbEntity
  8
图例
100
AcDbMText
 10
695.5746198878689
 20
-455.164021994705
 30
0.0
 40
1.504799999999999
 41
16.99273829612008
 46
0.0
 71
     1
 72
     5
  1
31煤
 11
0.9999528494968284
 21
0.0097107560556809
 31
0.0
 73
     1
 44
1.0
1001
ACAD
1000
MTEXTBEGIN
1070
    73
1070
     1
1070
    44
1040
1.0
1070
    74
1070
     0
1000
MTEXTEND
  0
LINE
  5
19C8
330
17
100
AcDbEntity
  8
图签
370
    20
100
AcDbLine
 10
795.1469260275255
 20
-425.5424962238187
 30
0.0
 11
795.1469260275255
 21
-458.2470639504146
 31
0.0
  0
LWPOLYLINE
  5
19C9
330
17
100
AcDbEntity
  8
0
100
AcDbPolyline
 90
        4
 70
     1
 43
0.0
 10
820.2269260275128
 20
-401.8170639504145
 10
719.9069260275348
 20
-401.8170639504145
 10
719.9069260275348
 20
-458.2470639504146
 10
820.2269260275128
 20
-458.2470639504146
  0
LINE
  5
19CA
330
17
100
AcDbEntity
  8
0
100
AcDbLine
 10
719.9069260275348
 20
-425.5424962238187
 30
0.0
 11
744.986926027522
 21
-425.5424962238187
 31
0.0
  0
LINE
  5
19CB
330
17
100
AcDbEntity
  8
0
100
AcDbLine
 10
744.986926027522
 20
-425.5424962238187
 30
0.0
 11
770.0669260275092
 21
-425.5424962238187
 31
0.0
  0
LINE
  5
19CC
330
17
100
AcDbEntity
  8
0
100
AcDbLine
 10
770.0669260275092
 20
-425.5424962238187
 30
0.0
 11
795.1469260275255
 21
-425.5424962238187
 31
0.0
  0
MTEXT
  5
19CD
330
17
100
AcDbEntity
  8
图签
370
    20
100
AcDbMText
 10
797.0136874629891
 20
-444.1040456784041
 30
0.0
 40
3.633840858510719
 41
20.57067643041337
 46
4.847789023648886
 71
     1
 72
     5
  1
2025.3.1
 73
     1
 44
1.0
 90
        2
1001
ACAD
1000
MTEXTBEGIN
1070
    73
1070
     1
1070
    44
1040
1.0
1070
    74
1070
     0
1000
MTEXTEND
1000
ACAD_MTEXT_DEFINED_HEIGHT_BEGIN
1070
    46
1040
4.847789023648886
1000
ACAD_MTEXT_DEFINED_HEIGHT_END
  0
INSERT
  5
19CE
330
17
100
AcDbEntity
  8
图例
 62
     7
370
    20
100
AcDbBlockReference
  2
A$C43F745ED
 10
412.1504544431978
 20
-154.8085147138586
 30
0.0
 41
0.1402204558381397
 42
0.1402204562921983
 43
0.1402204562009537
 50
42.75425743414229
  0
LWPOLYLINE
  5
19CF
330
17
100
AcDbEntity
  8
图例
 62
     7
370
    20
100
AcDbPolyline
 90
        4
 70
     1
 43
0.0
 10
705.0539077976784
 20
-449.484383357086
 10
714.4426737295644
 20
-449.4843833568133
 10
714.4426737288078
 20
-454.1787663219558
 10
705.0539077973585
 20
-454.1787663229526
  0
MTEXT
  5
19D0
330
17
100
AcDbEntity
  8
图例
100
AcDbMText
 10
707.8801864456102
 20
-455.0949848509856
 30
0.0
 40
1.504799999999999
 41
16.99273829612008
 46
0.0
 71
     1
 72
     5
  1
12煤
 11
0.9999528494968284
 21
0.0097107560556809
 31
0.0
 73
     1
 44
1.0
1001
ACAD
1000
MTEXTBEGIN
1070
    73
1070
     1
1070
    44
1040
1.0
1070
    74
1070
     0
1000
MTEXTEND
  0
LWPOLYLINE
  5
19D1
330
17
100
AcDbEntity
  8
图例
 62
    30
420
 15886114
100
AcDbPolyline
 90
        2
 70
     0
 43
1.640231999999999
 10
706.9800802560417
 20
-452.1838406066028
 10
712.8320615257609
 20
-452.1838406066028
  0
MTEXT
  5
19D3
330
17
100
AcDbEntity
  8
巷道名称
100
AcDbMText
 10
485.1789926514388
 20
-116.5431335913466
 30
0.0
 40
7.524
 41
277.6306809082546
 46
0.0
 71
     1
 72
     5
  1
{\fMicrosoft YaHei|b1|i0|c134|p34;金 烽 寸 草 塔 煤 矿 通 风 系 统 立 体 示 意 图}
 11
0.9999974981935912
 21
0.0022368742832038
 31
0.0
 73
     1
 44
1.0
1001
ACAD
1000
MTEXTBEGIN
1070
    73
1070
     1
1070
    44
1040
1.0
1070
    74
1070
     0
1000
MTEXTEND
  0
MTEXT
  5
19D4
330
17
100
AcDbEntity
  8
图签
370
    20
100
AcDbMText
 10
736.8102432356165
 20
-416.3868603174572
 30
0.0
 40
4.247580902400001
 41
71.38460986254215
 46
0.0
 71
     1
 72
     5
  1
{\fSimSun|b1|i0|c134|p2;\T1.6;通风系统立体示意图}
 73
     1
 44
1.0
1001
ACAD
1000
MTEXTBEGIN
1070
    73
1070
     1
1070
    44
1040
1.0
1070
    74
1070
     0
1000
MTEXTEND
  0
TEXT
  5
19D5
330
17
100
AcDbEntity
  8
签字
 62
     7
370
    20
100
AcDbText
 10
749.8720570307405
 20
-432.0840619531565
 30
0.0
 40
3.360000000000001
  1
郝月昊
 50
359.91
  7
样式 3
100
AcDbText
1001
ZWMCAD_GENSCA_13_
1070
     1
1040
1.0
1001
ZWMCAD_GENSTANDARDFRAME_13_
1070
   410
1000
GB
1070
   411
1000
ZwmFrameMain_
  0
TEXT
  5
19D6
330
17
100
AcDbEntity
  8
签字
 62
     7
370
    20
100
AcDbText
 10
749.5658149395378
 20
-440.2061348069266
 30
0.0
 40
3.360000000000001
  1
杨培青
 50
359.91
  7
样式 3
100
AcDbText
1001
ZWMCAD_GENSCA_13_
1070
     1
1040
1.0
1001
ZWMCAD_GENSTANDARDFRAME_13_
1070
   410
1000
GB
1070
   411
1000
ZwmFrameMain_
  0
TEXT
  5
19D7
330
17
100
AcDbEntity
  8
签字
 62
     7
370
    20
100
AcDbText
 10
749.8121400998563
 20
-448.2642962677466
 30
0.0
 40
3.360000000000001
  1
石锦民
 50
359.91
  7
样式 3
100
AcDbText
1001
ZWMCAD_GENSCA_13_
1070
     1
1040
1.0
1001
ZWMCAD_GENSTANDARDFRAME_13_
1070
   410
1000
GB
1070
   411
1000
ZwmFrameMain_
  0
TEXT
  5
19D8
330
17
100
AcDbEntity
  8
签字
 62
     7
370
    20
100
AcDbText
 10
749.7654310480059
 20
-456.0847040180863
 30
0.0
 40
3.360000000000001
  1
张瑞晓
 50
359.91
  7
样式 3
100
AcDbText
1001
ZWMCAD_GENSCA_13_
1070
     1
1040
1.0
1001
ZWMCAD_GENSTANDARDFRAME_13_
1070
   410
1000
GB
1070
   411
1000
ZwmFrameMain_
  0
TEXT
  5
19D9
330
17
100
AcDbEntity
  8
签字
 62
     7
370
    20
100
AcDbText
 10
799.6512510058303
 20
-432.2630953079835
 30
0.0
 40
3.360000000000001
  1
罗伙根
 50
359.91
  7
样式 3
100
AcDbText
1001
ZWMCAD_GENSCA_13_
1070
     1
1040
1.0
1001
ZWMCAD_GENSTANDARDFRAME_13_
1070
   410
1000
GB
1070
   411
1000
ZwmFrameMain_
  0
TEXT
  5
19DA
330
17
100
AcDbEntity
  8
签字
 62
     7
370
    20
100
AcDbText
 10
799.8656929414203
 20
-440.7716633554532
 30
0.0
 40
3.359999999999998
  1
刘虎生
 50
359.91
  7
样式 3
100
AcDbText
1001
ZWMCAD_GENSCA_13_
1070
     1
1040
1.0
1001
ZWMCAD_GENSTANDARDFRAME_13_
1070
   410
1000

1070
   411
1000
ZwmFrameMain_
  0
HATCH
  5
1ACF
330
17
100
AcDbEntity
  8
图层1
 62
    18
420
        0
100
AcDbHatch
 10
0.0
 20
0.0
 30
0.0
210
0.0
220
0.0
230
1.0
  2
SOLID
 70
     1
 71
     0
 91
        1
 92
        1
 93
        2
 72
     1
 10
472.6699322462081
 20
-215.2774362266064
 11
472.4921911954877
 21
-215.3752309083939
 72
     1
 10
472.4921911954877
 20
-215.3752309083939
 11
472.6699322462081
 21
-215.2774362266064
 97
        0
 75
     0
 76
     1
 98
        0
  0
MTEXT
  5
32BE
330
17
100
AcDbEntity
  8
图签
370
    20
100
AcDbMText
 10
734.8579385644711
 20
-404.2635932746403
 30
0.0
 40
3.0
 41
71.90077847308478
 46
13.62773596563673
 71
     1
 72
     5
  1
\pxqc;{\fSimSun|b1|i0|c134|p2;\T1.6;中国神华能源股份有限公司\P金烽寸草塔煤矿}
 73
     1
 44
1.0
1001
ACAD
1000
MTEXTBEGIN
1070
    73
1070
     1
1070
    44
1040
1.0
1070
    74
1070
     0
1000
MTEXTEND
1000
ACAD_MTEXT_DEFINED_HEIGHT_BEGIN
1070
    46
1040
13.62773596563673
1000
ACAD_MTEXT_DEFINED_HEIGHT_END
  0
HATCH
  5
33B3
330
17
100
AcDbEntity
  8
图层1
 62
    18
420
        0
100
AcDbHatch
 10
0.0
 20
0.0
 30
0.0
210
0.0
220
0.0
230
1.0
  2
SOLID
 70
     1
 71
     0
 91
        1
 92
        1
 93
        2
 72
     1
 10
472.6699322462081
 20
-215.2774362266064
 11
472.4921911954878
 21
-215.3752309083939
 72
     1
 10
472.4921911954878
 20
-215.3752309083939
 11
472.6699322462081
 21
-215.2774362266064
 97
        0
 75
     0
 76
     1
 98
        0
  0
HATCH
  5
4C3C
330
17
100
AcDbEntity
  8
图层1
 62
    18
420
        0
100
AcDbHatch
 10
0.0
 20
0.0
 30
0.0
210
0.0
220
0.0
230
1.0
  2
SOLID
 70
     1
 71
     0
 91
        1
 92
        1
 93
        2
 72
     1
 10
661.7379051446914
 20
-301.3884107172489
 11
661.4890676736832
 21
-301.5253232717514
 72
     1
 10
661.4890676736832
 20
-301.5253232717514
 11
661.7379051446914
 21
-301.3884107172489
 97
        0
 75
     0
 76
     1
 98
        0
  0
ENDSEC
  0
SECTION
  2
OBJECTS
  0
DICTIONARY
  5
A
330
0
100
AcDbDictionary
281
     1
  3
ACAD_COLOR
350
B
  3
ACAD_GROUP
350
C
  3
ACAD_LAYOUT
350
D
  3
ACAD_MATERIAL
350
E
  3
ACAD_MLEADERSTYLE
350
F
  3
ACAD_MLINESTYLE
350
10
  3
ACAD_PLOTSETTINGS
350
11
  3
ACAD_PLOTSTYLENAME
350
12
  3
ACAD_SCALELIST
350
14
  3
ACAD_TABLESTYLE
350
15
  3
ACAD_VISUALSTYLE
350
16
  3
EZDXF_META
350
2D
  0
DICTIONARY
  5
1989
330
1
100
AcDbDictionary
281
     1
  3
ACAD_LAYERSTATES
350
198A
  0
DICTIONARY
  5
18DD
330
18DC
100
AcDbDictionary
281
     1
  3
ADSK_XREC_LAYER_RECONCILED
350
18DE
  0
DICTIONARY
  5
18E4
330
18E3
100
AcDbDictionary
281
     1
  3
ADSK_XREC_LAYER_RECONCILED
350
18E5
  0
DICTIONARY
  5
18D9
330
18D8
100
AcDbDictionary
281
     1
  3
ADSK_XREC_LAYER_RECONCILED
350
18DA
  0
DICTIONARY
  5
18E0
330
18DF
100
AcDbDictionary
281
     1
  3
ADSK_XREC_LAYER_RECONCILED
350
18E1
  0
DICTIONARY
  5
1964
330
1963
100
AcDbDictionary
281
     1
  3
ACAD_SORTENTS
360
1965
  0
DICTIONARY
  5
196D
330
196C
100
AcDbDictionary
281
     1
  3
ACAD_SORTENTS
360
196E
  0
DICTIONARY
  5
19C5
330
19C4
100
AcDbDictionary
281
     1
  0
DICTIONARY
  5
B
330
A
100
AcDbDictionary
281
     1
  3
242,103,34
350
18F8
  0
DICTIONARY
  5
C
330
A
100
AcDbDictionary
281
     1
  0
DICTIONARY
  5
D
330
A
100
AcDbDictionary
281
     1
  3
Layout1
350
1E
  3
Model
350
1A
  0
DICTIONARY
  5
E
330
A
100
AcDbDictionary
281
     1
  3
ByBlock
350
1F
  3
ByLayer
350
20
  3
Global
350
21
  0
DICTIONARY
  5
F
330
A
100
AcDbDictionary
281
     1
  3
Standard
350
2C
  0
DICTIONARY
  5
10
330
A
100
AcDbDictionary
281
     1
  3
Standard
350
22
  0
DICTIONARY
  5
11
330
A
100
AcDbDictionary
281
     1
  0
ACDBDICTIONARYWDFLT
  5
12
330
A
100
AcDbDictionary
281
     1
  3
Normal
350
13
100
AcDbDictionaryWithDefault
340
13
  0
DICTIONARY
  5
14
330
A
100
AcDbDictionary
281
     1
  0
DICTIONARY
  5
15
330
A
100
AcDbDictionary
281
     1
  3
Standard
350
18CE
  0
DICTIONARY
  5
16
330
A
100
AcDbDictionary
281
     1
  3
2dWireframe
350
18BA
  3
Basic
350
18BD
  3
Brighten
350
18C1
  3
ColorChange
350
18C5
  3
Conceptual
350
18BF
  3
Dim
350
18C0
  3
EdgeColorOff
350
18C8
  3
Facepattern
350
18C4
  3
Flat
350
18B6
  3
FlatWithEdges
350
18B7
  3
Gouraud
350
18B8
  3
GouraudWithEdges
350
18B9
  3
Hidden
350
18BC
  3
JitterOff
350
18C6
  3
Linepattern
350
18C3
  3
OverhangOff
350
18C7
  3
Realistic
350
18BE
  3
Shaded
350
18CD
  3
Shaded with edges
350
18CC
  3
Shades of Gray
350
18C9
  3
Sketchy
350
18CA
  3
Thicken
350
18C2
  3
Wireframe
350
18BB
  3
X-Ray
350
18CB
  0
DICTIONARY
  5
2D
330
A
100
AcDbDictionary
281
     1
  3
CREATED_BY_EZDXF
350
2E
  3
WRITTEN_BY_EZDXF
350
18B5
  0
DICTIONARY
  5
198A
102
{ACAD_REACTORS
330
1989
102
}
330
1989
100
AcDbDictionary
281
     1
  0
XRECORD
  5
18DE
102
{ACAD_REACTORS
330
18DD
102
}
330
18DD
100
AcDbXrecord
280
     1
290
     1
  0
XRECORD
  5
18E5
102
{ACAD_REACTORS
330
18E4
102
}
330
18E4
100
AcDbXrecord
280
     1
290
     1
  0
XRECORD
  5
18DA
102
{ACAD_REACTORS
330
18D9
102
}
330
18D9
100
AcDbXrecord
280
     1
290
     1
  0
XRECORD
  5
18E1
102
{ACAD_REACTORS
330
18E0
102
}
330
18E0
100
AcDbXrecord
280
     1
290
     1
  0
SORTENTSTABLE
  5
1965
102
{ACAD_REACTORS
330
1964
102
}
330
1964
100
AcDbSortentsTable
330
1963
  0
SORTENTSTABLE
  5
196E
102
{ACAD_REACTORS
330
196D
102
}
330
196D
100
AcDbSortentsTable
330
196C
  0
DBCOLOR
  5
18F8
102
{ACAD_REACTORS
330
B
102
}
330
B
100
AcDbColor
 62
    30
420
 15886114
430
UNNAMED$242,103,34
  0
LAYOUT
  5
1E
330
D
100
AcDbPlotSettings
  1

  2
Adobe PDF
  4
A3
  6

 40
7.5
 41
20.0
 42
7.5
 43
20.0
 44
420.0
 45
297.0
 46
0.0
 47
0.0
 48
0.0
 49
0.0
140
0.0
141
0.0
142
1.0
143
1.0
 70
     0
 72
     1
 73
     0
 74
     5
  7

 75
    16
 76
     0
 77
     2
 78
   300
147
1.0
148
0.0
149
0.0
100
AcDbLayout
  1
Layout1
 70
     1
 71
     1
 10
0.0
 20
0.0
 11
420.0
 21
297.0
 12
0.0
 22
0.0
 32
0.0
 14
1.000000000000000E+20
 24
1.000000000000000E+20
 34
1.000000000000000E+20
 15
-1.000000000000000E+20
 25
-1.000000000000000E+20
 35
-1.000000000000000E+20
146
0.0
 13
0.0
 23
0.0
 33
0.0
 16
1.0
 26
0.0
 36
0.0
 17
0.0
 27
1.0
 37
0.0
 76
     1
330
1B
  0
LAYOUT
  5
1A
330
D
100
AcDbPlotSettings
  1

  2
Adobe PDF
  4
A3
  6

 40
7.5
 41
20.0
 42
7.5
 43
20.0
 44
420.0
 45
297.0
 46
0.0
 47
0.0
 48
0.0
 49
0.0
140
0.0
141
0.0
142
1.0
143
1.0
 70
  1024
 72
     1
 73
     0
 74
     5
  7

 75
    16
 76
     0
 77
     2
 78
   300
147
1.0
148
0.0
149
0.0
100
AcDbLayout
  1
Model
 70
     1
 71
     0
 10
0.0
 20
0.0
 11
420.0
 21
297.0
 12
0.0
 22
0.0
 32
0.0
 14
1.000000000000000E+20
 24
1.000000000000000E+20
 34
1.000000000000000E+20
 15
-1.000000000000000E+20
 25
-1.000000000000000E+20
 35
-1.000000000000000E+20
146
0.0
 13
0.0
 23
0.0
 33
0.0
 16
1.0
 26
0.0
 36
0.0
 17
0.0
 27
1.0
 37
0.0
 76
     1
330
17
331
23
  0
MATERIAL
  5
1F
102
{ACAD_REACTORS
330
E
102
}
330
E
100
AcDbMaterial
  1
ByBlock
 71
     1
 91
-1023410177
273
     1
 94
       63
  0
MATERIAL
  5
20
102
{ACAD_REACTORS
330
E
102
}
330
E
100
AcDbMaterial
  1
ByLayer
 71
     1
 91
-1023410177
273
     1
 94
       63
  0
MATERIAL
  5
21
102
{ACAD_REACTORS
330
E
102
}
330
E
100
AcDbMaterial
  1
Global
 71
     1
 91
-1023410177
273
     1
 94
       63
  0
MLEADERSTYLE
  5
2C
102
{ACAD_REACTORS
330
F
102
}
330
F
100
AcDbMLeaderStyle
179
     2
170
     2
171
     1
172
     0
 90
        2
 40
0.0
 41
0.0
173
     1
 91
-1056964608
340
0
 92
       -2
290
     1
 42
2.0
291
     1
 43
8.0
  3
Standard
 44
4.0
300

342
29
174
     1
178
     1
175
     1
176
     0
 93
-1056964608
 45
4.0
292
     0
297
     0
 46
4.0
 94
-1056964608
 47
1.0
 49
1.0
140
1.0
293
     1
141
0.0
294
     1
177
     0
142
1.0
295
     0
296
     0
143
3.75
271
     0
272
     9
273
     9
298
     0
  0
MLINESTYLE
  5
22
102
{ACAD_REACTORS
330
10
102
}
330
10
100
AcDbMlineStyle
  2
Standard
 70
     0
  3

 62
   256
 51
90.0
 52
90.0
 71
     2
 49
0.5
 62
   256
  6
BYLAYER
 49
-0.5
 62
   256
  6
BYLAYER
  0
ACDBPLACEHOLDER
  5
13
102
{ACAD_REACTORS
330
12
102
}
330
12
  0
TABLESTYLE
  5
18CE
102
{ACAD_REACTORS
330
15
102
}
330
15
100
AcDbTableStyle
  3
Standard
 70
     0
 71
     0
 40
1.5
 41
1.5
280
     0
281
     0
  7
Standard
140
4.5
170
     2
 62
     7
 63
   257
283
     0
 90
        4
 91
        0
  1

274
    -2
284
     1
 64
     0
275
    -2
285
     1
 65
     0
276
    -2
286
     1
 66
     0
277
    -2
287
     1
 67
     0
278
    -2
288
     1
 68
     0
279
    -2
289
     1
 69
     0
  7
Standard
140
6.0
170
     5
 62
     7
 63
   257
283
     0
 90
        4
 91
        0
  1

274
    -2
284
     1
 64
     0
275
    -2
285
     1
 65
     0
276
    -2
286
     1
 66
     0
277
    -2
287
     1
 67
     0
278
    -2
288
     1
 68
     0
279
    -2
289
     1
 69
     0
  7
Standard
140
4.5
170
     5
 62
     7
 63
   257
283
     0
 90
        4
 91
        0
  1

274
    -2
284
     1
 64
     0
275
    -2
285
     1
 65
     0
276
    -2
286
     1
 66
     0
277
    -2
287
     1
 67
     0
278
    -2
288
     1
 68
     0
279
    -2
289
     1
 69
     0
  0
VISUALSTYLE
  5
18BA
102
{ACAD_REACTORS
330
16
102
}
330
16
100
AcDbVisualStyle
  2
2dWireframe
 70
     4
177
     3
291
     0
 70
    58
 90
        0
176
     1
 90
        2
176
     1
 90
        0
176
     1
 90
        0
176
     1
 40
0.6
176
     1
 40
30.0
176
     1
 62
     7
420
 16777215
176
     1
 90
        1
176
     1
 90
        4
176
     1
 62
     7
176
     1
 62
   257
176
     1
 90
        1
176
     1
 90
        1
176
     1
 40
1.0
176
     1
 90
        0
176
     1
 62
   257
176
     1
 40
1.0
176
     1
 90
        1
176
     1
 90
        6
176
     1
 90
        2
176
     1
 62
     7
176
     1
 90
        5
176
     1
 90
        0
176
     1
 90
        0
176
     1
290
     0
176
     1
 90
        1
176
     1
 40
0.0
176
     1
 90
        0
176
     1
290
     1
176
     1
290
     1
176
     1
290
     0
176
     1
290
     0
176
     1
290
     0
176
     1
290
     0
176
     1
290
     0
176
     1
290
     0
176
     1
290
     0
176
     1
 90
       50
176
     1
 40
0.0
176
     1
 40
1.0
176
     1
 90
        0
176
     1
 62
    18
420
        0
176
     1
 90
       50
176
     1
 90
        3
176
     1
 62
     5
420
      255
176
     1
290
     0
176
     1
 90
       50
176
     1
 90
       50
176
     1
 90
       50
176
     1
290
     0
176
     1
 90
       50
176
     1
 62
   256
176
     0
 40
1.0
176
     0
 90
        2
176
     1
  1
strokes_ogs.tif
176
     1
290
     0
176
     1
 40
1.0
176
     1
 40
1.0
176
     1
  0
VISUALSTYLE
  5
18BD
102
{ACAD_REACTORS
330
16
102
}
330
16
100
AcDbVisualStyle
  2
Basic
 70
     7
177
     3
291
     1
 70
    58
 90
        1
176
     1
 90
        0
176
     1
 90
        1
176
     1
 90
        0
176
     1
 40
0.6
176
     1
 40
30.0
176
     1
 62
     7
420
 16777215
176
     1
 90
        0
176
     1
 90
        4
176
     1
 62
     7
176
     1
 62
   257
176
     1
 90
        1
176
     1
 90
        1
176
     1
 40
1.0
176
     1
 90
        8
176
     1
 62
     7
176
     1
 40
1.0
176
     1
 90
        1
176
     1
 90
        6
176
     1
 90
        2
176
     1
 62
     7
176
     1
 90
        5
176
     1
 90
        0
176
     1
 90
        0
176
     1
290
     0
176
     1
 90
        1
176
     1
 40
0.0
176
     1
 90
        0
176
     1
290
     0
176
     1
290
     1
176
     1
290
     1
176
     1
290
     0
176
     1
290
     0
176
     1
290
     0
176
     1
290
     0
176
     1
290
     0
176
     1
290
     0
176
     1
 90
       50
176
     1
 40
0.0
176
     1
 40
1.0
176
     1
 90
        0
176
     1
 62
    18
420
        0
176
     1
 90
       50
176
     1
 90
        3
176
     1
 62
     5
420
      255
176
     1
290
     0
176
     1
 90
       50
176
     1
 90
       50
176
     1
 90
       50
176
     1
290
     0
176
     1
 90
       50
176
     1
 62
   256
176
     0
 40
1.0
176
     0
 90
        2
176
     1
  1
strokes_ogs.tif
176
     1
290
     0
176
     1
 40
1.0
176
     1
 40
1.0
176
     1
  0
VISUALSTYLE
  5
18C1
102
{ACAD_REACTORS
330
16
102
}
330
16
100
AcDbVisualStyle
  2
Brighten
 70
    12
177
     3
291
     1
 70
    58
 90
        2
176
     1
 90
        2
176
     1
 90
        0
176
     1
 90
        0
176
     1
 40
0.6
176
     1
 40
30.0
176
     1
 62
     7
420
 16777215
176
     1
 90
        1
176
     1
 90
        4
176
     1
 62
     7
176
     1
 62
   257
176
     1
 90
        1
176
     1
 90
        1
176
     1
 40
1.0
176
     1
 90
        8
176
     1
 62
     7
176
     1
 40
1.0
176
     1
 90
        1
176
     1
 90
        6
176
     1
 90
        2
176
     1
 62
     7
176
     1
 90
        5
176
     1
 90
        0
176
     1
 90
        0
176
     1
290
     0
176
     1
 90
        1
176
     1
 40
50.0
176
     1
 90
        0
176
     1
290
     0
176
     1
290
     1
176
     1
290
     1
176
     1
290
     0
176
     1
290
     0
176
     1
290
     0
176
     1
290
     0
176
     1
290
     0
176
     1
290
     0
176
     1
 90
       50
176
     1
 40
0.0
176
     1
 40
1.0
176
     1
 90
        0
176
     1
 62
    18
420
        0
176
     1
 90
       50
176
     1
 90
        3
176
     1
 62
     5
420
      255
176
     1
290
     0
176
     1
 90
       50
176
     1
 90
       50
176
     1
 90
       50
176
     1
290
     0
176
     1
 90
       50
176
     1
 62
   256
176
     0
 40
1.0
176
     0
 90
        2
176
     1
  1
strokes_ogs.tif
176
     1
290
     0
176
     1
 40
1.0
176
     1
 40
1.0
176
     1
  0
VISUALSTYLE
  5
18C5
102
{ACAD_REACTORS
330
16
102
}
330
16
100
AcDbVisualStyle
  2
ColorChange
 70
    16
177
     3
291
     1
 70
    58
 90
        2
176
     1
 90
        2
176
     1
 90
        3
176
     1
 90
        0
176
     1
 40
0.6
176
     1
 40
30.0
176
     1
 62
     8
420
  8421504
176
     1
 90
        1
176
     1
 90
        4
176
     1
 62
     7
176
     1
 62
   257
176
     1
 90
        1
176
     1
 90
        1
176
     1
 40
1.0
176
     1
 90
        8
176
     1
 62
     8
420
  8421504
176
     1
 40
1.0
176
     1
 90
        1
176
     1
 90
        6
176
     1
 90
        2
176
     1
 62
     7
176
     1
 90
        5
176
     1
 90
        0
176
     1
 90
        0
176
     1
290
     0
176
     1
 90
        1
176
     1
 40
0.0
176
     1
 90
        0
176
     1
290
     0
176
     1
290
     1
176
     1
290
     1
176
     1
290
     0
176
     1
290
     0
176
     1
290
     0
176
     1
290
     0
176
     1
290
     0
176
     1
290
     0
176
     1
 90
       50
176
     1
 40
0.0
176
     1
 40
1.0
176
     1
 90
        0
176
     1
 62
    18
420
        0
176
     1
 90
       50
176
     1
 90
        3
176
     1
 62
     5
420
      255
176
     1
290
     0
176
     1
 90
       50
176
     1
 90
       50
176
     1
 90
       50
176
     1
290
     0
176
     1
 90
       50
176
     1
 62
   256
176
     0
 40
1.0
176
     0
 90
        2
176
     1
  1
strokes_ogs.tif
176
     1
290
     0
176
     1
 40
1.0
176
     1
 40
1.0
176
     1
  0
VISUALSTYLE
  5
18BF
102
{ACAD_REACTORS
330
16
102
}
330
16
100
AcDbVisualStyle
  2
Conceptual
 70
     9
177
     3
291
     0
 70
    58
 90
        3
176
     1
 90
        2
176
     1
 90
        0
176
     1
 90
        0
176
     1
 40
0.6
176
     1
 40
30.0
176
     1
 62
     7
420
 16777215
176
     1
 90
        2
176
     1
 90
        2
176
     1
 62
     7
176
     1
 62
   257
176
     1
 90
        1
176
     1
 90
        1
176
     1
 40
179.0
176
     1
 90
        8
176
     1
 62
     7
176
     1
 40
1.0
176
     1
 90
        1
176
     1
 90
        6
176
     1
 90
        2
176
     1
 62
     7
176
     1
 90
        3
176
     1
 90
        0
176
     1
 90
        0
176
     1
290
     0
176
     1
 90
        1
176
     1
 40
0.0
176
     1
 90
        0
176
     1
290
     0
176
     1
290
     1
176
     1
290
     1
176
     1
290
     0
176
     1
290
     0
176
     1
290
     0
176
     1
290
     0
176
     1
290
     0
176
     1
290
     0
176
     1
 90
       50
176
     1
 40
0.0
176
     1
 40
1.0
176
     1
 90
        0
176
     1
 62
    18
420
        0
176
     1
 90
       50
176
     1
 90
        3
176
     1
 62
     5
420
      255
176
     1
290
     0
176
     1
 90
       50
176
     1
 90
       50
176
     1
 90
       50
176
     1
290
     0
176
     1
 90
       50
176
     1
 62
   256
176
     0
 40
1.0
176
     0
 90
        2
176
     1
  1
strokes_ogs.tif
176
     1
290
     0
176
     1
 40
1.0
176
     1
 40
1.0
176
     1
  0
VISUALSTYLE
  5
18C0
102
{ACAD_REACTORS
330
16
102
}
330
16
100
AcDbVisualStyle
  2
Dim
 70
    11
177
     3
291
     1
 70
    58
 90
        2
176
     1
 90
        2
176
     1
 90
        0
176
     1
 90
        0
176
     1
 40
0.6
176
     1
 40
30.0
176
     1
 62
     7
420
 16777215
176
     1
 90
        1
176
     1
 90
        4
176
     1
 62
     7
176
     1
 62
   257
176
     1
 90
        1
176
     1
 90
        1
176
     1
 40
1.0
176
     1
 90
        8
176
     1
 62
     7
176
     1
 40
1.0
176
     1
 90
        1
176
     1
 90
        6
176
     1
 90
        2
176
     1
 62
     7
176
     1
 90
        5
176
     1
 90
        0
176
     1
 90
        0
176
     1
290
     0
176
     1
 90
        1
176
     1
 40
-50.0
176
     1
 90
        0
176
     1
290
     0
176
     1
290
     1
176
     1
290
     1
176
     1
290
     0
176
     1
290
     0
176
     1
290
     0
176
     1
290
     0
176
     1
290
     0
176
     1
290
     0
176
     1
 90
       50
176
     1
 40
0.0
176
     1
 40
1.0
176
     1
 90
        0
176
     1
 62
    18
420
        0
176
     1
 90
       50
176
     1
 90
        3
176
     1
 62
     5
420
      255
176
     1
290
     0
176
     1
 90
       50
176
     1
 90
       50
176
     1
 90
       50
176
     1
290
     0
176
     1
 90
       50
176
     1
 62
   256
176
     0
 40
1.0
176
     0
 90
        2
176
     1
  1
strokes_ogs.tif
176
     1
290
     0
176
     1
 40
1.0
176
     1
 40
1.0
176
     1
  0
VISUALSTYLE
  5
18C8
102
{ACAD_REACTORS
330
16
102
}
330
16
100
AcDbVisualStyle
  2
EdgeColorOff
 70
    22
177
     3
291
     1
 70
    58
 90
        2
176
     0
 90
        2
176
     0
 90
        0
176
     0
 90
        0
176
     0
 40
0.6
176
     0
 40
30.0
176
     0
 62
     7
420
 16777215
176
     0
 90
        1
176
     0
 90
        4
176
     0
 62
     7
176
     0
 62
   257
176
     0
 90
        1
176
     0
 90
        1
176
     0
 40
1.0
176
     0
 90
        8
176
     2
 62
     7
176
     0
 40
1.0
176
     0
 90
        1
176
     0
 90
        6
176
     0
 90
        2
176
     0
 62
     7
176
     0
 90
        5
176
     0
 90
        0
176
     0
 90
        0
176
     0
290
     0
176
     0
 90
        1
176
     0
 40
0.0
176
     0
 90
        0
176
     0
290
     0
176
     0
290
     1
176
     0
290
     1
176
     0
290
     0
176
     0
290
     0
176
     0
290
     0
176
     0
290
     0
176
     0
290
     0
176
     0
290
     0
176
     0
 90
       50
176
     0
 40
0.0
176
     0
 40
1.0
176
     0
 90
        0
176
     0
 62
    18
420
        0
176
     0
 90
       50
176
     0
 90
        3
176
     0
 62
     5
420
      255
176
     0
290
     0
176
     0
 90
       50
176
     0
 90
       50
176
     0
 90
       50
176
     0
290
     0
176
     0
 90
       50
176
     0
 62
   256
176
     0
 40
1.0
176
     0
 90
        2
176
     0
  1
strokes_ogs.tif
176
     0
290
     0
176
     0
 40
1.0
176
     0
 40
1.0
176
     0
  0
VISUALSTYLE
  5
18C4
102
{ACAD_REACTORS
330
16
102
}
330
16
100
AcDbVisualStyle
  2
Facepattern
 70
    15
177
     3
291
     1
 70
    58
 90
        2
176
     1
 90
        2
176
     1
 90
        0
176
     1
 90
        0
176
     1
 40
0.6
176
     1
 40
30.0
176
     1
 62
     7
420
 16777215
176
     1
 90
        1
176
     1
 90
        4
176
     1
 62
     7
176
     1
 62
   257
176
     1
 90
        1
176
     1
 90
        1
176
     1
 40
1.0
176
     1
 90
        8
176
     1
 62
     7
176
     1
 40
1.0
176
     1
 90
        1
176
     1
 90
        6
176
     1
 90
        2
176
     1
 62
     7
176
     1
 90
        5
176
     1
 90
        0
176
     1
 90
        0
176
     1
290
     0
176
     1
 90
        1
176
     1
 40
0.0
176
     1
 90
        0
176
     1
290
     0
176
     1
290
     1
176
     1
290
     1
176
     1
290
     0
176
     1
290
     0
176
     1
290
     0
176
     1
290
     0
176
     1
290
     0
176
     1
290
     0
176
     1
 90
       50
176
     1
 40
0.0
176
     1
 40
1.0
176
     1
 90
        0
176
     1
 62
    18
420
        0
176
     1
 90
       50
176
     1
 90
        3
176
     1
 62
     5
420
      255
176
     1
290
     0
176
     1
 90
       50
176
     1
 90
       50
176
     1
 90
       50
176
     1
290
     0
176
     1
 90
       50
176
     1
 62
   256
176
     0
 40
1.0
176
     0
 90
        2
176
     1
  1
strokes_ogs.tif
176
     1
290
     0
176
     1
 40
1.0
176
     1
 40
1.0
176
     1
  0
VISUALSTYLE
  5
18B6
102
{ACAD_REACTORS
330
16
102
}
330
16
100
AcDbVisualStyle
  2
Flat
 70
     0
177
     3
291
     1
 70
    58
 90
        2
176
     1
 90
        1
176
     1
 90
        1
176
     1
 90
        2
176
     1
 40
0.6
176
     1
 40
30.0
176
     1
 62
     7
420
 16777215
176
     1
 90
        0
176
     1
 90
        0
176
     1
 62
     7
176
     1
 62
   257
176
     1
 90
        1
176
     1
 90
        1
176
     1
 40
1.0
176
     1
 90
        8
176
     1
 62
     7
176
     1
 40
1.0
176
     1
 90
        1
176
     1
 90
        6
176
     1
 90
        2
176
     1
 62
     7
176
     1
 90
        5
176
     1
 90
        0
176
     1
 90
        0
176
     1
290
     0
176
     1
 90
       13
176
     1
 40
0.0
176
     1
 90
        0
176
     1
290
     0
176
     1
290
     1
176
     1
290
     1
176
     1
290
     0
176
     1
290
     0
176
     1
290
     0
176
     1
290
     0
176
     1
290
     0
176
     1
290
     0
176
     1
 90
       50
176
     1
 40
0.0
176
     1
 40
1.0
176
     1
 90
        0
176
     1
 62
    18
420
        0
176
     1
 90
       50
176
     1
 90
        3
176
     1
 62
     5
420
      255
176
     1
290
     0
176
     1
 90
       50
176
     1
 90
       50
176
     1
 90
       50
176
     1
290
     0
176
     1
 90
       50
176
     1
 62
   256
176
     0
 40
1.0
176
     0
 90
        2
176
     1
  1
strokes_ogs.tif
176
     1
290
     0
176
     1
 40
1.0
176
     1
 40
1.0
176
     1
  0
VISUALSTYLE
  5
18B7
102
{ACAD_REACTORS
330
16
102
}
330
16
100
AcDbVisualStyle
  2
FlatWithEdges
 70
     1
177
     3
291
     1
 70
    58
 90
        2
176
     1
 90
        1
176
     1
 90
        1
176
     1
 90
        2
176
     1
 40
0.6
176
     1
 40
30.0
176
     1
 62
     7
420
 16777215
176
     1
 90
        1
176
     1
 90
        0
176
     1
 62
     7
176
     1
 62
   257
176
     1
 90
        1
176
     1
 90
        1
176
     1
 40
1.0
176
     1
 90
        0
176
     1
 62
   257
176
     1
 40
1.0
176
     1
 90
        1
176
     1
 90
        6
176
     1
 90
        2
176
     1
 62
     7
176
     1
 90
        5
176
     1
 90
        0
176
     1
 90
        0
176
     1
290
     0
176
     1
 90
       13
176
     1
 40
0.0
176
     1
 90
        0
176
     1
290
     0
176
     1
290
     1
176
     1
290
     1
176
     1
290
     0
176
     1
290
     0
176
     1
290
     0
176
     1
290
     0
176
     1
290
     0
176
     1
290
     0
176
     1
 90
       50
176
     1
 40
0.0
176
     1
 40
1.0
176
     1
 90
        0
176
     1
 62
    18
420
        0
176
     1
 90
       50
176
     1
 90
        3
176
     1
 62
     5
420
      255
176
     1
290
     0
176
     1
 90
       50
176
     1
 90
       50
176
     1
 90
       50
176
     1
290
     0
176
     1
 90
       50
176
     1
 62
   256
176
     0
 40
1.0
176
     0
 90
        2
176
     1
  1
strokes_ogs.tif
176
     1
290
     0
176
     1
 40
1.0
176
     1
 40
1.0
176
     1
  0
VISUALSTYLE
  5
18B8
102
{ACAD_REACTORS
330
16
102
}
330
16
100
AcDbVisualStyle
  2
Gouraud
 70
     2
177
     3
291
     1
 70
    58
 90
        2
176
     1
 90
        2
176
     1
 90
        1
176
     1
 90
        2
176
     1
 40
0.6
176
     1
 40
30.0
176
     1
 62
     7
420
 16777215
176
     1
 90
        0
176
     1
 90
        0
176
     1
 62
     7
176
     1
 62
   257
176
     1
 90
        1
176
     1
 90
        1
176
     1
 40
1.0
176
     1
 90
        0
176
     1
 62
     7
176
     1
 40
1.0
176
     1
 90
        1
176
     1
 90
        6
176
     1
 90
        2
176
     1
 62
     7
176
     1
 90
        5
176
     1
 90
        0
176
     1
 90
        0
176
     1
290
     0
176
     1
 90
       13
176
     1
 40
0.0
176
     1
 90
        0
176
     1
290
     0
176
     1
290
     1
176
     1
290
     1
176
     1
290
     0
176
     1
290
     0
176
     1
290
     0
176
     1
290
     0
176
     1
290
     0
176
     1
290
     0
176
     1
 90
       50
176
     1
 40
0.0
176
     1
 40
1.0
176
     1
 90
        0
176
     1
 62
    18
420
        0
176
     1
 90
       50
176
     1
 90
        3
176
     1
 62
     5
420
      255
176
     1
290
     0
176
     1
 90
       50
176
     1
 90
       50
176
     1
 90
       50
176
     1
290
     0
176
     1
 90
       50
176
     1
 62
   256
176
     0
 40
1.0
176
     0
 90
        2
176
     1
  1
strokes_ogs.tif
176
     1
290
     0
176
     1
 40
1.0
176
     1
 40
1.0
176
     1
  0
VISUALSTYLE
  5
18B9
102
{ACAD_REACTORS
330
16
102
}
330
16
100
AcDbVisualStyle
  2
GouraudWithEdges
 70
     3
177
     3
291
     1
 70
    58
 90
        2
176
     1
 90
        2
176
     1
 90
        1
176
     1
 90
        2
176
     1
 40
0.6
176
     1
 40
30.0
176
     1
 62
     7
420
 16777215
176
     1
 90
        1
176
     1
 90
        0
176
     1
 62
     7
176
     1
 62
   257
176
     1
 90
        1
176
     1
 90
        1
176
     1
 40
1.0
176
     1
 90
        0
176
     1
 62
   257
176
     1
 40
1.0
176
     1
 90
        1
176
     1
 90
        6
176
     1
 90
        2
176
     1
 62
     7
176
     1
 90
        5
176
     1
 90
        0
176
     1
 90
        0
176
     1
290
     0
176
     1
 90
       13
176
     1
 40
0.0
176
     1
 90
        0
176
     1
290
     0
176
     1
290
     1
176
     1
290
     1
176
     1
290
     0
176
     1
290
     0
176
     1
290
     0
176
     1
290
     0
176
     1
290
     0
176
     1
290
     0
176
     1
 90
       50
176
     1
 40
0.0
176
     1
 40
1.0
176
     1
 90
        0
176
     1
 62
    18
420
        0
176
     1
 90
       50
176
     1
 90
        3
176
     1
 62
     5
420
      255
176
     1
290
     0
176
     1
 90
       50
176
     1
 90
       50
176
     1
 90
       50
176
     1
290
     0
176
     1
 90
       50
176
     1
 62
   256
176
     0
 40
1.0
176
     0
 90
        2
176
     1
  1
strokes_ogs.tif
176
     1
290
     0
176
     1
 40
1.0
176
     1
 40
1.0
176
     1
  0
VISUALSTYLE
  5
18BC
102
{ACAD_REACTORS
330
16
102
}
330
16
100
AcDbVisualStyle
  2
Hidden
 70
     6
177
     3
291
     0
 70
    58
 90
        1
176
     1
 90
        2
176
     1
 90
        2
176
     1
 90
        0
176
     1
 40
0.6
176
     1
 40
30.0
176
     1
 62
     7
420
 16777215
176
     1
 90
        2
176
     1
 90
        2
176
     1
 62
     7
176
     1
 62
   257
176
     1
 90
        2
176
     1
 90
        1
176
     1
 40
40.0
176
     1
 90
        0
176
     1
 62
   257
176
     1
 40
1.0
176
     1
 90
        1
176
     1
 90
        6
176
     1
 90
        2
176
     1
 62
     7
176
     1
 90
        3
176
     1
 90
        0
176
     1
 90
        0
176
     1
290
     0
176
     1
 90
        1
176
     1
 40
0.0
176
     1
 90
        0
176
     1
290
     0
176
     1
290
     1
176
     1
290
     1
176
     1
290
     0
176
     1
290
     0
176
     1
290
     0
176
     1
290
     0
176
     1
290
     0
176
     1
290
     0
176
     1
 90
       50
176
     1
 40
0.0
176
     1
 40
1.0
176
     1
 90
        0
176
     1
 62
    18
420
        0
176
     1
 90
       50
176
     1
 90
        3
176
     1
 62
     5
420
      255
176
     1
290
     0
176
     1
 90
       50
176
     1
 90
       50
176
     1
 90
       50
176
     1
290
     0
176
     1
 90
       50
176
     1
 62
   256
176
     0
 40
1.0
176
     0
 90
        2
176
     1
  1
strokes_ogs.tif
176
     1
290
     0
176
     1
 40
1.0
176
     1
 40
1.0
176
     1
  0
VISUALSTYLE
  5
18C6
102
{ACAD_REACTORS
330
16
102
}
330
16
100
AcDbVisualStyle
  2
JitterOff
 70
    20
177
     3
291
     1
 70
    58
 90
        2
176
     0
 90
        2
176
     0
 90
        0
176
     0
 90
        0
176
     0
 40
0.6
176
     0
 40
30.0
176
     0
 62
     7
420
 16777215
176
     0
 90
        1
176
     0
 90
        4
176
     0
 62
     7
176
     0
 62
   257
176
     0
 90
        1
176
     0
 90
        1
176
     0
 40
1.0
176
     0
 90
       10
176
     2
 62
     7
176
     0
 40
1.0
176
     0
 90
        1
176
     0
 90
        6
176
     0
 90
        2
176
     0
 62
     7
176
     0
 90
        5
176
     0
 90
        0
176
     0
 90
        0
176
     0
290
     0
176
     0
 90
        1
176
     0
 40
0.0
176
     0
 90
        0
176
     0
290
     0
176
     0
290
     1
176
     0
290
     1
176
     0
290
     0
176
     0
290
     0
176
     0
290
     0
176
     0
290
     0
176
     0
290
     0
176
     0
290
     0
176
     0
 90
       50
176
     0
 40
0.0
176
     0
 40
1.0
176
     0
 90
        0
176
     0
 62
    18
420
        0
176
     0
 90
       50
176
     0
 90
        3
176
     0
 62
     5
420
      255
176
     0
290
     0
176
     0
 90
       50
176
     0
 90
       50
176
     0
 90
       50
176
     0
290
     0
176
     0
 90
       50
176
     0
 62
   256
176
     0
 40
1.0
176
     0
 90
        2
176
     0
  1
strokes_ogs.tif
176
     0
290
     0
176
     0
 40
1.0
176
     0
 40
1.0
176
     0
  0
VISUALSTYLE
  5
18C3
102
{ACAD_REACTORS
330
16
102
}
330
16
100
AcDbVisualStyle
  2
Linepattern
 70
    14
177
     3
291
     1
 70
    58
 90
        2
176
     1
 90
        2
176
     1
 90
        0
176
     1
 90
        0
176
     1
 40
0.6
176
     1
 40
30.0
176
     1
 62
     7
420
 16777215
176
     1
 90
        1
176
     1
 90
        4
176
     1
 62
     7
176
     1
 62
   257
176
     1
 90
        7
176
     1
 90
        7
176
     1
 40
1.0
176
     1
 90
        8
176
     1
 62
     7
176
     1
 40
1.0
176
     1
 90
        1
176
     1
 90
        6
176
     1
 90
        2
176
     1
 62
     7
176
     1
 90
        5
176
     1
 90
        0
176
     1
 90
        0
176
     1
290
     0
176
     1
 90
        1
176
     1
 40
0.0
176
     1
 90
        0
176
     1
290
     0
176
     1
290
     1
176
     1
290
     1
176
     1
290
     0
176
     1
290
     0
176
     1
290
     0
176
     1
290
     0
176
     1
290
     0
176
     1
290
     0
176
     1
 90
       50
176
     1
 40
0.0
176
     1
 40
1.0
176
     1
 90
        0
176
     1
 62
    18
420
        0
176
     1
 90
       50
176
     1
 90
        3
176
     1
 62
     5
420
      255
176
     1
290
     0
176
     1
 90
       50
176
     1
 90
       50
176
     1
 90
       50
176
     1
290
     0
176
     1
 90
       50
176
     1
 62
   256
176
     0
 40
1.0
176
     0
 90
        2
176
     1
  1
strokes_ogs.tif
176
     1
290
     0
176
     1
 40
1.0
176
     1
 40
1.0
176
     1
  0
VISUALSTYLE
  5
18C7
102
{ACAD_REACTORS
330
16
102
}
330
16
100
AcDbVisualStyle
  2
OverhangOff
 70
    21
177
     3
291
     1
 70
    58
 90
        2
176
     0
 90
        2
176
     0
 90
        0
176
     0
 90
        0
176
     0
 40
0.6
176
     0
 40
30.0
176
     0
 62
     7
420
 16777215
176
     0
 90
        1
176
     0
 90
        4
176
     0
 62
     7
176
     0
 62
   257
176
     0
 90
        1
176
     0
 90
        1
176
     0
 40
1.0
176
     0
 90
        9
176
     2
 62
     7
176
     0
 40
1.0
176
     0
 90
        1
176
     0
 90
        6
176
     0
 90
        2
176
     0
 62
     7
176
     0
 90
        5
176
     0
 90
        0
176
     0
 90
        0
176
     0
290
     0
176
     0
 90
        1
176
     0
 40
0.0
176
     0
 90
        0
176
     0
290
     0
176
     0
290
     1
176
     0
290
     1
176
     0
290
     0
176
     0
290
     0
176
     0
290
     0
176
     0
290
     0
176
     0
290
     0
176
     0
290
     0
176
     0
 90
       50
176
     0
 40
0.0
176
     0
 40
1.0
176
     0
 90
        0
176
     0
 62
    18
420
        0
176
     0
 90
       50
176
     0
 90
        3
176
     0
 62
     5
420
      255
176
     0
290
     0
176
     0
 90
       50
176
     0
 90
       50
176
     0
 90
       50
176
     0
290
     0
176
     0
 90
       50
176
     0
 62
   256
176
     0
 40
1.0
176
     0
 90
        2
176
     0
  1
strokes_ogs.tif
176
     0
290
     0
176
     0
 40
1.0
176
     0
 40
1.0
176
     0
  0
VISUALSTYLE
  5
18BE
102
{ACAD_REACTORS
330
16
102
}
330
16
100
AcDbVisualStyle
  2
Realistic
 70
     8
177
     3
291
     0
 70
    58
 90
        2
176
     1
 90
        3
176
     1
 90
        0
176
     1
 90
        2
176
     1
 40
0.6
176
     1
 40
30.0
176
     1
 62
     7
420
 16777215
176
     1
 90
        0
176
     1
 90
        0
176
     1
 62
     7
176
     1
 62
   257
176
     1
 90
        1
176
     1
 90
        1
176
     1
 40
1.0
176
     1
 90
        8
176
     1
 62
   257
176
     1
 40
1.0
176
     1
 90
        1
176
     1
 90
        6
176
     1
 90
        2
176
     1
 62
     7
176
     1
 90
        3
176
     1
 90
        0
176
     1
 90
        0
176
     1
290
     0
176
     1
 90
       13
176
     1
 40
0.0
176
     1
 90
        0
176
     1
290
     0
176
     1
290
     1
176
     1
290
     1
176
     1
290
     0
176
     1
290
     0
176
     1
290
     0
176
     1
290
     0
176
     1
290
     0
176
     1
290
     0
176
     1
 90
       50
176
     1
 40
0.0
176
     1
 40
1.0
176
     1
 90
        0
176
     1
 62
    18
420
        0
176
     1
 90
       50
176
     1
 90
        3
176
     1
 62
     5
420
      255
176
     1
290
     0
176
     1
 90
       50
176
     1
 90
       50
176
     1
 90
       50
176
     1
290
     0
176
     1
 90
       50
176
     1
 62
   256
176
     0
 40
1.0
176
     0
 90
        2
176
     1
  1
strokes_ogs.tif
176
     1
290
     0
176
     1
 40
1.0
176
     1
 40
1.0
176
     1
  0
VISUALSTYLE
  5
18CD
102
{ACAD_REACTORS
330
16
102
}
330
16
100
AcDbVisualStyle
  2
Shaded
 70
    27
177
     3
291
     0
 70
    58
 90
        2
176
     1
 90
        2
176
     1
 90
        1
176
     1
 90
        2
176
     1
 40
0.6
176
     1
 40
30.0
176
     1
 62
     7
420
 16777215
176
     1
 90
        0
176
     1
 90
        4
176
     1
 62
     7
176
     1
 62
   257
176
     1
 90
        1
176
     1
 90
        1
176
     1
 40
1.0
176
     1
 90
        8
176
     1
 62
   257
176
     1
 40
1.0
176
     1
 90
        1
176
     1
 90
        6
176
     1
 90
        2
176
     1
 62
     8
420
  7895160
176
     1
 90
        3
176
     1
 90
        0
176
     1
 90
        0
176
     1
290
     0
176
     1
 90
        5
176
     1
 40
0.0
176
     1
 90
        0
176
     1
290
     0
176
     1
290
     1
176
     1
290
     1
176
     1
290
     0
176
     1
290
     0
176
     1
290
     0
176
     1
290
     0
176
     1
290
     0
176
     1
290
     0
176
     1
 90
       50
176
     1
 40
0.0
176
     1
 40
1.0
176
     1
 90
        0
176
     1
 62
    18
420
        0
176
     1
 90
       50
176
     1
 90
        3
176
     1
 62
     5
420
      255
176
     1
290
     0
176
     1
 90
       50
176
     1
 90
       50
176
     1
 90
       50
176
     1
290
     0
176
     1
 90
       50
176
     1
 62
   256
176
     0
 40
1.0
176
     0
 90
        2
176
     1
  1
strokes_ogs.tif
176
     1
290
     0
176
     1
 40
1.0
176
     1
 40
1.0
176
     1
  0
VISUALSTYLE
  5
18CC
102
{ACAD_REACTORS
330
16
102
}
330
16
100
AcDbVisualStyle
  2
Shaded with edges
 70
    26
177
     3
291
     0
 70
    58
 90
        2
176
     1
 90
        2
176
     1
 90
        1
176
     1
 90
        2
176
     1
 40
0.6
176
     1
 40
30.0
176
     1
 62
     7
420
 16777215
176
     1
 90
        1
176
     1
 90
       10
176
     1
 62
     7
176
     1
 62
   257
176
     1
 90
        2
176
     1
 90
        1
176
     1
 40
1.0
176
     1
 90
        8
176
     1
 62
   257
176
     1
 40
1.0
176
     1
 90
        1
176
     1
 90
        6
176
     1
 90
        2
176
     1
 62
     7
176
     1
 90
        3
176
     1
 90
        0
176
     1
 90
        0
176
     1
290
     0
176
     1
 90
        5
176
     1
 40
0.0
176
     1
 90
        0
176
     1
290
     0
176
     1
290
     1
176
     1
290
     1
176
     1
290
     0
176
     1
290
     0
176
     1
290
     0
176
     1
290
     0
176
     1
290
     0
176
     1
290
     0
176
     1
 90
       50
176
     1
 40
0.0
176
     1
 40
1.0
176
     1
 90
        0
176
     1
 62
    18
420
        0
176
     1
 90
       50
176
     1
 90
        3
176
     1
 62
     5
420
      255
176
     1
290
     0
176
     1
 90
       50
176
     1
 90
       50
176
     1
 90
       50
176
     1
290
     0
176
     1
 90
       50
176
     1
 62
   256
176
     0
 40
1.0
176
     0
 90
        2
176
     1
  1
strokes_ogs.tif
176
     1
290
     0
176
     1
 40
1.0
176
     1
 40
1.0
176
     1
  0
VISUALSTYLE
  5
18C9
102
{ACAD_REACTORS
330
16
102
}
330
16
100
AcDbVisualStyle
  2
Shades of Gray
 70
    23
177
     3
291
     0
 70
    58
 90
        2
176
     1
 90
        2
176
     1
 90
        3
176
     1
 90
        0
176
     1
 40
0.6
176
     1
 40
30.0
176
     1
 62
     7
420
 16777215
176
     1
 90
        2
176
     1
 90
        2
176
     1
 62
     7
176
     1
 62
     7
176
     1
 90
        1
176
     1
 90
        1
176
     1
 40
40.0
176
     1
 90
        8
176
     1
 62
     7
176
     1
 40
1.0
176
     1
 90
        1
176
     1
 90
        6
176
     1
 90
        2
176
     1
 62
     7
176
     1
 90
        3
176
     1
 90
        0
176
     1
 90
        0
176
     1
290
     0
176
     1
 90
        1
176
     1
 40
0.0
176
     1
 90
        0
176
     1
290
     0
176
     1
290
     1
176
     1
290
     1
176
     1
290
     0
176
     1
290
     0
176
     1
290
     0
176
     1
290
     0
176
     1
290
     0
176
     1
290
     0
176
     1
 90
       50
176
     1
 40
0.0
176
     1
 40
1.0
176
     1
 90
        0
176
     1
 62
    18
420
        0
176
     1
 90
       50
176
     1
 90
        3
176
     1
 62
     5
420
      255
176
     1
290
     0
176
     1
 90
       50
176
     1
 90
       50
176
     1
 90
       50
176
     1
290
     0
176
     1
 90
       50
176
     1
 62
   256
176
     0
 40
1.0
176
     0
 90
        2
176
     1
  1
strokes_ogs.tif
176
     1
290
     0
176
     1
 40
1.0
176
     1
 40
1.0
176
     1
  0
VISUALSTYLE
  5
18CA
102
{ACAD_REACTORS
330
16
102
}
330
16
100
AcDbVisualStyle
  2
Sketchy
 70
    24
177
     3
291
     0
 70
    58
 90
        1
176
     1
 90
        2
176
     1
 90
        2
176
     1
 90
        0
176
     1
 40
0.6
176
     1
 40
30.0
176
     1
 62
     7
420
 16777215
176
     1
 90
        2
176
     1
 90
        2
176
     1
 62
     7
176
     1
 62
     7
176
     1
 90
        1
176
     1
 90
        1
176
     1
 40
40.0
176
     1
 90
       11
176
     1
 62
     7
176
     1
 40
1.0
176
     1
 90
        1
176
     1
 90
        6
176
     1
 90
        2
176
     1
 62
     7
176
     1
 90
        6
176
     1
 90
        0
176
     1
 90
        0
176
     1
290
     0
176
     1
 90
        1
176
     1
 40
0.0
176
     1
 90
        0
176
     1
290
     0
176
     1
290
     1
176
     1
290
     1
176
     1
290
     0
176
     1
290
     0
176
     1
290
     0
176
     1
290
     0
176
     1
290
     0
176
     1
290
     0
176
     1
 90
       50
176
     1
 40
0.0
176
     1
 40
1.0
176
     1
 90
        0
176
     1
 62
    18
420
        0
176
     1
 90
       50
176
     1
 90
        3
176
     1
 62
     5
420
      255
176
     1
290
     0
176
     1
 90
       50
176
     1
 90
       50
176
     1
 90
       50
176
     1
290
     0
176
     1
 90
       50
176
     1
 62
   256
176
     0
 40
1.0
176
     0
 90
        2
176
     1
  1
strokes_ogs.tif
176
     1
290
     0
176
     1
 40
1.0
176
     1
 40
1.0
176
     1
  0
VISUALSTYLE
  5
18C2
102
{ACAD_REACTORS
330
16
102
}
330
16
100
AcDbVisualStyle
  2
Thicken
 70
    13
177
     3
291
     1
 70
    58
 90
        2
176
     1
 90
        2
176
     1
 90
        0
176
     1
 90
        0
176
     1
 40
0.6
176
     1
 40
30.0
176
     1
 62
     7
420
 16777215
176
     1
 90
        1
176
     1
 90
        4
176
     1
 62
     7
176
     1
 62
   257
176
     1
 90
        1
176
     1
 90
        1
176
     1
 40
1.0
176
     1
 90
       12
176
     1
 62
     7
176
     1
 40
1.0
176
     1
 90
        1
176
     1
 90
        6
176
     1
 90
        2
176
     1
 62
     7
176
     1
 90
        5
176
     1
 90
        0
176
     1
 90
        0
176
     1
290
     0
176
     1
 90
        1
176
     1
 40
0.0
176
     1
 90
        0
176
     1
290
     0
176
     1
290
     1
176
     1
290
     1
176
     1
290
     0
176
     1
290
     0
176
     1
290
     0
176
     1
290
     0
176
     1
290
     0
176
     1
290
     0
176
     1
 90
       50
176
     1
 40
0.0
176
     1
 40
1.0
176
     1
 90
        0
176
     1
 62
    18
420
        0
176
     1
 90
       50
176
     1
 90
        3
176
     1
 62
     5
420
      255
176
     1
290
     0
176
     1
 90
       50
176
     1
 90
       50
176
     1
 90
       50
176
     1
290
     0
176
     1
 90
       50
176
     1
 62
   256
176
     0
 40
1.0
176
     0
 90
        2
176
     1
  1
strokes_ogs.tif
176
     1
290
     0
176
     1
 40
1.0
176
     1
 40
1.0
176
     1
  0
VISUALSTYLE
  5
18BB
102
{ACAD_REACTORS
330
16
102
}
330
16
100
AcDbVisualStyle
  2
Wireframe
 70
     5
177
     3
291
     0
 70
    58
 90
        0
176
     1
 90
        2
176
     1
 90
        0
176
     1
 90
        0
176
     1
 40
0.6
176
     1
 40
30.0
176
     1
 62
     7
420
 16777215
176
     1
 90
        1
176
     1
 90
        4
176
     1
 62
     7
176
     1
 62
   257
176
     1
 90
        1
176
     1
 90
        1
176
     1
 40
1.0
176
     1
 90
        0
176
     1
 62
   257
176
     1
 40
1.0
176
     1
 90
        1
176
     1
 90
        6
176
     1
 90
        2
176
     1
 62
     7
176
     1
 90
        3
176
     1
 90
        0
176
     1
 90
        0
176
     1
290
     0
176
     1
 90
        1
176
     1
 40
0.0
176
     1
 90
        0
176
     1
290
     0
176
     1
290
     1
176
     1
290
     1
176
     1
290
     0
176
     1
290
     0
176
     1
290
     0
176
     1
290
     0
176
     1
290
     0
176
     1
290
     0
176
     1
 90
       50
176
     1
 40
0.0
176
     1
 40
1.0
176
     1
 90
        0
176
     1
 62
    18
420
        0
176
     1
 90
       50
176
     1
 90
        3
176
     1
 62
     5
420
      255
176
     1
290
     0
176
     1
 90
       50
176
     1
 90
       50
176
     1
 90
       50
176
     1
290
     0
176
     1
 90
       50
176
     1
 62
   256
176
     0
 40
1.0
176
     0
 90
        2
176
     1
  1
strokes_ogs.tif
176
     1
290
     0
176
     1
 40
1.0
176
     1
 40
1.0
176
     1
  0
VISUALSTYLE
  5
18CB
102
{ACAD_REACTORS
330
16
102
}
330
16
100
AcDbVisualStyle
  2
X-Ray
 70
    25
177
     3
291
     0
 70
    58
 90
        2
176
     1
 90
        2
176
     1
 90
        1
176
     1
 90
        1
176
     1
 40
0.5
176
     1
 40
30.0
176
     1
 62
     7
420
 16777215
176
     1
 90
        1
176
     1
 90
        0
176
     1
 62
     7
176
     1
 62
   257
176
     1
 90
        1
176
     1
 90
        1
176
     1
 40
1.0
176
     1
 90
        8
176
     1
 62
     7
176
     1
 40
1.0
176
     1
 90
        1
176
     1
 90
        6
176
     1
 90
        2
176
     1
 62
     7
176
     1
 90
        3
176
     1
 90
        0
176
     1
 90
        0
176
     1
290
     0
176
     1
 90
       13
176
     1
 40
0.0
176
     1
 90
        0
176
     1
290
     0
176
     1
290
     1
176
     1
290
     1
176
     1
290
     0
176
     1
290
     0
176
     1
290
     0
176
     1
290
     0
176
     1
290
     0
176
     1
290
     0
176
     1
 90
       50
176
     1
 40
0.0
176
     1
 40
1.0
176
     1
 90
        0
176
     1
 62
    18
420
        0
176
     1
 90
       50
176
     1
 90
        3
176
     1
 62
     5
420
      255
176
     1
290
     0
176
     1
 90
       50
176
     1
 90
       50
176
     1
 90
       50
176
     1
290
     0
176
     1
 90
       50
176
     1
 62
   256
176
     0
 40
1.0
176
     0
 90
        2
176
     1
  1
strokes_ogs.tif
176
     1
290
     0
176
     1
 40
1.0
176
     1
 40
1.0
176
     1
  0
DICTIONARYVAR
  5
2E
330
2D
100
DictionaryVariables
280
     0
  1
1.0.3 @ 2025-03-12T08:17:39.561211+00:00
  0
DICTIONARYVAR
  5
18B5
330
2D
100
DictionaryVariables
280
     0
  1
1.0.3 @ 2025-03-12T08:26:47.445449+00:00
  0
ENDSEC
  0
SECTION
  2
ACDSDATA
 70
     2
 71
     2
  0
ACDSSCHEMA
 90
        0
  1
AcDb3DSolid_ASM_Data
  2
AcDbDs::ID
280
    10
 91
        0
  2
ASM_Data
280
    15
 91
        0
101
ACDSRECORD
 95
        0
 90
        1
  2
AcDbDs::TreatedAsObjectData
280
     1
291
     1
101
ACDSRECORD
 95
        0
 90
        2
  2
AcDbDs::Legacy
280
     1
291
     1
101
ACDSRECORD
  1
AcDbDs::ID
 90
        3
  2
AcDs:Indexable
280
     1
291
     1
101
ACDSRECORD
  1
AcDbDs::ID
 90
        4
  2
AcDbDs::HandleAttribute
280
     7
282
     1
  0
ACDSSCHEMA
 90
        1
  1
AcDbDs::TreatedAsObjectDataSchema
  2
AcDbDs::TreatedAsObjectData
280
     1
 91
        0
  0
ACDSSCHEMA
 90
        2
  1
AcDbDs::LegacySchema
  2
AcDbDs::Legacy
280
     1
 91
        0
  0
ACDSSCHEMA
 90
        3
  1
AcDbDs::IndexedPropertySchema
  2
AcDs:Indexable
280
     1
 91
        0
  0
ACDSSCHEMA
 90
        4
  1
AcDbDs::HandleAttributeSchema
  2
AcDbDs::HandleAttribute
280
     7
 91
        8
  0
ENDSEC
  0
EOF
